  0
SECTION
  2
HEADER
  9
$ACADVER
  1
AC1014
  9
$ACADMAINTVER
 70
     9
  9
$DWGCODEPAGE
  3
ANSI_1252
  9
$INSBASE
 10
0.0
 20
0.0
 30
0.0
  9
$EXTMIN
 10
-0.7898512991104074
 20
1.502527966415915
 30
0.0
  9
$EXTMAX
 10
2.695368022636721
 20
2.316073751093648
 30
0.0
  9
$LIMMIN
 10
0.0
 20
0.0
  9
$LIMMAX
 10
12.0
 20
9.0
  9
$ORTHOMODE
 70
     0
  9
$REGENMODE
 70
     1
  9
$FILLMODE
 70
     1
  9
$QTEXTMODE
 70
     0
  9
$MIRRTEXT
 70
     0
  9
$DRAGMODE
 70
     2
  9
$LTSCALE
 40
1.0
  9
$OSMODE
 70
    39
  9
$ATTMODE
 70
     1
  9
$TEXTSIZE
 40
0.125
  9
$TRACEWID
 40
0.05
  9
$TEXTSTYLE
  7
ROMANS
  9
$CLAYER
  8
PHANTOM
  9
$CELTYPE
  6
BYLAYER
  9
$CECOLOR
 62
   256
  9
$CELTSCALE
 40
1.0
  9
$DELOBJ
 70
     1
  9
$DISPSILH
 70
     1
  9
$DIMSCALE
 40
1.0
  9
$DIMASZ
 40
0.125
  9
$DIMEXO
 40
0.125
  9
$DIMDLI
 40
0.38
  9
$DIMRND
 40
0.0
  9
$DIMDLE
 40
0.0
  9
$DIMEXE
 40
0.125
  9
$DIMTP
 40
0.0
  9
$DIMTM
 40
0.0
  9
$DIMTXT
 40
0.125
  9
$DIMCEN
 40
-0.125
  9
$DIMTSZ
 40
0.0
  9
$DIMTOL
 70
     0
  9
$DIMLIM
 70
     0
  9
$DIMTIH
 70
     1
  9
$DIMTOH
 70
     1
  9
$DIMSE1
 70
     0
  9
$DIMSE2
 70
     0
  9
$DIMTAD
 70
     0
  9
$DIMZIN
 70
     4
  9
$DIMBLK
  1

  9
$DIMASO
 70
     1
  9
$DIMSHO
 70
     1
  9
$DIMPOST
  1

  9
$DIMAPOST
  1

  9
$DIMALT
 70
     0
  9
$DIMALTD
 70
     2
  9
$DIMALTF
 40
25.4
  9
$DIMLFAC
 40
0.25
  9
$DIMTOFL
 70
     0
  9
$DIMTVP
 40
0.0
  9
$DIMTIX
 70
     0
  9
$DIMSOXD
 70
     0
  9
$DIMSAH
 70
     0
  9
$DIMBLK1
  1

  9
$DIMBLK2
  1

  9
$DIMSTYLE
  2
STANDARD
  9
$DIMCLRD
 70
     0
  9
$DIMCLRE
 70
     0
  9
$DIMCLRT
 70
     0
  9
$DIMTFAC
 40
1.0
  9
$DIMGAP
 40
0.09
  9
$DIMJUST
 70
     0
  9
$DIMSD1
 70
     0
  9
$DIMSD2
 70
     0
  9
$DIMTOLJ
 70
     1
  9
$DIMTZIN
 70
     4
  9
$DIMALTZ
 70
     0
  9
$DIMALTTZ
 70
     0
  9
$DIMFIT
 70
     3
  9
$DIMUPT
 70
     0
  9
$DIMUNIT
 70
     2
  9
$DIMDEC
 70
     3
  9
$DIMTDEC
 70
     3
  9
$DIMALTU
 70
     2
  9
$DIMALTTD
 70
     2
  9
$DIMTXSTY
  7
ROMANS
  9
$DIMAUNIT
 70
     0
  9
$LUNITS
 70
     2
  9
$LUPREC
 70
     4
  9
$SKETCHINC
 40
0.1
  9
$FILLETRAD
 40
0.015
  9
$AUNITS
 70
     0
  9
$AUPREC
 70
     0
  9
$MENU
  1
.
  9
$ELEVATION
 40
0.0
  9
$PELEVATION
 40
0.0
  9
$THICKNESS
 40
0.0
  9
$LIMCHECK
 70
     0
  9
$BLIPMODE
 70
     0
  9
$CHAMFERA
 40
0.5
  9
$CHAMFERB
 40
0.5
  9
$CHAMFERC
 40
1.0
  9
$CHAMFERD
 40
0.0
  9
$SKPOLY
 70
     1
  9
$TDCREATE
 40
2452306.437743935
  9
$TDUPDATE
 40
2452458.327280069
  9
$TDINDWG
 40
0.1335660301
  9
$TDUSRTIMER
 40
0.1335660301
  9
$USRTIMER
 70
     1
  9
$ANGBASE
 50
0.0
  9
$ANGDIR
 70
     0
  9
$PDMODE
 70
     0
  9
$PDSIZE
 40
0.0
  9
$PLINEWID
 40
0.0
  9
$COORDS
 70
     2
  9
$SPLFRAME
 70
     0
  9
$SPLINETYPE
 70
     6
  9
$SPLINESEGS
 70
     8
  9
$ATTDIA
 70
     0
  9
$ATTREQ
 70
     1
  9
$HANDLING
 70
 22529
  9
$HANDSEED
  5
547
  9
$SURFTAB1
 70
     6
  9
$SURFTAB2
 70
     6
  9
$SURFTYPE
 70
     6
  9
$SURFU
 70
     6
  9
$SURFV
 70
     6
  9
$UCSNAME
  2

  9
$UCSORG
 10
0.0
 20
0.0
 30
0.0
  9
$UCSXDIR
 10
1.0
 20
0.0
 30
0.0
  9
$UCSYDIR
 10
0.0
 20
1.0
 30
0.0
  9
$PUCSNAME
  2

  9
$PUCSORG
 10
0.0
 20
0.0
 30
0.0
  9
$PUCSXDIR
 10
1.0
 20
0.0
 30
0.0
  9
$PUCSYDIR
 10
0.0
 20
1.0
 30
0.0
  9
$USERI1
 70
     0
  9
$USERI2
 70
     0
  9
$USERI3
 70
     0
  9
$USERI4
 70
     0
  9
$USERI5
 70
     0
  9
$USERR1
 40
0.0
  9
$USERR2
 40
0.0
  9
$USERR3
 40
0.0
  9
$USERR4
 40
0.0
  9
$USERR5
 40
0.0
  9
$WORLDVIEW
 70
     1
  9
$SHADEDGE
 70
     3
  9
$SHADEDIF
 70
    70
  9
$TILEMODE
 70
     1
  9
$MAXACTVP
 70
    48
  9
$PINSBASE
 10
0.0
 20
0.0
 30
0.0
  9
$PLIMCHECK
 70
     0
  9
$PEXTMIN
 10
1.000000000000000E+20
 20
1.000000000000000E+20
 30
1.000000000000000E+20
  9
$PEXTMAX
 10
-1.000000000000000E+20
 20
-1.000000000000000E+20
 30
-1.000000000000000E+20
  9
$PLIMMIN
 10
0.0
 20
0.0
  9
$PLIMMAX
 10
12.0
 20
9.0
  9
$UNITMODE
 70
     0
  9
$VISRETAIN
 70
     1
  9
$PLINEGEN
 70
     1
  9
$PSLTSCALE
 70
     1
  9
$TREEDEPTH
 70
  3020
  9
$PICKSTYLE
 70
     1
  9
$CMLSTYLE
  2
STANDARD
  9
$CMLJUST
 70
     0
  9
$CMLSCALE
 40
1.0
  9
$PROXYGRAPHICS
 70
     1
  9
$MEASUREMENT
 70
     0
  0
ENDSEC
  0
SECTION
  2
CLASSES
  0
CLASS
  1
DICTIONARYVAR
  2
AcDbDictionaryVar
  3
AutoCAD 2000
 90
        0
280
     0
281
     0
  0
CLASS
  1
LWPOLYLINE
  2
AcDbPolyline
  3
AutoCAD 2000
 90
        0
280
     0
281
     1
  0
CLASS
  1
ACDBDICTIONARYWDFLT
  2
AcDbDictionaryWithDefault
  3
AutoCAD 2000
 90
        0
280
     0
281
     0
  0
CLASS
  1
ACDBPLACEHOLDER
  2
AcDbPlaceHolder
  3
AutoCAD 2000
 90
        0
280
     0
281
     0
  0
CLASS
  1
LAYOUT
  2
AcDbLayout
  3
AutoCAD 2000
 90
        0
280
     0
281
     0
  0
CLASS
  1
LONG_TRANSACTION
  2
AcDbLongTransaction
  3
AutoCAD 2000
 90
        0
280
     0
281
     0
  0
CLASS
  1
LWPOLYLINE
  2
AcDbPolyline
  3
AutoCAD 2000
 90
        0
280
     0
281
     1
  0
CLASS
  1
HATCH
  2
AcDbHatch
  3
AutoCAD 2000
 90
        0
280
     0
281
     1
  0
CLASS
  1
XRECORD
  2
AcDbXrecord
  3
AutoCAD 2000
 90
        0
280
     0
281
     0
  0
ENDSEC
  0
SECTION
  2
TABLES
  0
TABLE
  2
VPORT
  5
8
330
0
100
AcDbSymbolTable
 70
     2
  0
VPORT
  5
522
330
8
100
AcDbSymbolTableRecord
100
AcDbViewportTableRecord
  2
*ACTIVE
 70
     0
 10
0.0
 20
0.0
 11
1.0
 21
1.0
 12
3.874344509201284
 22
1.909425069363118
 13
0.0
 23
0.0
 14
0.5
 24
0.5
 15
0.5
 25
0.5
 16
0.0
 26
0.0
 36
1.0
 17
0.0
 27
0.0
 37
0.0
 40
2.163375689722907
 41
4.320930232558139
 42
50.0
 43
0.0
 44
0.0
 50
0.0
 51
0.0
 71
     0
 72
  2000
 73
     1
 74
     1
 75
     0
 76
     0
 77
     0
 78
     0
  0
ENDTAB
  0
TABLE
  2
LTYPE
  5
5
330
0
100
AcDbSymbolTable
 70
     2
  0
LTYPE
  5
13
330
5
100
AcDbSymbolTableRecord
100
AcDbLinetypeTableRecord
  2
BYBLOCK
 70
     0
  3

 72
    65
 73
     0
 40
0.0
  0
LTYPE
  5
14
330
5
100
AcDbSymbolTableRecord
100
AcDbLinetypeTableRecord
  2
BYLAYER
 70
     0
  3

 72
    65
 73
     0
 40
0.0
  0
LTYPE
  5
15
330
5
100
AcDbSymbolTableRecord
100
AcDbLinetypeTableRecord
  2
CONTINUOUS
 70
     0
  3
Solid line
 72
    65
 73
     0
 40
0.0
  0
LTYPE
  5
30F
330
5
100
AcDbSymbolTableRecord
100
AcDbLinetypeTableRecord
  2
PHANTOM2
 70
     0
  3
Phantom (.5x) ___ _ _ ___ _ _ ___ _ _ ___ _ _
 72
    65
 73
     6
 40
1.25
 49
0.625
 74
     0
 49
-0.125
 74
     0
 49
0.125
 74
     0
 49
-0.125
 74
     0
 49
0.125
 74
     0
 49
-0.125
 74
     0
  0
ENDTAB
  0
TABLE
  2
LAYER
  5
2
330
0
100
AcDbSymbolTable
 70
     3
  0
LAYER
  5
F
330
2
100
AcDbSymbolTableRecord
100
AcDbLayerTableRecord
  2
0
 70
     0
 62
     7
  6
CONTINUOUS
  0
LAYER
  5
139
330
2
100
AcDbSymbolTableRecord
100
AcDbLayerTableRecord
  2
TEXT
 70
     0
 62
     3
  6
CONTINUOUS
  0
LAYER
  5
310
330
2
100
AcDbSymbolTableRecord
100
AcDbLayerTableRecord
  2
PHANTOM
 70
     0
 62
     1
  6
PHANTOM2
  0
ENDTAB
  0
TABLE
  2
STYLE
  5
3
330
0
100
AcDbSymbolTable
 70
     3
  0
STYLE
  5
10
330
3
100
AcDbSymbolTableRecord
100
AcDbTextStyleTableRecord
  2
STANDARD
 70
     0
 40
0.0
 41
1.0
 50
0.0
 71
     0
 42
0.2
  3
txt
  4

  0
STYLE
  5
4C
330
3
100
AcDbSymbolTableRecord
100
AcDbTextStyleTableRecord
  2
ROMANS
 70
     0
 40
0.0
 41
1.0
 50
0.0
 71
     0
 42
0.125
  3
romans.shx
  4

  0
STYLE
  5
411
330
3
100
AcDbSymbolTableRecord
100
AcDbTextStyleTableRecord
  2
ITALICC
 70
     0
 40
0.0
 41
1.0
 50
0.0
 71
     0
 42
0.125
  3
italicc
  4

  0
ENDTAB
  0
TABLE
  2
VIEW
  5
6
330
0
100
AcDbSymbolTable
 70
     0
  0
ENDTAB
  0
TABLE
  2
UCS
  5
7
330
0
100
AcDbSymbolTable
 70
     0
  0
ENDTAB
  0
TABLE
  2
APPID
  5
9
330
0
100
AcDbSymbolTable
 70
     1
  0
APPID
  5
11
330
9
100
AcDbSymbolTableRecord
100
AcDbRegAppTableRecord
  2
ACAD
 70
     0
  0
ENDTAB
  0
TABLE
  2
DIMSTYLE
  5
A
330
0
100
AcDbSymbolTable
 70
     1
  0
DIMSTYLE
105
1D
330
A
100
AcDbSymbolTableRecord
100
AcDbDimStyleTableRecord
  2
STANDARD
 70
     0
  3

  4

  5

  6

  7

 40
1.0
 41
0.125
 42
0.125
 43
0.38
 44
0.125
 45
0.0
 46
0.0
 47
0.0
 48
0.0
140
0.125
141
-0.125
142
0.0
143
25.4
144
0.25
145
0.0
146
1.0
147
0.09
 71
     0
 72
     0
 73
     1
 74
     1
 75
     0
 76
     0
 77
     0
 78
     4
170
     0
171
     2
172
     0
173
     0
174
     0
175
     0
176
     0
177
     0
178
     0
270
     2
271
     3
272
     3
273
     2
274
     2
340
4C
275
     0
280
     0
281
     0
282
     0
283
     1
284
     4
285
     0
286
     0
287
     3
288
     0
  0
ENDTAB
  0
TABLE
  2
BLOCK_RECORD
  5
1
330
0
100
AcDbSymbolTable
 70
     0
  0
BLOCK_RECORD
  5
19
102
{ACAD_XDICTIONARY
360
545
102
}
330
1
100
AcDbSymbolTableRecord
100
AcDbBlockTableRecord
  2
*MODEL_SPACE
  0
BLOCK_RECORD
  5
16
102
{ACAD_XDICTIONARY
360
543
102
}
330
1
100
AcDbSymbolTableRecord
100
AcDbBlockTableRecord
  2
*PAPER_SPACE
  0
ENDTAB
  0
ENDSEC
  0
SECTION
  2
BLOCKS
  0
BLOCK
  5
1A
330
19
100
AcDbEntity
  8
0
100
AcDbBlockBegin
  2
*MODEL_SPACE
 70
     0
 10
0.0
 20
0.0
 30
0.0
  3
*MODEL_SPACE
  1

  0
ENDBLK
  5
1B
330
19
100
AcDbEntity
  8
0
100
AcDbBlockEnd
  0
BLOCK
  5
17
330
16
100
AcDbEntity
 67
     1
  8
0
100
AcDbBlockBegin
  2
*PAPER_SPACE
 70
     0
 10
0.0
 20
0.0
 30
0.0
  3
*PAPER_SPACE
  1

  0
ENDBLK
  5
18
330
16
100
AcDbEntity
 67
     1
  8
0
100
AcDbBlockEnd
  0
ENDSEC
  0
SECTION
  2
ENTITIES
  0
LWPOLYLINE
  5
1C7
330
19
100
AcDbEntity
  8
0
100
AcDbPolyline
 90
       27
 70
   129
 43
0.0
 10
0.9848824785364605
 20
2.250967149375849
 10
0.6453824785364617
 20
2.250967149375849
 42
0.4142135623730951
 10
0.630382478536462
 20
2.235967149375849
 10
0.6303824785364619
 20
2.202967149375849
 42
-0.4142135623730951
 10
0.6153824785364622
 20
2.187967149375849
 10
0.4573824785364592
 20
2.187967149375849
 42
-0.4142135623730951
 10
0.4423824785364595
 20
2.202967149375849
 10
0.4423824785364597
 20
2.235967149375849
 42
-0.414213562373093
 10
0.4573824785364593
 20
2.250967149375849
 10
0.5523824785364582
 20
2.25096714937585
 42
0.4142135623730927
 10
0.5673824785364579
 20
2.26596714937585
 10
0.5673824785364588
 20
2.29796714937585
 42
-0.4142135623730951
 10
0.5823824785364585
 20
2.31296714937585
 10
1.407382478536457
 20
2.31296714937585
 42
-0.4142135623731115
 10
1.422382478536457
 20
2.297967149375849
 10
1.422382478536455
 20
2.265967149375851
 42
0.4142135623731096
 10
1.437382478536455
 20
2.25096714937585
 10
1.532382478536458
 20
2.250967149375849
 42
-0.4142135623730904
 10
1.547382478536458
 20
2.235967149375849
 10
1.547382478536458
 20
2.202967149375848
 42
-0.4142135623730965
 10
1.532382478536458
 20
2.187967149375848
 10
1.374382478536458
 20
2.18796714937585
 42
-0.4142135623730921
 10
1.359382478536458
 20
2.20296714937585
 10
1.359382478536459
 20
2.23596714937585
 42
0.4142135623730979
 10
1.344382478536459
 20
2.25096714937585
 10
1.00488247853646
 20
2.250967149375849
 10
0.9948824785364607
 20
2.260967149375849
  0
TEXT
  5
496
330
19
100
AcDbEntity
  8
TEXT
100
AcDbText
 10
0.2001540896405451
 20
1.960546570498496
 30
0.0
 40
0.125
  1
PART #170013
  7
ITALICC
 72
     1
 11
0.9531302801167358
 21
1.960546570498496
 31
0.0
100
AcDbText
  0
LWPOLYLINE
  5
497
330
19
100
AcDbEntity
  8
TEXT
100
AcDbPolyline
 90
        3
 70
     0
 43
0.0
 10
0.5840894738404998
 20
1.780469579135432
 10
0.4657893150244555
 20
1.780469579135432
 10
0.4657893150244555
 20
1.753302082374536
 42
-1.960274751411753
  0
LWPOLYLINE
  5
498
330
19
100
AcDbEntity
  8
TEXT
100
AcDbPolyline
 90
        4
 70
     0
 43
0.0
 10
0.54895512329629
 20
1.708639095312553
 10
0.54895512329629
 20
1.513996546146917
 10
0.6174334065841478
 20
1.513996546146917
 10
0.6174334065841478
 20
1.557487491097355
 42
-1.714843617202739
  0
LWPOLYLINE
  5
499
330
19
100
AcDbEntity
  8
TEXT
100
AcDbPolyline
 90
        2
 70
     0
 43
0.0001332181640625
 10
-0.5497255583877525
 20
1.540676883822929
 10
-0.6096737322158763
 20
1.600625057651055
  0
LWPOLYLINE
  5
49A
330
19
100
AcDbEntity
  8
TEXT
100
AcDbPolyline
 90
        3
 70
     0
 43
0.0006660908203125
 10
-0.6363173650283774
 20
1.540676883822929
 10
-0.5497255583877525
 20
1.540676883822929
 10
-0.5497255583877525
 20
1.627268690463556
  0
LWPOLYLINE
  5
49B
330
19
100
AcDbEntity
  8
TEXT
100
AcDbPolyline
 90
        3
 70
     0
 43
0.0006660908203125
 10
-0.6363173650283774
 20
1.514033251010428
 10
-0.5230819255752515
 20
1.514033251010428
 10
-0.5230819255752515
 20
1.627268690463556
  0
LWPOLYLINE
  5
49C
330
19
100
AcDbEntity
  8
TEXT
100
AcDbPolyline
 90
        2
 70
     0
 43
0.0001332181640625
 10
-0.5230819255752515
 20
1.627268690463556
 10
-0.5963519158096276
 20
1.637260052768241
  0
LWPOLYLINE
  5
49D
330
19
100
AcDbEntity
  8
TEXT
100
AcDbPolyline
 90
        2
 70
     0
 43
0.0001332181640625
 10
-0.5497255583877525
 20
1.627268690463556
 10
-0.6096737322158763
 20
1.637260052768241
  0
LWPOLYLINE
  5
49E
330
19
100
AcDbEntity
  8
TEXT
100
AcDbPolyline
 90
        2
 70
     0
 43
0.0001332181640625
 10
-0.7628746208877537
 20
1.540676883822929
 10
-0.7029264470596264
 20
1.600625057651055
  0
LWPOLYLINE
  5
49F
330
19
100
AcDbEntity
  8
TEXT
100
AcDbPolyline
 90
        2
 70
     0
 43
0.0001332181640625
 10
-0.7628746208877537
 20
1.627268690463556
 10
-0.7029264470596264
 20
1.637260052768241
  0
LWPOLYLINE
  5
4A0
330
19
100
AcDbEntity
  8
TEXT
100
AcDbPolyline
 90
        3
 70
     0
 43
0.0006660908203125
 10
-0.7895182537002512
 20
1.627268690463556
 10
-0.7895182537002512
 20
1.514033251010428
 10
-0.6762828142471289
 20
1.514033251010428
  0
LWPOLYLINE
  5
4A1
330
19
100
AcDbEntity
  8
TEXT
100
AcDbPolyline
 90
        3
 70
     0
 43
0.0006660908203125
 10
-0.7628746208877537
 20
1.627268690463556
 10
-0.7628746208877537
 20
1.540676883822929
 10
-0.6762828142471289
 20
1.540676883822929
  0
LWPOLYLINE
  5
4A2
330
19
100
AcDbEntity
  8
TEXT
100
AcDbPolyline
 90
        5
 70
     0
 43
0.0001332181640625
 10
-0.6662914519424384
 20
1.587303241244804
 10
-0.6662914519424384
 20
1.600625057651055
 10
-0.7029264470596264
 20
1.600625057651055
 10
-0.7029264470596264
 20
1.637260052768241
 10
-0.7162482634658769
 20
1.637260052768241
  0
LWPOLYLINE
  5
4A3
330
19
100
AcDbEntity
  8
TEXT
100
AcDbPolyline
 90
        2
 70
     0
 43
0.0006660908203125
 10
-0.7628746208877537
 20
1.627268690463556
 10
-0.7895182537002512
 20
1.627268690463556
  0
LWPOLYLINE
  5
4A4
330
19
100
AcDbEntity
  8
TEXT
100
AcDbPolyline
 90
        2
 70
     0
 43
0.0001332181640625
 10
-0.7162482634658769
 20
1.637260052768241
 10
-0.7895182537002512
 20
1.627268690463556
  0
LWPOLYLINE
  5
4A5
330
19
100
AcDbEntity
  8
TEXT
100
AcDbPolyline
 90
        2
 70
     0
 43
0.0006660908203125
 10
-0.6762828142471289
 20
1.540676883822929
 10
-0.6762828142471289
 20
1.514033251010428
  0
LWPOLYLINE
  5
4A6
330
19
100
AcDbEntity
  8
TEXT
100
AcDbPolyline
 90
        2
 70
     0
 43
0.0001332181640625
 10
-0.6762828142471289
 20
1.540676883822929
 10
-0.6662914519424384
 20
1.600625057651055
  0
LWPOLYLINE
  5
4A7
330
19
100
AcDbEntity
  8
TEXT
100
AcDbPolyline
 90
        2
 70
     0
 43
0.0001332181640625
 10
-0.6762828142471289
 20
1.514033251010428
 10
-0.6662914519424384
 20
1.587303241244804
  0
LWPOLYLINE
  5
4A8
330
19
100
AcDbEntity
  8
TEXT
100
AcDbPolyline
 90
        2
 70
     0
 43
0.0001332181640625
 10
-0.6363173650283774
 20
1.540676883822929
 10
-0.6463087273330661
 20
1.600625057651055
  0
LWPOLYLINE
  5
4A9
330
19
100
AcDbEntity
  8
TEXT
100
AcDbPolyline
 90
        2
 70
     0
 43
0.0001332181640625
 10
-0.6463087273330661
 20
1.587303241244804
 10
-0.6363173650283774
 20
1.514033251010428
  0
LWPOLYLINE
  5
4AA
330
19
100
AcDbEntity
  8
TEXT
100
AcDbPolyline
 90
        2
 70
     0
 43
0.0006660908203125
 10
-0.6363173650283774
 20
1.540676883822929
 10
-0.6363173650283774
 20
1.514033251010428
  0
LWPOLYLINE
  5
4AB
330
19
100
AcDbEntity
  8
TEXT
100
AcDbPolyline
 90
        5
 70
     0
 43
0.0001332181640625
 10
-0.5963519158096276
 20
1.637260052768241
 10
-0.6096737322158763
 20
1.637260052768241
 10
-0.6096737322158763
 20
1.600625057651055
 10
-0.6463087273330661
 20
1.600625057651055
 10
-0.6463087273330661
 20
1.587303241244804
  0
LWPOLYLINE
  5
4AC
330
19
100
AcDbEntity
  8
TEXT
100
AcDbPolyline
 90
        2
 70
     0
 43
0.0006660908203125
 10
-0.5497255583877525
 20
1.627268690463556
 10
-0.5230819255752515
 20
1.627268690463556
  0
LWPOLYLINE
  5
4AD
330
19
100
AcDbEntity
  8
TEXT
100
AcDbPolyline
 90
        3
 70
     0
 43
0.0006660908203125
 10
-0.5230819255752515
 20
1.667234139682304
 10
-0.5230819255752515
 20
1.780469579135432
 10
-0.6363173650283774
 20
1.780469579135432
  0
LWPOLYLINE
  5
4AE
330
19
100
AcDbEntity
  8
TEXT
100
AcDbPolyline
 90
        3
 70
     0
 43
0.0006660908203125
 10
-0.5497255583877525
 20
1.667234139682304
 10
-0.5497255583877525
 20
1.753825946322931
 10
-0.6363173650283774
 20
1.753825946322931
  0
LWPOLYLINE
  5
4AF
330
19
100
AcDbEntity
  8
TEXT
100
AcDbPolyline
 90
        2
 70
     0
 43
0.0001332181640625
 10
-0.5963519158096276
 20
1.657242777377615
 10
-0.5230819255752515
 20
1.667234139682304
  0
LWPOLYLINE
  5
4B0
330
19
100
AcDbEntity
  8
TEXT
100
AcDbPolyline
 90
        2
 70
     0
 43
0.0001332181640625
 10
-0.5497255583877525
 20
1.667234139682304
 10
-0.6096737322158763
 20
1.657242777377615
  0
LWPOLYLINE
  5
4B1
330
19
100
AcDbEntity
  8
TEXT
100
AcDbPolyline
 90
        2
 70
     0
 43
0.0001332181640625
 10
-0.5497255583877525
 20
1.753825946322931
 10
-0.6096737322158763
 20
1.693877772494805
  0
LWPOLYLINE
  5
4B2
330
19
100
AcDbEntity
  8
TEXT
100
AcDbPolyline
 90
        2
 70
     0
 43
0.0001332181640625
 10
-0.7628746208877537
 20
1.753825946322931
 10
-0.7029264470596282
 20
1.693877772494805
  0
LWPOLYLINE
  5
4B3
330
19
100
AcDbEntity
  8
TEXT
100
AcDbPolyline
 90
        2
 70
     0
 43
0.0001332181640625
 10
-0.7628746208877537
 20
1.667234139682304
 10
-0.7029264470596282
 20
1.657242777377615
  0
LWPOLYLINE
  5
4B4
330
19
100
AcDbEntity
  8
TEXT
100
AcDbPolyline
 90
        3
 70
     0
 43
0.0006660908203125
 10
-0.6762828142471289
 20
1.780469579135432
 10
-0.7895182537002512
 20
1.780469579135432
 10
-0.7895182537002512
 20
1.667234139682304
  0
LWPOLYLINE
  5
4B5
330
19
100
AcDbEntity
  8
TEXT
100
AcDbPolyline
 90
        3
 70
     0
 43
0.0006660908203125
 10
-0.6762828142471289
 20
1.753825946322931
 10
-0.7628746208877537
 20
1.753825946322931
 10
-0.7628746208877537
 20
1.667234139682304
  0
LWPOLYLINE
  5
4B6
330
19
100
AcDbEntity
  8
TEXT
100
AcDbPolyline
 90
        5
 70
     0
 43
0.0001332181640625
 10
-0.7162482634658769
 20
1.657242777377615
 10
-0.7029264470596282
 20
1.657242777377615
 10
-0.7029264470596282
 20
1.693877772494805
 10
-0.6662914519424384
 20
1.693877772494805
 10
-0.6662914519424384
 20
1.707199588901052
  0
LWPOLYLINE
  5
4B7
330
19
100
AcDbEntity
  8
TEXT
100
AcDbPolyline
 90
        2
 70
     0
 43
0.0001332181640625
 10
-0.7895182537002512
 20
1.667234139682304
 10
-0.7162482634658769
 20
1.657242777377615
  0
LWPOLYLINE
  5
4B8
330
19
100
AcDbEntity
  8
TEXT
100
AcDbPolyline
 90
        2
 70
     0
 43
0.0006660908203125
 10
-0.7628746208877537
 20
1.667234139682304
 10
-0.7895182537002512
 20
1.667234139682304
  0
LWPOLYLINE
  5
4B9
330
19
100
AcDbEntity
  8
TEXT
100
AcDbPolyline
 90
        2
 70
     0
 43
0.0006660908203125
 10
-0.6762828142471289
 20
1.753825946322931
 10
-0.6762828142471289
 20
1.780469579135432
  0
LWPOLYLINE
  5
4BA
330
19
100
AcDbEntity
  8
TEXT
100
AcDbPolyline
 90
        2
 70
     0
 43
0.0001332181640625
 10
-0.6662914519424384
 20
1.707199588901052
 10
-0.6762828142471289
 20
1.780469579135432
  0
LWPOLYLINE
  5
4BB
330
19
100
AcDbEntity
  8
TEXT
100
AcDbPolyline
 90
        2
 70
     0
 43
0.0001332181640625
 10
-0.6762828142471289
 20
1.753825946322931
 10
-0.6662914519424384
 20
1.693877772494805
  0
LWPOLYLINE
  5
4BC
330
19
100
AcDbEntity
  8
TEXT
100
AcDbPolyline
 90
        5
 70
     0
 43
0.0001332181640625
 10
-0.6463087273330661
 20
1.707199588901052
 10
-0.6463087273330661
 20
1.693877772494805
 10
-0.6096737322158763
 20
1.693877772494805
 10
-0.6096737322158763
 20
1.657242777377615
 10
-0.5963519158096276
 20
1.657242777377615
  0
LWPOLYLINE
  5
4BD
330
19
100
AcDbEntity
  8
TEXT
100
AcDbPolyline
 90
        2
 70
     0
 43
0.0006660908203125
 10
-0.6363173650283774
 20
1.753825946322931
 10
-0.6363173650283774
 20
1.780469579135432
  0
LWPOLYLINE
  5
4BE
330
19
100
AcDbEntity
  8
TEXT
100
AcDbPolyline
 90
        2
 70
     0
 43
0.0001332181640625
 10
-0.6363173650283774
 20
1.753825946322931
 10
-0.6463087273330661
 20
1.693877772494805
  0
LWPOLYLINE
  5
4BF
330
19
100
AcDbEntity
  8
TEXT
100
AcDbPolyline
 90
        2
 70
     0
 43
0.0001332181640625
 10
-0.6363173650283774
 20
1.780469579135432
 10
-0.6463087273330661
 20
1.707199588901052
  0
LWPOLYLINE
  5
4C0
330
19
100
AcDbEntity
  8
TEXT
100
AcDbPolyline
 90
        2
 70
     0
 43
0.0006660908203125
 10
-0.5497255583877525
 20
1.667234139682304
 10
-0.5230819255752515
 20
1.667234139682304
  0
LINE
  5
4C1
330
19
100
AcDbEntity
  8
TEXT
100
AcDbLine
 10
0.0983982890799356
 20
1.53395505225193
 30
0.0
 11
0.1956979951733801
 21
1.698305263187198
 31
0.0
  0
LINE
  5
4C2
330
19
100
AcDbEntity
  8
TEXT
100
AcDbLine
 10
0.1079985260768899
 20
1.679597583022307
 30
0.0
 11
0.049368205044952
 21
1.780469579135428
 31
0.0
  0
LINE
  5
4C3
330
19
100
AcDbEntity
  8
TEXT
100
AcDbLine
 10
-0.0860621346982553
 20
1.716192884478663
 30
0.0
 11
-0.0860621346982553
 21
1.573788937484967
 31
0.0
  0
LWPOLYLINE
  5
4C4
330
19
100
AcDbEntity
  8
TEXT
100
AcDbPolyline
 90
        6
 70
     1
 43
0.0
 10
0.010348276357
 20
1.716192884478663
 10
-0.0199683178632082
 20
1.716192884478663
 10
-0.0199683178632082
 20
1.593081886423768
 42
0.407328721240804
 10
-0.0084246667017318
 20
1.581262971747382
 10
0.052197032342999
 20
1.581262971747382
 10
0.069662372750317
 20
1.614075200790861
  0
ARC
  5
4C5
330
19
100
AcDbEntity
  8
TEXT
100
AcDbCircle
 10
-0.2582051188414738
 20
1.698382119688926
 30
0.0
 40
0.0820874594465043
100
AcDbArc
 50
90.0
 51
270.0
  0
ARC
  5
4C6
330
19
100
AcDbEntity
  8
TEXT
100
AcDbCircle
 10
-0.1873676524829246
 20
1.597192354507474
 30
0.0
 40
0.0831958083605586
100
AcDbArc
 50
270.0
 51
90.0
  0
LINE
  5
4C7
330
19
100
AcDbEntity
  8
TEXT
100
AcDbLine
 10
-0.2582051188414738
 20
1.616294660242421
 30
0.0
 11
-0.182427278576645
 21
1.616294660242421
 31
0.0
  0
LINE
  5
4C8
330
19
100
AcDbEntity
  8
TEXT
100
AcDbLine
 10
-0.3402925782879773
 20
1.513996546146917
 30
0.0
 11
-0.1873676524829246
 21
1.513996546146917
 31
0.0
  0
LINE
  5
4C9
330
19
100
AcDbEntity
  8
TEXT
100
AcDbLine
 10
-0.182427278576645
 20
1.582353552480356
 30
0.0
 11
-0.3402925782879791
 21
1.582353552480356
 31
0.0
  0
LINE
  5
4CA
330
19
100
AcDbEntity
  8
TEXT
100
AcDbLine
 10
-0.3402925782879791
 20
1.582353552480356
 30
0.0
 11
-0.3402925782879773
 21
1.513996546146917
 31
0.0
  0
ARC
  5
4CB
330
19
100
AcDbEntity
  8
TEXT
100
AcDbCircle
 10
-0.182427278576645
 20
1.59932410636139
 30
0.0
 40
0.0169705538810321
100
AcDbArc
 50
270.0
 51
90.0
  0
LINE
  5
4CC
330
19
100
AcDbEntity
  8
TEXT
100
AcDbLine
 10
-0.0321755272181497
 20
1.513996546146917
 30
0.0
 11
0.0644647238568448
 21
1.514267185245199
 31
0.0
  0
ARC
  5
4CD
330
19
100
AcDbEntity
  8
TEXT
100
AcDbCircle
 10
-0.0259461167245032
 20
1.573788937484967
 30
0.0
 40
0.0601160179737537
100
AcDbArc
 50
180.0000000000003
 51
264.0521544866073
  0
ARC
  5
4CE
330
19
100
AcDbEntity
  8
TEXT
100
AcDbCircle
 10
0.0643547291677216
 20
1.553544268420613
 30
0.0
 40
0.0392772371940762
100
AcDbArc
 50
270.1604552698595
 51
330.0831797321295
  0
LINE
  5
4CF
330
19
100
AcDbEntity
  8
TEXT
100
AcDbLine
 10
-0.2529677887272257
 20
1.716192884478663
 30
0.0
 11
-0.0860621346982553
 21
1.716192884478663
 31
0.0
  0
LINE
  5
4D0
330
19
100
AcDbEntity
  8
TEXT
100
AcDbLine
 10
-0.0824733659429624
 20
1.780469579135428
 30
0.0
 11
-0.2582051188414738
 21
1.780469579135428
 31
0.0
  0
LINE
  5
4D1
330
19
100
AcDbEntity
  8
TEXT
100
AcDbLine
 10
-0.1873676524829246
 20
1.680388162868035
 30
0.0
 11
-0.2529677887272257
 21
1.680388162868035
 31
0.0
  0
ARC
  5
4D2
330
19
100
AcDbEntity
  8
TEXT
100
AcDbCircle
 10
-0.2529677887272257
 20
1.69829052367335
 30
0.0
 40
0.017902360805315
100
AcDbArc
 50
90.0
 51
270.0
  0
LINE
  5
4D3
330
19
100
AcDbEntity
  8
TEXT
100
AcDbLine
 10
0.049368205044952
 20
1.780469579135428
 30
0.0
 11
-0.0224307610989554
 21
1.780469579135428
 31
0.0
  0
LINE
  5
4D4
330
19
100
AcDbEntity
  8
TEXT
100
AcDbLine
 10
-0.0224307610989554
 20
1.780469579135428
 30
0.0
 11
-0.0224307610989554
 21
1.814857496729566
 31
0.0
  0
LINE
  5
4D5
330
19
100
AcDbEntity
  8
TEXT
100
AcDbLine
 10
-0.0824733659429624
 20
1.814857496729566
 30
0.0
 11
-0.0824733659429624
 21
1.780469579135428
 31
0.0
  0
LINE
  5
4D6
330
19
100
AcDbEntity
  8
TEXT
100
AcDbLine
 10
-0.0224307610989554
 20
1.814857496729566
 30
0.0
 11
-0.0824733659429624
 21
1.814857496729566
 31
0.0
  0
LINE
  5
4D7
330
19
100
AcDbEntity
  8
TEXT
100
AcDbLine
 10
0.4872677372092272
 20
1.513996546146917
 30
0.0
 11
0.4872677372092272
 21
1.716192884478663
 31
0.0
  0
LINE
  5
4D8
330
19
100
AcDbEntity
  8
TEXT
100
AcDbLine
 10
0.4202096904273871
 20
1.708639095312553
 30
0.0
 11
0.4202096904273871
 21
1.513996546146917
 31
0.0
  0
LINE
  5
4D9
330
19
100
AcDbEntity
  8
TEXT
100
AcDbLine
 10
0.2636777142424966
 20
1.596384384249916
 30
0.0
 11
0.2636777142424966
 21
1.848481056874239
 31
0.0
  0
LINE
  5
4DA
330
19
100
AcDbEntity
  8
TEXT
100
AcDbLine
 10
0.2959895683801568
 20
1.780469579135428
 30
0.0
 11
0.2959895683801568
 21
1.57960537240302
 31
0.0
  0
LINE
  5
4DB
330
19
100
AcDbEntity
  8
TEXT
100
AcDbLine
 10
0.362820621438126
 20
1.513996546146917
 30
0.0
 11
0.362820621438126
 21
1.716192884478663
 31
0.0
  0
LINE
  5
4DC
330
19
100
AcDbEntity
  8
TEXT
100
AcDbLine
 10
0.1956979951733801
 20
1.698305263187198
 30
0.0
 11
0.1956979951733801
 21
1.565547888361842
 31
0.0
  0
LINE
  5
4DD
330
19
100
AcDbEntity
  8
TEXT
100
AcDbLine
 10
0.2648172877386914
 20
1.513996546146917
 30
0.0
 11
0.362820621438126
 21
1.513996546146917
 31
0.0
  0
LWPOLYLINE
  5
4DE
330
19
100
AcDbEntity
  8
TEXT
100
AcDbPolyline
 90
        2
 70
     0
 43
0.0
 10
0.1956979951733793
 20
1.565547888361845
 42
0.3318488747599744
 10
0.2648172877386923
 20
1.513996546146917
 42
-6.868794160588311
  0
ARC
  5
4DF
330
19
100
AcDbEntity
  8
TEXT
100
AcDbCircle
 10
0.2789959314955546
 20
1.594987178646445
 30
0.0
 40
0.0153818062434269
100
AcDbArc
 50
174.7883570302258
 51
270.0
  0
LINE
  5
4E0
330
19
100
AcDbEntity
  8
TEXT
100
AcDbLine
 10
0.2959895683801568
 20
1.57960537240302
 30
0.0
 11
0.2789959314955555
 21
1.57960537240302
 31
0.0
  0
LINE
  5
4E1
330
19
100
AcDbEntity
  8
TEXT
100
AcDbLine
 10
0.4202096904273871
 20
1.513996546146917
 30
0.0
 11
0.4872677372092272
 21
1.513996546146917
 31
0.0
  0
LINE
  5
4E2
330
19
100
AcDbEntity
  8
TEXT
100
AcDbLine
 10
0.4300076243112932
 20
1.780469579135428
 30
0.0
 11
0.2959895683801568
 21
1.780469579135428
 31
0.0
  0
LINE
  5
4E3
330
19
100
AcDbEntity
  8
TEXT
100
AcDbLine
 10
0.1968690016761316
 20
1.848481056874239
 30
0.0
 11
0.1968690016761316
 21
1.780469579135428
 31
0.0
  0
LINE
  5
4E4
330
19
100
AcDbEntity
  8
TEXT
100
AcDbLine
 10
0.1968690016761316
 20
1.780469579135428
 30
0.0
 11
0.1667470888827554
 21
1.780469579135428
 31
0.0
  0
LINE
  5
4E5
330
19
100
AcDbEntity
  8
TEXT
100
AcDbLine
 10
0.1667470888827554
 20
1.780469579135428
 30
0.0
 11
0.1079985260768899
 21
1.679597583022307
 31
0.0
  0
LINE
  5
4E6
330
19
100
AcDbEntity
  8
TEXT
100
AcDbLine
 10
0.2636777142424966
 20
1.848481056874239
 30
0.0
 11
0.1968690016761316
 21
1.848481056874239
 31
0.0
  0
LWPOLYLINE
  5
4E7
330
19
100
AcDbEntity
  8
TEXT
100
AcDbPolyline
 90
        2
 70
     0
 43
0.0
 10
0.4300076243112941
 20
1.780469579135432
 42
-0.3328679258950098
 10
0.4657893150244555
 20
1.753302082374536
 42
6.772930709997214
  0
LINE
  5
4E8
330
19
100
AcDbEntity
  8
TEXT
100
AcDbLine
 10
0.362820621438126
 20
1.716192884478663
 30
0.0
 11
0.4126559012612736
 21
1.716192884478663
 31
0.0
  0
LWPOLYLINE
  5
4E9
330
19
100
AcDbEntity
  8
TEXT
100
AcDbPolyline
 90
        2
 70
     0
 43
0.0
 10
0.4126559012612728
 20
1.716192884478663
 42
-0.4142135623731017
 10
0.4202096904273862
 20
1.708639095312553
 42
-0.9999999999999998
  0
LWPOLYLINE
  5
4EA
330
19
100
AcDbEntity
  8
TEXT
100
AcDbPolyline
 90
        2
 70
     0
 43
0.0
 10
0.5414013341301765
 20
1.716192884478663
 42
-0.4142135623731017
 10
0.54895512329629
 20
1.708639095312553
 42
-0.9999999999999998
  0
LINE
  5
4EB
330
19
100
AcDbEntity
  8
TEXT
100
AcDbLine
 10
0.4872677372092272
 20
1.716192884478663
 30
0.0
 11
0.5414013341301774
 21
1.716192884478663
 31
0.0
  0
TEXT
  5
4EC
330
19
100
AcDbEntity
  8
TEXT
100
AcDbText
 10
1.366435438367057
 20
1.513623927826121
 30
0.0
 40
0.0522247191011236
  1
Phone  1-800-328-2495
 41
1.272321428571429
 72
     5
 11
2.695368022636721
 21
1.513623927826121
 31
0.0
100
AcDbText
  0
TEXT
  5
4ED
330
19
100
AcDbEntity
  8
TEXT
100
AcDbText
 10
1.366435438367057
 20
1.793399208724998
 30
0.0
 40
0.0522247191011236
  1
Stylmark  Incorporated
 41
1.221428571428571
 72
     5
 11
2.695368022636721
 21
1.793399208724998
 31
0.0
100
AcDbText
  0
TEXT
  5
4EE
330
19
100
AcDbEntity
  8
TEXT
100
AcDbText
 10
1.366435438367057
 20
1.700140781758705
 30
0.0
 40
0.0522247191011236
  1
6536 Main St. N.E. * P.O. Box 32008
 41
0.8388932496075353
 72
     5
 11
2.695368022636721
 21
1.700140781758705
 31
0.0
100
AcDbText
  0
TEXT
  5
4EF
330
19
100
AcDbEntity
  8
TEXT
100
AcDbText
 10
1.366435438367057
 20
1.606882354792413
 30
0.0
 40
0.0522247191011236
  1
Minneapolis, MN 55432-0008
 41
1.11444212721585
 72
     5
 11
2.695368022636721
 21
1.606882354792413
 31
0.0
100
AcDbText
  0
LINE
  5
4F0
330
19
100
AcDbEntity
  8
TEXT
100
AcDbLine
 10
1.061346751584134
 20
1.845933784903029
 30
0.0
 11
0.9930318730348615
 21
1.845933784903029
 31
0.0
  0
LINE
  5
4F1
330
19
100
AcDbEntity
  8
TEXT
100
AcDbLine
 10
0.9975117603613616
 20
1.513996546146917
 30
0.0
 11
1.061889944679982
 21
1.513996546146917
 31
0.0
  0
LINE
  5
4F2
330
19
100
AcDbEntity
  8
TEXT
100
AcDbLine
 10
0.9975117603613563
 20
1.716192884478663
 30
0.0
 11
0.9975117603613616
 21
1.513996546146917
 31
0.0
  0
LINE
  5
4F3
330
19
100
AcDbEntity
  8
TEXT
100
AcDbLine
 10
0.8959579037861393
 20
1.513996546146917
 30
0.0
 11
0.895957903786134
 21
1.691287051578385
 31
0.0
  0
LWPOLYLINE
  5
4F4
330
19
100
AcDbEntity
  8
TEXT
100
AcDbPolyline
 90
        2
 70
     0
 43
0.0
 10
0.8376026899508044
 20
1.557487491097355
 42
-0.2901071551932486
 10
0.79452675708316
 20
1.513996546146917
 42
-5.328517124445184
  0
LWPOLYLINE
  5
4F5
330
19
100
AcDbEntity
  8
TEXT
100
AcDbPolyline
 90
        4
 70
     1
 43
0.0
 10
0.7744042920132675
 20
1.616960524130942
 10
0.685743973353409
 20
1.616960524130942
 42
0.9999999999999998
 10
0.685743973353409
 20
1.574561983627082
 10
0.7744042920132675
 20
1.574561983627082
 42
1.0
  0
LWPOLYLINE
  5
4F6
330
19
100
AcDbEntity
  8
TEXT
100
AcDbPolyline
 90
        2
 70
     0
 43
0.0
 10
0.6605093394517834
 20
1.513996546146917
 10
0.79452675708316
 20
1.513996546146917
 42
0.9999999999999998
  0
LWPOLYLINE
  5
4F7
330
19
100
AcDbEntity
  8
TEXT
100
AcDbPolyline
 90
        2
 70
     0
 43
0.0
 10
0.6174334065841478
 20
1.557487491097355
 42
0.2901071551932823
 10
0.6605093394517834
 20
1.513996546146917
 42
5.328517124445801
  0
LWPOLYLINE
  5
4F8
330
19
100
AcDbEntity
  8
TEXT
100
AcDbPolyline
 90
        2
 70
     0
 43
0.0
 10
0.8376026899508044
 20
1.557487491097355
 10
0.8376026899508044
 20
1.513996546146917
  0
LWPOLYLINE
  5
4F9
330
19
100
AcDbEntity
  8
TEXT
100
AcDbPolyline
 90
        2
 70
     0
 43
0.0
 10
0.8376026899508044
 20
1.513996546146917
 10
0.8959579037861384
 20
1.513996546146917
  0
LINE
  5
4FA
330
19
100
AcDbEntity
  8
TEXT
100
AcDbLine
 10
0.8336630126457658
 20
1.675257600582001
 30
0.0
 11
0.7899122414638642
 21
1.757507876578146
 31
0.0
  0
LINE
  5
4FB
330
19
100
AcDbEntity
  8
TEXT
100
AcDbLine
 10
0.7256721754262463
 20
1.716192884478663
 30
0.0
 11
0.6184659020389569
 21
1.716192884478663
 31
0.0
  0
LINE
  5
4FC
330
19
100
AcDbEntity
  8
TEXT
100
AcDbLine
 10
0.6791852609469844
 20
1.67891791101653
 30
0.0
 11
0.7614732507303677
 21
1.67891791101653
 31
0.0
  0
LINE
  5
4FD
330
19
100
AcDbEntity
  8
TEXT
100
AcDbLine
 10
0.7547030737707248
 20
1.780469579135428
 30
0.0
 11
0.6198711645536657
 21
1.780469579135428
 31
0.0
  0
LINE
  5
4FE
330
19
100
AcDbEntity
  8
TEXT
100
AcDbLine
 10
0.6184659020389569
 20
1.716192884478663
 30
0.0
 11
0.6184659020389569
 21
1.641140478404456
 31
0.0
  0
ARC
  5
4FF
330
19
100
AcDbEntity
  8
TEXT
100
AcDbCircle
 10
0.6791852609469835
 20
1.611232329872412
 30
0.0
 40
0.0676855811441166
100
AcDbArc
 50
90.0
 51
153.7768192527749
  0
LINE
  5
500
330
19
100
AcDbEntity
  8
TEXT
100
AcDbLine
 10
0.6198711645536657
 20
1.780469579135428
 30
0.0
 11
0.6198711645536657
 21
1.752147033365784
 31
0.0
  0
LWPOLYLINE
  5
501
330
19
100
AcDbEntity
  8
TEXT
100
AcDbPolyline
 90
        2
 70
     0
 43
0.0
 10
0.5840894738404998
 20
1.780469579135432
 42
-0.3277054968067132
 10
0.6198711645536648
 20
1.752147033365788
 42
6.667889725900311
  0
ARC
  5
502
330
19
100
AcDbEntity
  8
TEXT
100
AcDbCircle
 10
0.7256721754262454
 20
1.687833509478665
 30
0.0
 40
0.028359375
100
AcDbArc
 50
25.78218179591245
 51
90.0
  0
LINE
  5
503
330
19
100
AcDbEntity
  8
TEXT
100
AcDbLine
 10
0.7614732507303677
 20
1.67891791101653
 30
0.0
 11
0.7512084903168033
 21
1.700168450589225
 31
0.0
  0
ARC
  5
504
330
19
100
AcDbEntity
  8
TEXT
100
AcDbCircle
 10
0.7526761339936563
 20
1.738886012014526
 30
0.0
 40
0.0416329381542859
100
AcDbArc
 50
26.56974201007528
 51
87.20939649401342
  0
LINE
  5
505
330
19
100
AcDbEntity
  8
TEXT
100
AcDbLine
 10
0.9930318730348615
 20
1.845933784903029
 30
0.0
 11
0.9930318730348561
 21
1.780469579135428
 31
0.0
  0
LINE
  5
506
330
19
100
AcDbEntity
  8
TEXT
100
AcDbLine
 10
0.9930318730348561
 20
1.780469579135428
 30
0.0
 11
0.9255321553853397
 21
1.780469579135428
 31
0.0
  0
LINE
  5
507
330
19
100
AcDbEntity
  8
TEXT
100
AcDbLine
 10
0.9208637790687985
 20
1.716192884478663
 30
0.0
 11
0.9975117603613563
 21
1.716192884478663
 31
0.0
  0
LINE
  5
508
330
19
100
AcDbEntity
  8
TEXT
100
AcDbLine
 10
0.8975599189452667
 20
1.752921929274553
 30
0.0
 11
0.8975599189452667
 21
1.780469579135428
 31
0.0
  0
ARC
  5
509
330
19
100
AcDbEntity
  8
TEXT
100
AcDbCircle
 10
0.9287527360083753
 20
1.749223851853163
 30
0.0
 40
0.0314112657011332
100
AcDbArc
 50
95.88484768694724
 51
173.2388340632136
  0
ARC
  5
50A
330
19
100
AcDbEntity
  8
TEXT
100
AcDbCircle
 10
0.9208637790687976
 20
1.691287009196
 30
0.0
 40
0.0249058752826653
100
AcDbArc
 50
89.99971217465335
 51
179.9999999999985
  0
LINE
  5
50B
330
19
100
AcDbEntity
  8
TEXT
100
AcDbLine
 10
0.8336630126457658
 20
1.780469579135428
 30
0.0
 11
0.8336630126457658
 21
1.675257600582001
 31
0.0
  0
LINE
  5
50C
330
19
100
AcDbEntity
  8
TEXT
100
AcDbLine
 10
0.8975599189452667
 20
1.780469579135428
 30
0.0
 11
0.8336630126457658
 21
1.780469579135428
 31
0.0
  0
LINE
  5
50D
330
19
100
AcDbEntity
  8
TEXT
100
AcDbLine
 10
1.061889944679982
 20
1.645576114623097
 30
0.0
 11
1.137793477891446
 21
1.513996546146917
 31
0.0
  0
LINE
  5
50E
330
19
100
AcDbEntity
  8
TEXT
100
AcDbLine
 10
1.061889944679982
 20
1.513996546146917
 30
0.0
 11
1.061889944679982
 21
1.645576114623097
 31
0.0
  0
LINE
  5
50F
330
19
100
AcDbEntity
  8
TEXT
100
AcDbLine
 10
1.214371850267652
 20
1.513996546146917
 30
0.0
 11
1.118879626904042
 21
1.670576336194455
 31
0.0
  0
LINE
  5
510
330
19
100
AcDbEntity
  8
TEXT
100
AcDbLine
 10
1.137793477891446
 20
1.513996546146917
 30
0.0
 11
1.214371850267652
 21
1.513996546146917
 31
0.0
  0
LINE
  5
511
330
19
100
AcDbEntity
  8
TEXT
100
AcDbLine
 10
1.061346751584134
 20
1.70460425272389
 30
0.0
 11
1.061346751584134
 21
1.845933784903029
 31
0.0
  0
LINE
  5
512
330
19
100
AcDbEntity
  8
TEXT
100
AcDbLine
 10
1.183436742869747
 20
1.780469579135428
 30
0.0
 11
1.108444910140121
 21
1.780469579135428
 31
0.0
  0
LINE
  5
513
330
19
100
AcDbEntity
  8
TEXT
100
AcDbLine
 10
1.118879626904042
 20
1.670576336194455
 30
0.0
 11
1.183436742869747
 21
1.780469579135428
 31
0.0
  0
LINE
  5
514
330
19
100
AcDbEntity
  8
TEXT
100
AcDbLine
 10
1.108444910140119
 20
1.780469579135428
 30
0.0
 11
1.061346751584134
 21
1.70460425272389
 31
0.0
  0
ENDSEC
  0
SECTION
  2
OBJECTS
  0
DICTIONARY
  5
C
330
0
100
AcDbDictionary
  3
ACAD_GROUP
350
D
  3
ACAD_LAYOUT
350
519
  3
ACAD_MLINESTYLE
350
E
  3
ACAD_PLOTSETTINGS
350
51A
  3
ACAD_PLOTSTYLENAME
350
517
  3
ACDBHEADERROUNDTRIPXREC
350
523
  3
ACDBVARIABLEDICTIONARY
350
4E
  0
DICTIONARY
  5
545
330
19
100
AcDbDictionary
280
     1
  3
ACAD_LAYOUTSELFREF
360
546
  0
DICTIONARY
  5
543
330
16
100
AcDbDictionary
280
     1
  3
ACAD_LAYOUTSELFREF
360
544
  0
DICTIONARY
  5
D
102
{ACAD_REACTORS
330
C
102
}
330
C
100
AcDbDictionary
  3
*A1
350
13B
  0
DICTIONARY
  5
519
102
{ACAD_REACTORS
330
C
102
}
330
C
100
AcDbDictionary
  0
DICTIONARY
  5
E
102
{ACAD_REACTORS
330
C
102
}
330
C
100
AcDbDictionary
  3
STANDARD
350
1C
  0
DICTIONARY
  5
51A
102
{ACAD_REACTORS
330
C
102
}
330
C
100
AcDbDictionary
  0
ACDBDICTIONARYWDFLT
  5
517
102
{ACAD_REACTORS
330
C
102
}
330
C
100
AcDbDictionary
281
     1
  3
Normal
350
518
100
AcDbDictionaryWithDefault
340
518
  0
DICTIONARY
  5
523
102
{ACAD_REACTORS
330
C
102
}
330
C
100
AcDbDictionary
  3
CEPSNTYPE
350
52D
  3
FINGERPRINTGUID
350
52E
  3
HYPERLINKBASE
350
526
  3
INSUNITS
350
52C
  3
LAYOUTDICT
350
528
  3
LWETCUNION
350
52B
  3
PLOTSETDICT
350
529
  3
PLOTSTYLNAMDICT
350
52A
  3
PSVPSCALE
350
530
  3
PUCSBASE
350
533
  3
PUCSORGBACK
350
539
  3
PUCSORGBOTTOM
350
535
  3
PUCSORGFRONT
350
538
  3
PUCSORGLEFT
350
536
  3
PUCSORGRIGHT
350
537
  3
PUCSORGTOP
350
534
  3
PUCSORTHOREF
350
531
  3
PUCSORTHOVIEW
350
532
  3
STYLESHEET
350
527
  3
TSTACKALIGN
350
524
  3
TSTACKSIZE
350
525
  3
UCSBASE
350
53C
  3
UCSORGBACK
350
542
  3
UCSORGBOTTOM
350
53E
  3
UCSORGFRONT
350
541
  3
UCSORGLEFT
350
53F
  3
UCSORGRIGHT
350
540
  3
UCSORGTOP
350
53D
  3
UCSORTHOREF
350
53A
  3
UCSORTHOVIEW
350
53B
  3
VERSIONGUID
350
52F
  0
DICTIONARY
  5
4E
102
{ACAD_REACTORS
330
C
102
}
330
C
100
AcDbDictionary
  3
DIMASSOC
350
521
  3
SORTENTS
350
4F
  0
XRECORD
  5
546
102
{ACAD_REACTORS
330
545
102
}
330
545
100
AcDbXrecord
340
19
  0
XRECORD
  5
544
102
{ACAD_REACTORS
330
543
102
}
330
543
100
AcDbXrecord
340
16
  0
GROUP
  5
13B
102
{ACAD_REACTORS
330
D
102
}
330
D
100
AcDbGroup
300
BORDER FRAME 10-1-95
 70
     0
 71
     1
  0
MLINESTYLE
  5
1C
102
{ACAD_REACTORS
330
E
102
}
330
E
100
AcDbMlineStyle
  2
STANDARD
 70
     0
  3

 62
     0
 51
90.0
 52
90.0
 71
     2
 49
0.5
 62
   256
  6
BYLAYER
 49
-0.5
 62
   256
  6
BYLAYER
  0
ACDBPLACEHOLDER
  5
518
102
{ACAD_REACTORS
330
517
102
}
330
517
100
AcDbPlaceHolder
280
     0
  0
XRECORD
  5
52D
102
{ACAD_REACTORS
330
523
102
}
330
523
100
AcDbXrecord
 90
        0
  0
XRECORD
  5
52E
102
{ACAD_REACTORS
330
523
102
}
330
523
100
AcDbXrecord
  1
{64619290-8DBA-11D6-88E6-0090279574E7}
  0
XRECORD
  5
526
102
{ACAD_REACTORS
330
523
102
}
330
523
100
AcDbXrecord
  1

  0
XRECORD
  5
52C
102
{ACAD_REACTORS
330
523
102
}
330
523
100
AcDbXrecord
 90
        0
  0
XRECORD
  5
528
102
{ACAD_REACTORS
330
523
102
}
330
523
100
AcDbXrecord
340
519
  0
XRECORD
  5
52B
102
{ACAD_REACTORS
330
523
102
}
330
523
100
AcDbXrecord
 90
    14877
  0
XRECORD
  5
529
102
{ACAD_REACTORS
330
523
102
}
330
523
100
AcDbXrecord
340
51A
  0
XRECORD
  5
52A
102
{ACAD_REACTORS
330
523
102
}
330
523
100
AcDbXrecord
340
517
  0
XRECORD
  5
530
102
{ACAD_REACTORS
330
523
102
}
330
523
100
AcDbXrecord
 40
0.0
  0
XRECORD
  5
533
102
{ACAD_REACTORS
330
523
102
}
330
523
100
AcDbXrecord
340
0
  0
XRECORD
  5
539
102
{ACAD_REACTORS
330
523
102
}
330
523
100
AcDbXrecord
 10
0.0
 20
0.0
 30
0.0
  0
XRECORD
  5
535
102
{ACAD_REACTORS
330
523
102
}
330
523
100
AcDbXrecord
 10
0.0
 20
0.0
 30
0.0
  0
XRECORD
  5
538
102
{ACAD_REACTORS
330
523
102
}
330
523
100
AcDbXrecord
 10
0.0
 20
0.0
 30
0.0
  0
XRECORD
  5
536
102
{ACAD_REACTORS
330
523
102
}
330
523
100
AcDbXrecord
 10
0.0
 20
0.0
 30
0.0
  0
XRECORD
  5
537
102
{ACAD_REACTORS
330
523
102
}
330
523
100
AcDbXrecord
 10
0.0
 20
0.0
 30
0.0
  0
XRECORD
  5
534
102
{ACAD_REACTORS
330
523
102
}
330
523
100
AcDbXrecord
 10
0.0
 20
0.0
 30
0.0
  0
XRECORD
  5
531
102
{ACAD_REACTORS
330
523
102
}
330
523
100
AcDbXrecord
340
0
  0
XRECORD
  5
532
102
{ACAD_REACTORS
330
523
102
}
330
523
100
AcDbXrecord
 70
     0
  0
XRECORD
  5
527
102
{ACAD_REACTORS
330
523
102
}
330
523
100
AcDbXrecord
  1

  0
XRECORD
  5
524
102
{ACAD_REACTORS
330
523
102
}
330
523
100
AcDbXrecord
 90
        1
  0
XRECORD
  5
525
102
{ACAD_REACTORS
330
523
102
}
330
523
100
AcDbXrecord
 90
       70
  0
XRECORD
  5
53C
102
{ACAD_REACTORS
330
523
102
}
330
523
100
AcDbXrecord
340
0
  0
XRECORD
  5
542
102
{ACAD_REACTORS
330
523
102
}
330
523
100
AcDbXrecord
 10
0.0
 20
0.0
 30
0.0
  0
XRECORD
  5
53E
102
{ACAD_REACTORS
330
523
102
}
330
523
100
AcDbXrecord
 10
0.0
 20
0.0
 30
0.0
  0
XRECORD
  5
541
102
{ACAD_REACTORS
330
523
102
}
330
523
100
AcDbXrecord
 10
0.0
 20
0.0
 30
0.0
  0
XRECORD
  5
53F
102
{ACAD_REACTORS
330
523
102
}
330
523
100
AcDbXrecord
 10
0.0
 20
0.0
 30
0.0
  0
XRECORD
  5
540
102
{ACAD_REACTORS
330
523
102
}
330
523
100
AcDbXrecord
 10
0.0
 20
0.0
 30
0.0
  0
XRECORD
  5
53D
102
{ACAD_REACTORS
330
523
102
}
330
523
100
AcDbXrecord
 10
0.0
 20
0.0
 30
0.0
  0
XRECORD
  5
53A
102
{ACAD_REACTORS
330
523
102
}
330
523
100
AcDbXrecord
340
0
  0
XRECORD
  5
53B
102
{ACAD_REACTORS
330
523
102
}
330
523
100
AcDbXrecord
 70
     0
  0
XRECORD
  5
52F
102
{ACAD_REACTORS
330
523
102
}
330
523
100
AcDbXrecord
  1
{64619292-8DBA-11D6-88E6-0090279574E7}
  0
DICTIONARYVAR
  5
521
102
{ACAD_REACTORS
330
4E
102
}
330
4E
100
DictionaryVariables
280
     0
  1
1
  0
DICTIONARYVAR
  5
4F
102
{ACAD_REACTORS
330
4E
102
}
330
4E
100
DictionaryVariables
280
     0
  1
97
  0
ENDSEC
  0
EOF
