  0
SECTION
  2
HEADER
  9
$ACADVER
  1
AC1014
  9
$ACADMAINTVER
 70
     9
  9
$DWGCODEPAGE
  3
ANSI_1252
  9
$INSBASE
 10
7.810191582268064
 20
5.070866453878211
 30
0.0
  9
$EXTMIN
 10
-0.6121581744268076
 20
0.0164197839116833
 30
0.0
  9
$EXTMAX
 10
2.873061147320321
 20
1.629117615723336
 30
0.0
  9
$LIMMIN
 10
0.0
 20
0.0
  9
$LIMMAX
 10
18.0
 20
12.0
  9
$ORTHOMODE
 70
     0
  9
$REGENMODE
 70
     1
  9
$FILLMODE
 70
     1
  9
$QTEXTMODE
 70
     0
  9
$MIRRTEXT
 70
     0
  9
$DRAGMODE
 70
     2
  9
$LTSCALE
 40
1.0
  9
$OSMODE
 70
    39
  9
$ATTMODE
 70
     1
  9
$TEXTSIZE
 40
0.125
  9
$TRACEWID
 40
0.05
  9
$TEXTSTYLE
  7
ROMANS
  9
$CLAYER
  8
DIM
  9
$CELTYPE
  6
BYLAYER
  9
$CECOLOR
 62
   256
  9
$CELTSCALE
 40
1.0
  9
$DELOBJ
 70
     1
  9
$DISPSILH
 70
     1
  9
$DIMSCALE
 40
1.0
  9
$DIMASZ
 40
0.125
  9
$DIMEXO
 40
0.125
  9
$DIMDLI
 40
0.375
  9
$DIMRND
 40
0.0
  9
$DIMDLE
 40
0.0
  9
$DIMEXE
 40
0.125
  9
$DIMTP
 40
0.0
  9
$DIMTM
 40
0.0
  9
$DIMTXT
 40
0.125
  9
$DIMCEN
 40
-0.125
  9
$DIMTSZ
 40
0.0
  9
$DIMTOL
 70
     0
  9
$DIMLIM
 70
     0
  9
$DIMTIH
 70
     1
  9
$DIMTOH
 70
     1
  9
$DIMSE1
 70
     0
  9
$DIMSE2
 70
     0
  9
$DIMTAD
 70
     0
  9
$DIMZIN
 70
     4
  9
$DIMBLK
  1

  9
$DIMASO
 70
     1
  9
$DIMSHO
 70
     1
  9
$DIMPOST
  1

  9
$DIMAPOST
  1

  9
$DIMALT
 70
     0
  9
$DIMALTD
 70
     2
  9
$DIMALTF
 40
25.4
  9
$DIMLFAC
 40
0.25
  9
$DIMTOFL
 70
     0
  9
$DIMTVP
 40
0.0
  9
$DIMTIX
 70
     1
  9
$DIMSOXD
 70
     0
  9
$DIMSAH
 70
     0
  9
$DIMBLK1
  1

  9
$DIMBLK2
  1

  9
$DIMSTYLE
  2
STANDARD
  9
$DIMCLRD
 70
     0
  9
$DIMCLRE
 70
     0
  9
$DIMCLRT
 70
     0
  9
$DIMTFAC
 40
1.0
  9
$DIMGAP
 40
0.09
  9
$DIMJUST
 70
     0
  9
$DIMSD1
 70
     0
  9
$DIMSD2
 70
     0
  9
$DIMTOLJ
 70
     1
  9
$DIMTZIN
 70
     4
  9
$DIMALTZ
 70
     0
  9
$DIMALTTZ
 70
     0
  9
$DIMFIT
 70
     3
  9
$DIMUPT
 70
     1
  9
$DIMUNIT
 70
     2
  9
$DIMDEC
 70
     3
  9
$DIMTDEC
 70
     3
  9
$DIMALTU
 70
     2
  9
$DIMALTTD
 70
     2
  9
$DIMTXSTY
  7
ROMANS
  9
$DIMAUNIT
 70
     0
  9
$LUNITS
 70
     2
  9
$LUPREC
 70
     8
  9
$SKETCHINC
 40
0.1
  9
$FILLETRAD
 40
0.0
  9
$AUNITS
 70
     0
  9
$AUPREC
 70
     0
  9
$MENU
  1
acad
  9
$ELEVATION
 40
0.0
  9
$PELEVATION
 40
0.0
  9
$THICKNESS
 40
0.0
  9
$LIMCHECK
 70
     0
  9
$BLIPMODE
 70
     0
  9
$CHAMFERA
 40
0.0
  9
$CHAMFERB
 40
0.0
  9
$CHAMFERC
 40
0.0
  9
$CHAMFERD
 40
0.0
  9
$SKPOLY
 70
     0
  9
$TDCREATE
 40
2449695.503000463
  9
$TDUPDATE
 40
2452458.327173322
  9
$TDINDWG
 40
0.2715552778
  9
$TDUSRTIMER
 40
0.2715552778
  9
$USRTIMER
 70
     1
  9
$ANGBASE
 50
0.0
  9
$ANGDIR
 70
     0
  9
$PDMODE
 70
     0
  9
$PDSIZE
 40
0.0
  9
$PLINEWID
 40
0.0
  9
$COORDS
 70
     2
  9
$SPLFRAME
 70
     0
  9
$SPLINETYPE
 70
     6
  9
$SPLINESEGS
 70
     8
  9
$ATTDIA
 70
     0
  9
$ATTREQ
 70
     1
  9
$HANDLING
 70
 22529
  9
$HANDSEED
  5
5E694672E35959D8
  9
$SURFTAB1
 70
     6
  9
$SURFTAB2
 70
     6
  9
$SURFTYPE
 70
     6
  9
$SURFU
 70
     6
  9
$SURFV
 70
     6
  9
$UCSNAME
  2

  9
$UCSORG
 10
0.0
 20
0.0
 30
0.0
  9
$UCSXDIR
 10
1.0
 20
0.0
 30
0.0
  9
$UCSYDIR
 10
0.0
 20
1.0
 30
0.0
  9
$PUCSNAME
  2

  9
$PUCSORG
 10
0.0
 20
0.0
 30
0.0
  9
$PUCSXDIR
 10
1.0
 20
0.0
 30
0.0
  9
$PUCSYDIR
 10
0.0
 20
1.0
 30
0.0
  9
$USERI1
 70
     0
  9
$USERI2
 70
     0
  9
$USERI3
 70
     0
  9
$USERI4
 70
     0
  9
$USERI5
 70
     0
  9
$USERR1
 40
0.0
  9
$USERR2
 40
0.0
  9
$USERR3
 40
0.0
  9
$USERR4
 40
0.0
  9
$USERR5
 40
0.0
  9
$WORLDVIEW
 70
     1
  9
$SHADEDGE
 70
     3
  9
$SHADEDIF
 70
    70
  9
$TILEMODE
 70
     1
  9
$MAXACTVP
 70
    16
  9
$PINSBASE
 10
0.0
 20
0.0
 30
0.0
  9
$PLIMCHECK
 70
     0
  9
$PEXTMIN
 10
1.000000000000000E+20
 20
1.000000000000000E+20
 30
1.000000000000000E+20
  9
$PEXTMAX
 10
-1.000000000000000E+20
 20
-1.000000000000000E+20
 30
-1.000000000000000E+20
  9
$PLIMMIN
 10
0.0
 20
0.0
  9
$PLIMMAX
 10
12.0
 20
9.0
  9
$UNITMODE
 70
     0
  9
$VISRETAIN
 70
     0
  9
$PLINEGEN
 70
     1
  9
$PSLTSCALE
 70
     0
  9
$TREEDEPTH
 70
  3020
  9
$PICKSTYLE
 70
     1
  9
$CMLSTYLE
  2
STANDARD
  9
$CMLJUST
 70
     0
  9
$CMLSCALE
 40
1.0
  9
$PROXYGRAPHICS
 70
     1
  9
$MEASUREMENT
 70
     0
  0
ENDSEC
  0
SECTION
  2
CLASSES
  0
CLASS
  1
LWPOLYLINE
  2
AcDbPolyline
  3
AutoCAD 2000
 90
        0
280
     0
281
     1
  0
CLASS
  1
DICTIONARYVAR
  2
AcDbDictionaryVar
  3
AutoCAD 2000
 90
        0
280
     0
281
     0
  0
CLASS
  1
ACDBDICTIONARYWDFLT
  2
AcDbDictionaryWithDefault
  3
AutoCAD 2000
 90
        0
280
     0
281
     0
  0
CLASS
  1
ACDBPLACEHOLDER
  2
AcDbPlaceHolder
  3
AutoCAD 2000
 90
        0
280
     0
281
     0
  0
CLASS
  1
LAYOUT
  2
AcDbLayout
  3
AutoCAD 2000
 90
        0
280
     0
281
     0
  0
CLASS
  1
LONG_TRANSACTION
  2
AcDbLongTransaction
  3
AutoCAD 2000
 90
        0
280
     0
281
     0
  0
CLASS
  1
LWPOLYLINE
  2
AcDbPolyline
  3
AutoCAD 2000
 90
        0
280
     0
281
     1
  0
CLASS
  1
HATCH
  2
AcDbHatch
  3
AutoCAD 2000
 90
        0
280
     0
281
     1
  0
CLASS
  1
XRECORD
  2
AcDbXrecord
  3
AutoCAD 2000
 90
        0
280
     0
281
     0
  0
ENDSEC
  0
SECTION
  2
TABLES
  0
TABLE
  2
VPORT
  5
5E694672E3594F62
330
0
100
AcDbSymbolTable
 70
     2
  0
VPORT
  5
5E694672E35959B3
330
5E694672E3594F62
100
AcDbSymbolTableRecord
100
AcDbViewportTableRecord
  2
*ACTIVE
 70
     0
 10
0.0
 20
0.0
 11
1.0
 21
1.0
 12
4.052632992002731
 22
0.8229995184019145
 13
0.0
 23
0.0
 14
0.002
 24
0.002
 15
0.0
 25
0.0
 16
0.0
 26
0.0
 36
1.0
 17
0.0
 27
0.0
 37
0.0
 40
2.163628077419659
 41
4.320930232558139
 42
50.0
 43
0.0
 44
0.0
 50
0.0
 51
0.0
 71
     0
 72
  2000
 73
     1
 74
     1
 75
     0
 76
     0
 77
     0
 78
     0
  0
ENDTAB
  0
TABLE
  2
LTYPE
  5
5E694672E3594F5F
330
0
100
AcDbSymbolTable
 70
     1
  0
LTYPE
  5
5E694672E3594F6C
330
5E694672E3594F5F
100
AcDbSymbolTableRecord
100
AcDbLinetypeTableRecord
  2
BYBLOCK
 70
     0
  3

 72
    65
 73
     0
 40
0.0
  0
LTYPE
  5
5E694672E3594F6D
330
5E694672E3594F5F
100
AcDbSymbolTableRecord
100
AcDbLinetypeTableRecord
  2
BYLAYER
 70
     0
  3

 72
    65
 73
     0
 40
0.0
  0
LTYPE
  5
5E694672E3594F6E
330
5E694672E3594F5F
100
AcDbSymbolTableRecord
100
AcDbLinetypeTableRecord
  2
CONTINUOUS
 70
     0
  3
Solid line
 72
    65
 73
     0
 40
0.0
  0
ENDTAB
  0
TABLE
  2
LAYER
  5
5E694672E3594F5C
330
0
100
AcDbSymbolTable
 70
     3
  0
LAYER
  5
5E694672E3594F69
330
5E694672E3594F5C
100
AcDbSymbolTableRecord
100
AcDbLayerTableRecord
  2
0
 70
     0
 62
     7
  6
CONTINUOUS
  0
LAYER
  5
5E694672E3594F81
330
5E694672E3594F5C
100
AcDbSymbolTableRecord
100
AcDbLayerTableRecord
  2
TEXT
 70
     0
 62
     3
  6
CONTINUOUS
  0
LAYER
  5
5E694672E3594F84
330
5E694672E3594F5C
100
AcDbSymbolTableRecord
100
AcDbLayerTableRecord
  2
DIM
 70
     0
 62
     4
  6
CONTINUOUS
  0
ENDTAB
  0
TABLE
  2
STYLE
  5
5E694672E3594F5D
330
0
100
AcDbSymbolTable
 70
     3
  0
STYLE
  5
5E694672E3594F6A
330
5E694672E3594F5D
100
AcDbSymbolTableRecord
100
AcDbTextStyleTableRecord
  2
STANDARD
 70
     0
 40
0.0
 41
1.0
 50
0.0
 71
     0
 42
0.125
  3
txt
  4

  0
STYLE
  5
5E694672E3594F7B
330
5E694672E3594F5D
100
AcDbSymbolTableRecord
100
AcDbTextStyleTableRecord
  2
ROMANS
 70
     0
 40
0.0
 41
1.0
 50
0.0
 71
     0
 42
0.125
  3
romans.shx
  4

  0
STYLE
  5
5E694672E35958A2
330
5E694672E3594F5D
100
AcDbSymbolTableRecord
100
AcDbTextStyleTableRecord
  2
ITALICC
 70
     0
 40
0.0
 41
1.0
 50
0.0
 71
     0
 42
0.125
  3
italicc
  4

  0
ENDTAB
  0
TABLE
  2
VIEW
  5
5E694672E3594F60
330
0
100
AcDbSymbolTable
 70
     0
  0
ENDTAB
  0
TABLE
  2
UCS
  5
5E694672E3594F61
330
0
100
AcDbSymbolTable
 70
     0
  0
ENDTAB
  0
TABLE
  2
APPID
  5
5E694672E3594F63
330
0
100
AcDbSymbolTable
 70
     1
  0
APPID
  5
5E694672E3594F6B
330
5E694672E3594F63
100
AcDbSymbolTableRecord
100
AcDbRegAppTableRecord
  2
ACAD
 70
     0
  0
ENDTAB
  0
TABLE
  2
DIMSTYLE
  5
5E694672E3594F64
330
0
100
AcDbSymbolTable
 70
     1
  0
DIMSTYLE
105
5E694672E3594F89
330
5E694672E3594F64
100
AcDbSymbolTableRecord
100
AcDbDimStyleTableRecord
  2
STANDARD
 70
     0
  3

  4

  5

  6

  7

 40
1.0
 41
0.125
 42
0.125
 43
0.375
 44
0.125
 45
0.0
 46
0.0
 47
0.0
 48
0.0
140
0.125
141
-0.125
142
0.0
143
25.4
144
0.25
145
0.0
146
1.0
147
0.09
 71
     0
 72
     0
 73
     1
 74
     1
 75
     0
 76
     0
 77
     0
 78
     4
170
     0
171
     2
172
     0
173
     0
174
     1
175
     0
176
     0
177
     0
178
     0
270
     2
271
     3
272
     3
273
     2
274
     2
340
5E694672E3594F7B
275
     0
280
     0
281
     0
282
     0
283
     1
284
     4
285
     0
286
     0
287
     3
288
     1
  0
ENDTAB
  0
TABLE
  2
BLOCK_RECORD
  5
5E694672E3594F5B
330
0
100
AcDbSymbolTable
 70
     0
  0
BLOCK_RECORD
  5
5E694672E3594F72
102
{ACAD_XDICTIONARY
360
5E694672E35959D6
102
}
330
5E694672E3594F5B
100
AcDbSymbolTableRecord
100
AcDbBlockTableRecord
  2
*MODEL_SPACE
  0
BLOCK_RECORD
  5
5E694672E3594F6F
102
{ACAD_XDICTIONARY
360
5E694672E35959D4
102
}
330
5E694672E3594F5B
100
AcDbSymbolTableRecord
100
AcDbBlockTableRecord
  2
*PAPER_SPACE
  0
ENDTAB
  0
ENDSEC
  0
SECTION
  2
BLOCKS
  0
BLOCK
  5
5E694672E3594F87
330
5E694672E3594F72
100
AcDbEntity
  8
0
100
AcDbBlockBegin
  2
*MODEL_SPACE
 70
     0
 10
0.0
 20
0.0
 30
0.0
  3
*MODEL_SPACE
  1

  0
ENDBLK
  5
5E694672E3594F88
330
5E694672E3594F72
100
AcDbEntity
  8
0
100
AcDbBlockEnd
  0
BLOCK
  5
5E694672E3594F85
330
5E694672E3594F6F
100
AcDbEntity
 67
     1
  8
0
100
AcDbBlockBegin
  2
*PAPER_SPACE
 70
     0
 10
0.0
 20
0.0
 30
0.0
  3
*PAPER_SPACE
  1

  0
ENDBLK
  5
5E694672E3594F86
330
5E694672E3594F6F
100
AcDbEntity
 67
     1
  8
0
100
AcDbBlockEnd
  0
ENDSEC
  0
SECTION
  2
ENTITIES
  0
LWPOLYLINE
  5
5E694672E3595859
330
5E694672E3594F72
100
AcDbEntity
  8
0
100
AcDbPolyline
 90
       44
 70
   129
 43
0.0
 10
0.3794483049424628
 20
0.8990263083860945
 42
0.4424969513987074
 10
0.4013572199382112
 20
0.8791176157233664
 10
0.6919483049424629
 20
0.8791176157233362
 10
0.6919483049424629
 20
0.9291176157233369
 10
0.4414483049424605
 20
0.9291176157233369
 10
0.4414483049424605
 20
1.004117615723336
 10
1.031861729576914
 20
1.004117615723337
 42
0.3394542588633808
 10
1.046350616971249
 20
1.015235330046799
 10
1.059448585942466
 20
1.064117615723335
 10
1.059448585942466
 20
1.301117615723336
 42
-0.4142135623730951
 10
1.074448585942466
 20
1.316117615723337
 10
1.184448585942466
 20
1.316117615723337
 42
-0.4142135623730951
 10
1.199448585942466
 20
1.301117615723336
 10
1.199448585942466
 20
1.064117615723325
 10
1.212546554913683
 20
1.015235330046799
 42
0.3394542588633826
 10
1.227035442308018
 20
1.004117615723336
 10
1.817448304942456
 20
1.004117615723336
 10
1.817448304942456
 20
0.9291176157233369
 10
1.566948304942469
 20
0.9291176157233369
 10
1.566948304942469
 20
0.8791176157233362
 10
1.859448304942457
 20
0.8791176157233362
 42
0.4142135623731211
 10
1.879448304942468
 20
0.8991176157233358
 10
1.879448304942468
 20
1.629117615723336
 10
1.817448304942456
 20
1.629117615723334
 42
0.999999999999639
 10
1.817448304942456
 20
1.565117615723335
 10
1.817448304942456
 20
1.066117615723337
 10
1.639448304942459
 20
1.066117615723335
 10
1.629448304942469
 20
1.056117615723335
 10
1.61944830494245
 20
1.066117615723335
 10
1.276448585942465
 20
1.066117615723335
 42
-0.414213562373095
 10
1.261448585942466
 20
1.081117615723335
 10
1.261448585942466
 20
1.316117615723337
 42
0.4142135623730951
 10
1.199448585942465
 20
1.378117615723337
 10
1.059448585942464
 20
1.378117615723337
 42
0.4142135623730951
 10
0.997448585942465
 20
1.316117615723337
 10
0.997448585942465
 20
1.081117615723335
 42
-0.4142135623730953
 10
0.9824485859424644
 20
1.066117615723335
 10
0.639448304942468
 20
1.066117615723335
 10
0.6294483049424629
 20
1.056117615723335
 10
0.6194483049424649
 20
1.066117615723335
 10
0.4414483049424605
 20
1.066117615723337
 10
0.4414483049424605
 20
1.565117615723335
 42
0.9999999999996392
 10
0.4414483049424605
 20
1.629117615723334
 10
0.3794483049424628
 20
1.629117615723336
  0
TEXT
  5
5E694672E3595927
330
5E694672E3594F72
100
AcDbEntity
  8
TEXT
100
AcDbText
 10
0.377847214324145
 20
0.4744383879942649
 30
0.0
 40
0.125
  1
PART #170012
  7
ITALICC
 72
     1
 11
1.130823404800335
 21
0.4744383879942649
 31
0.0
100
AcDbText
  0
LWPOLYLINE
  5
5E694672E3595928
330
5E694672E3594F72
100
AcDbEntity
  8
TEXT
100
AcDbPolyline
 90
        3
 70
     0
 43
0.0
 10
0.7617825985240998
 20
0.2943613966312002
 10
0.6434824397080554
 20
0.2943613966312002
 10
0.6434824397080554
 20
0.2671938998703043
 42
-1.960274751411753
  0
LWPOLYLINE
  5
5E694672E3595929
330
5E694672E3594F72
100
AcDbEntity
  8
TEXT
100
AcDbPolyline
 90
        4
 70
     0
 43
0.0
 10
0.72664824797989
 20
0.2225309128083213
 10
0.72664824797989
 20
0.0278883636426857
 10
0.7951265312677478
 20
0.0278883636426857
 10
0.7951265312677478
 20
0.0713793085931238
 42
-1.714843617202739
  0
LWPOLYLINE
  5
5E694672E359592A
330
5E694672E3594F72
100
AcDbEntity
  8
TEXT
100
AcDbPolyline
 90
        2
 70
     0
 43
0.0001332181640625
 10
-0.3720324337041525
 20
0.054568701318698
 10
-0.4319806075322763
 20
0.1145168751468235
  0
LWPOLYLINE
  5
5E694672E359592B
330
5E694672E3594F72
100
AcDbEntity
  8
TEXT
100
AcDbPolyline
 90
        3
 70
     0
 43
0.0006660908203125
 10
-0.4586242403447774
 20
0.054568701318698
 10
-0.3720324337041525
 20
0.054568701318698
 10
-0.3720324337041525
 20
0.1411605079593245
  0
LWPOLYLINE
  5
5E694672E359592C
330
5E694672E3594F72
100
AcDbEntity
  8
TEXT
100
AcDbPolyline
 90
        3
 70
     0
 43
0.0006660908203125
 10
-0.4586242403447774
 20
0.0279250685061969
 10
-0.3453888008916515
 20
0.0279250685061969
 10
-0.3453888008916515
 20
0.1411605079593245
  0
LWPOLYLINE
  5
5E694672E359592D
330
5E694672E3594F72
100
AcDbEntity
  8
TEXT
100
AcDbPolyline
 90
        2
 70
     0
 43
0.0001332181640625
 10
-0.3453888008916515
 20
0.1411605079593245
 10
-0.4186587911260276
 20
0.1511518702640098
  0
LWPOLYLINE
  5
5E694672E359592E
330
5E694672E3594F72
100
AcDbEntity
  8
TEXT
100
AcDbPolyline
 90
        2
 70
     0
 43
0.0001332181640625
 10
-0.3720324337041525
 20
0.1411605079593245
 10
-0.4319806075322763
 20
0.1511518702640098
  0
LWPOLYLINE
  5
5E694672E359592F
330
5E694672E3594F72
100
AcDbEntity
  8
TEXT
100
AcDbPolyline
 90
        2
 70
     0
 43
0.0001332181640625
 10
-0.5851814962041538
 20
0.054568701318698
 10
-0.5252333223760264
 20
0.1145168751468235
  0
LWPOLYLINE
  5
5E694672E3595930
330
5E694672E3594F72
100
AcDbEntity
  8
TEXT
100
AcDbPolyline
 90
        2
 70
     0
 43
0.0001332181640625
 10
-0.5851814962041538
 20
0.1411605079593245
 10
-0.5252333223760264
 20
0.1511518702640098
  0
LWPOLYLINE
  5
5E694672E3595931
330
5E694672E3594F72
100
AcDbEntity
  8
TEXT
100
AcDbPolyline
 90
        3
 70
     0
 43
0.0006660908203125
 10
-0.6118251290166512
 20
0.1411605079593245
 10
-0.6118251290166512
 20
0.0279250685061969
 10
-0.4985896895635289
 20
0.0279250685061969
  0
LWPOLYLINE
  5
5E694672E3595932
330
5E694672E3594F72
100
AcDbEntity
  8
TEXT
100
AcDbPolyline
 90
        3
 70
     0
 43
0.0006660908203125
 10
-0.5851814962041538
 20
0.1411605079593245
 10
-0.5851814962041538
 20
0.054568701318698
 10
-0.4985896895635289
 20
0.054568701318698
  0
LWPOLYLINE
  5
5E694672E3595933
330
5E694672E3594F72
100
AcDbEntity
  8
TEXT
100
AcDbPolyline
 90
        5
 70
     0
 43
0.0001332181640625
 10
-0.4885983272588384
 20
0.101195058740573
 10
-0.4885983272588384
 20
0.1145168751468235
 10
-0.5252333223760264
 20
0.1145168751468235
 10
-0.5252333223760264
 20
0.1511518702640098
 10
-0.5385551387822769
 20
0.1511518702640098
  0
LWPOLYLINE
  5
5E694672E3595934
330
5E694672E3594F72
100
AcDbEntity
  8
TEXT
100
AcDbPolyline
 90
        2
 70
     0
 43
0.0006660908203125
 10
-0.5851814962041538
 20
0.1411605079593245
 10
-0.6118251290166512
 20
0.1411605079593245
  0
LWPOLYLINE
  5
5E694672E3595935
330
5E694672E3594F72
100
AcDbEntity
  8
TEXT
100
AcDbPolyline
 90
        2
 70
     0
 43
0.0001332181640625
 10
-0.5385551387822769
 20
0.1511518702640098
 10
-0.6118251290166512
 20
0.1411605079593245
  0
LWPOLYLINE
  5
5E694672E3595936
330
5E694672E3594F72
100
AcDbEntity
  8
TEXT
100
AcDbPolyline
 90
        2
 70
     0
 43
0.0006660908203125
 10
-0.4985896895635289
 20
0.054568701318698
 10
-0.4985896895635289
 20
0.0279250685061969
  0
LWPOLYLINE
  5
5E694672E3595937
330
5E694672E3594F72
100
AcDbEntity
  8
TEXT
100
AcDbPolyline
 90
        2
 70
     0
 43
0.0001332181640625
 10
-0.4985896895635289
 20
0.054568701318698
 10
-0.4885983272588384
 20
0.1145168751468235
  0
LWPOLYLINE
  5
5E694672E3595938
330
5E694672E3594F72
100
AcDbEntity
  8
TEXT
100
AcDbPolyline
 90
        2
 70
     0
 43
0.0001332181640625
 10
-0.4985896895635289
 20
0.0279250685061969
 10
-0.4885983272588384
 20
0.101195058740573
  0
LWPOLYLINE
  5
5E694672E3595939
330
5E694672E3594F72
100
AcDbEntity
  8
TEXT
100
AcDbPolyline
 90
        2
 70
     0
 43
0.0001332181640625
 10
-0.4586242403447774
 20
0.054568701318698
 10
-0.4686156026494662
 20
0.1145168751468235
  0
LWPOLYLINE
  5
5E694672E359593A
330
5E694672E3594F72
100
AcDbEntity
  8
TEXT
100
AcDbPolyline
 90
        2
 70
     0
 43
0.0001332181640625
 10
-0.4686156026494662
 20
0.101195058740573
 10
-0.4586242403447774
 20
0.0279250685061969
  0
LWPOLYLINE
  5
5E694672E359593B
330
5E694672E3594F72
100
AcDbEntity
  8
TEXT
100
AcDbPolyline
 90
        2
 70
     0
 43
0.0006660908203125
 10
-0.4586242403447774
 20
0.054568701318698
 10
-0.4586242403447774
 20
0.0279250685061969
  0
LWPOLYLINE
  5
5E694672E359593C
330
5E694672E3594F72
100
AcDbEntity
  8
TEXT
100
AcDbPolyline
 90
        5
 70
     0
 43
0.0001332181640625
 10
-0.4186587911260276
 20
0.1511518702640098
 10
-0.4319806075322763
 20
0.1511518702640098
 10
-0.4319806075322763
 20
0.1145168751468235
 10
-0.4686156026494662
 20
0.1145168751468235
 10
-0.4686156026494662
 20
0.101195058740573
  0
LWPOLYLINE
  5
5E694672E359593D
330
5E694672E3594F72
100
AcDbEntity
  8
TEXT
100
AcDbPolyline
 90
        2
 70
     0
 43
0.0006660908203125
 10
-0.3720324337041525
 20
0.1411605079593245
 10
-0.3453888008916515
 20
0.1411605079593245
  0
LWPOLYLINE
  5
5E694672E359593E
330
5E694672E3594F72
100
AcDbEntity
  8
TEXT
100
AcDbPolyline
 90
        3
 70
     0
 43
0.0006660908203125
 10
-0.3453888008916515
 20
0.1811259571780725
 10
-0.3453888008916515
 20
0.2943613966312002
 10
-0.4586242403447774
 20
0.2943613966312002
  0
LWPOLYLINE
  5
5E694672E359593F
330
5E694672E3594F72
100
AcDbEntity
  8
TEXT
100
AcDbPolyline
 90
        3
 70
     0
 43
0.0006660908203125
 10
-0.3720324337041525
 20
0.1811259571780725
 10
-0.3720324337041525
 20
0.2677177638186992
 10
-0.4586242403447774
 20
0.2677177638186992
  0
LWPOLYLINE
  5
5E694672E3595940
330
5E694672E3594F72
100
AcDbEntity
  8
TEXT
100
AcDbPolyline
 90
        2
 70
     0
 43
0.0001332181640625
 10
-0.4186587911260276
 20
0.1711345948733838
 10
-0.3453888008916515
 20
0.1811259571780725
  0
LWPOLYLINE
  5
5E694672E3595941
330
5E694672E3594F72
100
AcDbEntity
  8
TEXT
100
AcDbPolyline
 90
        2
 70
     0
 43
0.0001332181640625
 10
-0.3720324337041525
 20
0.1811259571780725
 10
-0.4319806075322763
 20
0.1711345948733838
  0
LWPOLYLINE
  5
5E694672E3595942
330
5E694672E3594F72
100
AcDbEntity
  8
TEXT
100
AcDbPolyline
 90
        2
 70
     0
 43
0.0001332181640625
 10
-0.3720324337041525
 20
0.2677177638186992
 10
-0.4319806075322763
 20
0.2077695899905736
  0
LWPOLYLINE
  5
5E694672E3595943
330
5E694672E3594F72
100
AcDbEntity
  8
TEXT
100
AcDbPolyline
 90
        2
 70
     0
 43
0.0001332181640625
 10
-0.5851814962041538
 20
0.2677177638186992
 10
-0.5252333223760282
 20
0.2077695899905736
  0
LWPOLYLINE
  5
5E694672E3595944
330
5E694672E3594F72
100
AcDbEntity
  8
TEXT
100
AcDbPolyline
 90
        2
 70
     0
 43
0.0001332181640625
 10
-0.5851814962041538
 20
0.1811259571780725
 10
-0.5252333223760282
 20
0.1711345948733838
  0
LWPOLYLINE
  5
5E694672E3595945
330
5E694672E3594F72
100
AcDbEntity
  8
TEXT
100
AcDbPolyline
 90
        3
 70
     0
 43
0.0006660908203125
 10
-0.4985896895635289
 20
0.2943613966312002
 10
-0.6118251290166512
 20
0.2943613966312002
 10
-0.6118251290166512
 20
0.1811259571780725
  0
LWPOLYLINE
  5
5E694672E3595946
330
5E694672E3594F72
100
AcDbEntity
  8
TEXT
100
AcDbPolyline
 90
        3
 70
     0
 43
0.0006660908203125
 10
-0.4985896895635289
 20
0.2677177638186992
 10
-0.5851814962041538
 20
0.2677177638186992
 10
-0.5851814962041538
 20
0.1811259571780725
  0
LWPOLYLINE
  5
5E694672E3595947
330
5E694672E3594F72
100
AcDbEntity
  8
TEXT
100
AcDbPolyline
 90
        5
 70
     0
 43
0.0001332181640625
 10
-0.5385551387822769
 20
0.1711345948733838
 10
-0.5252333223760282
 20
0.1711345948733838
 10
-0.5252333223760282
 20
0.2077695899905736
 10
-0.4885983272588384
 20
0.2077695899905736
 10
-0.4885983272588384
 20
0.2210914063968206
  0
LWPOLYLINE
  5
5E694672E3595948
330
5E694672E3594F72
100
AcDbEntity
  8
TEXT
100
AcDbPolyline
 90
        2
 70
     0
 43
0.0001332181640625
 10
-0.6118251290166512
 20
0.1811259571780725
 10
-0.5385551387822769
 20
0.1711345948733838
  0
LWPOLYLINE
  5
5E694672E3595949
330
5E694672E3594F72
100
AcDbEntity
  8
TEXT
100
AcDbPolyline
 90
        2
 70
     0
 43
0.0006660908203125
 10
-0.5851814962041538
 20
0.1811259571780725
 10
-0.6118251290166512
 20
0.1811259571780725
  0
LWPOLYLINE
  5
5E694672E359594A
330
5E694672E3594F72
100
AcDbEntity
  8
TEXT
100
AcDbPolyline
 90
        2
 70
     0
 43
0.0006660908203125
 10
-0.4985896895635289
 20
0.2677177638186992
 10
-0.4985896895635289
 20
0.2943613966312002
  0
LWPOLYLINE
  5
5E694672E359594B
330
5E694672E3594F72
100
AcDbEntity
  8
TEXT
100
AcDbPolyline
 90
        2
 70
     0
 43
0.0001332181640625
 10
-0.4885983272588384
 20
0.2210914063968206
 10
-0.4985896895635289
 20
0.2943613966312002
  0
LWPOLYLINE
  5
5E694672E359594C
330
5E694672E3594F72
100
AcDbEntity
  8
TEXT
100
AcDbPolyline
 90
        2
 70
     0
 43
0.0001332181640625
 10
-0.4985896895635289
 20
0.2677177638186992
 10
-0.4885983272588384
 20
0.2077695899905736
  0
LWPOLYLINE
  5
5E694672E359594D
330
5E694672E3594F72
100
AcDbEntity
  8
TEXT
100
AcDbPolyline
 90
        5
 70
     0
 43
0.0001332181640625
 10
-0.4686156026494662
 20
0.2210914063968206
 10
-0.4686156026494662
 20
0.2077695899905736
 10
-0.4319806075322763
 20
0.2077695899905736
 10
-0.4319806075322763
 20
0.1711345948733838
 10
-0.4186587911260276
 20
0.1711345948733838
  0
LWPOLYLINE
  5
5E694672E359594E
330
5E694672E3594F72
100
AcDbEntity
  8
TEXT
100
AcDbPolyline
 90
        2
 70
     0
 43
0.0006660908203125
 10
-0.4586242403447774
 20
0.2677177638186992
 10
-0.4586242403447774
 20
0.2943613966312002
  0
LWPOLYLINE
  5
5E694672E359594F
330
5E694672E3594F72
100
AcDbEntity
  8
TEXT
100
AcDbPolyline
 90
        2
 70
     0
 43
0.0001332181640625
 10
-0.4586242403447774
 20
0.2677177638186992
 10
-0.4686156026494662
 20
0.2077695899905736
  0
LWPOLYLINE
  5
5E694672E3595950
330
5E694672E3594F72
100
AcDbEntity
  8
TEXT
100
AcDbPolyline
 90
        2
 70
     0
 43
0.0001332181640625
 10
-0.4586242403447774
 20
0.2943613966312002
 10
-0.4686156026494662
 20
0.2210914063968206
  0
LWPOLYLINE
  5
5E694672E3595951
330
5E694672E3594F72
100
AcDbEntity
  8
TEXT
100
AcDbPolyline
 90
        2
 70
     0
 43
0.0006660908203125
 10
-0.3720324337041525
 20
0.1811259571780725
 10
-0.3453888008916515
 20
0.1811259571780725
  0
LINE
  5
5E694672E3595952
330
5E694672E3594F72
100
AcDbEntity
  8
TEXT
100
AcDbLine
 10
0.2760914137635355
 20
0.0478468697476986
 30
0.0
 11
0.3733911198569801
 21
0.2121970806829667
 31
0.0
  0
LINE
  5
5E694672E3595953
330
5E694672E3594F72
100
AcDbEntity
  8
TEXT
100
AcDbLine
 10
0.2856916507604898
 20
0.193489400518076
 30
0.0
 11
0.227061329728552
 21
0.2943613966311966
 31
0.0
  0
LINE
  5
5E694672E3595954
330
5E694672E3594F72
100
AcDbEntity
  8
TEXT
100
AcDbLine
 10
0.0916309899853447
 20
0.2300847019744312
 30
0.0
 11
0.0916309899853447
 21
0.0876807549807355
 31
0.0
  0
LWPOLYLINE
  5
5E694672E3595955
330
5E694672E3594F72
100
AcDbEntity
  8
TEXT
100
AcDbPolyline
 90
        6
 70
     1
 43
0.0
 10
0.1880414010406
 20
0.2300847019744312
 10
0.1577248068203918
 20
0.2300847019744312
 10
0.1577248068203918
 20
0.1069737039195369
 42
0.407328721240804
 10
0.1692684579818682
 20
0.0951547892431508
 10
0.229890157026599
 20
0.0951547892431508
 10
0.2473554974339169
 20
0.1279670182866299
  0
ARC
  5
5E694672E3595956
330
5E694672E3594F72
100
AcDbEntity
  8
TEXT
100
AcDbCircle
 10
-0.0805119941578738
 20
0.2122739371846949
 30
0.0
 40
0.0820874594465043
100
AcDbArc
 50
90.0
 51
270.0
  0
ARC
  5
5E694672E3595957
330
5E694672E3594F72
100
AcDbEntity
  8
TEXT
100
AcDbCircle
 10
-0.0096745277993247
 20
0.1110841720032427
 30
0.0
 40
0.0831958083605586
100
AcDbArc
 50
270.0
 51
90.0
  0
LINE
  5
5E694672E3595958
330
5E694672E3594F72
100
AcDbEntity
  8
TEXT
100
AcDbLine
 10
-0.0805119941578738
 20
0.1301864777381896
 30
0.0
 11
-0.004734153893045
 21
0.1301864777381896
 31
0.0
  0
LINE
  5
5E694672E3595959
330
5E694672E3594F72
100
AcDbEntity
  8
TEXT
100
AcDbLine
 10
-0.1625994536043773
 20
0.0278883636426857
 30
0.0
 11
-0.0096745277993247
 21
0.0278883636426857
 31
0.0
  0
LINE
  5
5E694672E359595A
330
5E694672E3594F72
100
AcDbEntity
  8
TEXT
100
AcDbLine
 10
-0.004734153893045
 20
0.096245369976125
 30
0.0
 11
-0.1625994536043791
 21
0.096245369976125
 31
0.0
  0
LINE
  5
5E694672E359595B
330
5E694672E3594F72
100
AcDbEntity
  8
TEXT
100
AcDbLine
 10
-0.1625994536043791
 20
0.096245369976125
 30
0.0
 11
-0.1625994536043773
 21
0.0278883636426857
 31
0.0
  0
ARC
  5
5E694672E359595C
330
5E694672E3594F72
100
AcDbEntity
  8
TEXT
100
AcDbCircle
 10
-0.004734153893045
 20
0.1132159238571591
 30
0.0
 40
0.0169705538810321
100
AcDbArc
 50
270.0
 51
90.0
  0
LINE
  5
5E694672E359595D
330
5E694672E3594F72
100
AcDbEntity
  8
TEXT
100
AcDbLine
 10
0.1455175974654503
 20
0.0278883636426857
 30
0.0
 11
0.2421578485404447
 21
0.028159002740968
 31
0.0
  0
ARC
  5
5E694672E359595E
330
5E694672E3594F72
100
AcDbEntity
  8
TEXT
100
AcDbCircle
 10
0.1517470079590968
 20
0.0876807549807355
 30
0.0
 40
0.0601160179737537
100
AcDbArc
 50
180.0000000000003
 51
264.0521544866073
  0
ARC
  5
5E694672E359595F
330
5E694672E3594F72
100
AcDbEntity
  8
TEXT
100
AcDbCircle
 10
0.2420478538513215
 20
0.0674360859163814
 30
0.0
 40
0.0392772371940762
100
AcDbArc
 50
270.1604552698595
 51
330.0831797321295
  0
LINE
  5
5E694672E3595960
330
5E694672E3594F72
100
AcDbEntity
  8
TEXT
100
AcDbLine
 10
-0.0752746640436257
 20
0.2300847019744312
 30
0.0
 11
0.0916309899853447
 21
0.2300847019744312
 31
0.0
  0
LINE
  5
5E694672E3595961
330
5E694672E3594F72
100
AcDbEntity
  8
TEXT
100
AcDbLine
 10
0.0952197587406376
 20
0.2943613966311966
 30
0.0
 11
-0.0805119941578738
 21
0.2943613966311966
 31
0.0
  0
LINE
  5
5E694672E3595962
330
5E694672E3594F72
100
AcDbEntity
  8
TEXT
100
AcDbLine
 10
-0.0096745277993247
 20
0.1942799803638033
 30
0.0
 11
-0.0752746640436257
 21
0.1942799803638033
 31
0.0
  0
ARC
  5
5E694672E3595963
330
5E694672E3594F72
100
AcDbEntity
  8
TEXT
100
AcDbCircle
 10
-0.0752746640436257
 20
0.212182341169119
 30
0.0
 40
0.017902360805315
100
AcDbArc
 50
90.0
 51
270.0
  0
LINE
  5
5E694672E3595964
330
5E694672E3594F72
100
AcDbEntity
  8
TEXT
100
AcDbLine
 10
0.227061329728552
 20
0.2943613966311966
 30
0.0
 11
0.1552623635846446
 21
0.2943613966311966
 31
0.0
  0
LINE
  5
5E694672E3595965
330
5E694672E3594F72
100
AcDbEntity
  8
TEXT
100
AcDbLine
 10
0.1552623635846446
 20
0.2943613966311966
 30
0.0
 11
0.1552623635846446
 21
0.3287493142253348
 31
0.0
  0
LINE
  5
5E694672E3595966
330
5E694672E3594F72
100
AcDbEntity
  8
TEXT
100
AcDbLine
 10
0.0952197587406376
 20
0.3287493142253348
 30
0.0
 11
0.0952197587406376
 21
0.2943613966311966
 31
0.0
  0
LINE
  5
5E694672E3595967
330
5E694672E3594F72
100
AcDbEntity
  8
TEXT
100
AcDbLine
 10
0.1552623635846446
 20
0.3287493142253348
 30
0.0
 11
0.0952197587406376
 21
0.3287493142253348
 31
0.0
  0
LINE
  5
5E694672E3595968
330
5E694672E3594F72
100
AcDbEntity
  8
TEXT
100
AcDbLine
 10
0.6649608618928271
 20
0.0278883636426857
 30
0.0
 11
0.6649608618928271
 21
0.2300847019744312
 31
0.0
  0
LINE
  5
5E694672E3595969
330
5E694672E3594F72
100
AcDbEntity
  8
TEXT
100
AcDbLine
 10
0.5979028151109871
 20
0.2225309128083213
 30
0.0
 11
0.5979028151109871
 21
0.0278883636426857
 31
0.0
  0
LINE
  5
5E694672E359596A
330
5E694672E3594F72
100
AcDbEntity
  8
TEXT
100
AcDbLine
 10
0.4413708389260967
 20
0.1102762017456849
 30
0.0
 11
0.4413708389260967
 21
0.3623728743700072
 31
0.0
  0
LINE
  5
5E694672E359596B
330
5E694672E3594F72
100
AcDbEntity
  8
TEXT
100
AcDbLine
 10
0.4736826930637568
 20
0.2943613966311966
 30
0.0
 11
0.4736826930637568
 21
0.0934971898987884
 31
0.0
  0
LINE
  5
5E694672E359596C
330
5E694672E3594F72
100
AcDbEntity
  8
TEXT
100
AcDbLine
 10
0.540513746121726
 20
0.0278883636426857
 30
0.0
 11
0.540513746121726
 21
0.2300847019744312
 31
0.0
  0
LINE
  5
5E694672E359596D
330
5E694672E3594F72
100
AcDbEntity
  8
TEXT
100
AcDbLine
 10
0.3733911198569801
 20
0.2121970806829667
 30
0.0
 11
0.3733911198569801
 21
0.0794397058576104
 31
0.0
  0
LINE
  5
5E694672E359596E
330
5E694672E3594F72
100
AcDbEntity
  8
TEXT
100
AcDbLine
 10
0.4425104124222914
 20
0.0278883636426857
 30
0.0
 11
0.540513746121726
 21
0.0278883636426857
 31
0.0
  0
LWPOLYLINE
  5
5E694672E359596F
330
5E694672E3594F72
100
AcDbEntity
  8
TEXT
100
AcDbPolyline
 90
        2
 70
     0
 43
0.0
 10
0.3733911198569793
 20
0.079439705857614
 42
0.3318488747599744
 10
0.4425104124222923
 20
0.0278883636426857
 42
-6.868794160588311
  0
ARC
  5
5E694672E3595970
330
5E694672E3594F72
100
AcDbEntity
  8
TEXT
100
AcDbCircle
 10
0.4566890561791546
 20
0.1088789961422139
 30
0.0
 40
0.0153818062434269
100
AcDbArc
 50
174.7883570302258
 51
270.0
  0
LINE
  5
5E694672E3595971
330
5E694672E3594F72
100
AcDbEntity
  8
TEXT
100
AcDbLine
 10
0.4736826930637568
 20
0.0934971898987884
 30
0.0
 11
0.4566890561791555
 21
0.0934971898987884
 31
0.0
  0
LINE
  5
5E694672E3595972
330
5E694672E3594F72
100
AcDbEntity
  8
TEXT
100
AcDbLine
 10
0.5979028151109871
 20
0.0278883636426857
 30
0.0
 11
0.6649608618928271
 21
0.0278883636426857
 31
0.0
  0
LINE
  5
5E694672E3595973
330
5E694672E3594F72
100
AcDbEntity
  8
TEXT
100
AcDbLine
 10
0.6077007489948932
 20
0.2943613966311966
 30
0.0
 11
0.4736826930637568
 21
0.2943613966311966
 31
0.0
  0
LINE
  5
5E694672E3595974
330
5E694672E3594F72
100
AcDbEntity
  8
TEXT
100
AcDbLine
 10
0.3745621263597316
 20
0.3623728743700072
 30
0.0
 11
0.3745621263597316
 21
0.2943613966311966
 31
0.0
  0
LINE
  5
5E694672E3595975
330
5E694672E3594F72
100
AcDbEntity
  8
TEXT
100
AcDbLine
 10
0.3745621263597316
 20
0.2943613966311966
 30
0.0
 11
0.3444402135663553
 21
0.2943613966311966
 31
0.0
  0
LINE
  5
5E694672E3595976
330
5E694672E3594F72
100
AcDbEntity
  8
TEXT
100
AcDbLine
 10
0.3444402135663553
 20
0.2943613966311966
 30
0.0
 11
0.2856916507604898
 21
0.193489400518076
 31
0.0
  0
LINE
  5
5E694672E3595977
330
5E694672E3594F72
100
AcDbEntity
  8
TEXT
100
AcDbLine
 10
0.4413708389260967
 20
0.3623728743700072
 30
0.0
 11
0.3745621263597316
 21
0.3623728743700072
 31
0.0
  0
LWPOLYLINE
  5
5E694672E3595978
330
5E694672E3594F72
100
AcDbEntity
  8
TEXT
100
AcDbPolyline
 90
        2
 70
     0
 43
0.0
 10
0.6077007489948941
 20
0.2943613966312002
 42
-0.3328679258950098
 10
0.6434824397080554
 20
0.2671938998703043
 42
6.772930709997214
  0
LINE
  5
5E694672E3595979
330
5E694672E3594F72
100
AcDbEntity
  8
TEXT
100
AcDbLine
 10
0.540513746121726
 20
0.2300847019744312
 30
0.0
 11
0.5903490259448736
 21
0.2300847019744312
 31
0.0
  0
LWPOLYLINE
  5
5E694672E359597A
330
5E694672E3594F72
100
AcDbEntity
  8
TEXT
100
AcDbPolyline
 90
        2
 70
     0
 43
0.0
 10
0.5903490259448727
 20
0.2300847019744312
 42
-0.4142135623731017
 10
0.5979028151109862
 20
0.2225309128083213
 42
-0.9999999999999998
  0
LWPOLYLINE
  5
5E694672E359597B
330
5E694672E3594F72
100
AcDbEntity
  8
TEXT
100
AcDbPolyline
 90
        2
 70
     0
 43
0.0
 10
0.7190944588137765
 20
0.2300847019744312
 42
-0.4142135623731017
 10
0.72664824797989
 20
0.2225309128083213
 42
-0.9999999999999998
  0
LINE
  5
5E694672E359597C
330
5E694672E3594F72
100
AcDbEntity
  8
TEXT
100
AcDbLine
 10
0.6649608618928271
 20
0.2300847019744312
 30
0.0
 11
0.7190944588137774
 21
0.2300847019744312
 31
0.0
  0
TEXT
  5
5E694672E359597D
330
5E694672E3594F72
100
AcDbEntity
  8
TEXT
100
AcDbText
 10
1.544128563050657
 20
0.0275157453218897
 30
0.0
 40
0.0522247191011236
  1
Phone  1-800-328-2495
 41
1.272321428571429
 72
     5
 11
2.873061147320321
 21
0.0275157453218897
 31
0.0
100
AcDbText
  0
TEXT
  5
5E694672E359597E
330
5E694672E3594F72
100
AcDbEntity
  8
TEXT
100
AcDbText
 10
1.544128563050657
 20
0.3072910262207662
 30
0.0
 40
0.0522247191011236
  1
Stylmark  Incorporated
 41
1.221428571428571
 72
     5
 11
2.873061147320321
 21
0.3072910262207662
 31
0.0
100
AcDbText
  0
TEXT
  5
5E694672E359597F
330
5E694672E3594F72
100
AcDbEntity
  8
TEXT
100
AcDbText
 10
1.544128563050657
 20
0.214032599254474
 30
0.0
 40
0.0522247191011236
  1
6536 Main St. N.E. * P.O. Box 32008
 41
0.8388932496075353
 72
     5
 11
2.873061147320321
 21
0.214032599254474
 31
0.0
100
AcDbText
  0
TEXT
  5
5E694672E3595980
330
5E694672E3594F72
100
AcDbEntity
  8
TEXT
100
AcDbText
 10
1.544128563050657
 20
0.1207741722881819
 30
0.0
 40
0.0522247191011236
  1
Minneapolis, MN 55432-0008
 41
1.11444212721585
 72
     5
 11
2.873061147320321
 21
0.1207741722881819
 31
0.0
100
AcDbText
  0
LINE
  5
5E694672E3595981
330
5E694672E3594F72
100
AcDbEntity
  8
TEXT
100
AcDbLine
 10
1.239039876267734
 20
0.3598256023987973
 30
0.0
 11
1.170724997718461
 21
0.3598256023987973
 31
0.0
  0
LINE
  5
5E694672E3595982
330
5E694672E3594F72
100
AcDbEntity
  8
TEXT
100
AcDbLine
 10
1.175204885044961
 20
0.0278883636426857
 30
0.0
 11
1.239583069363582
 21
0.0278883636426857
 31
0.0
  0
LINE
  5
5E694672E3595983
330
5E694672E3594F72
100
AcDbEntity
  8
TEXT
100
AcDbLine
 10
1.175204885044956
 20
0.2300847019744312
 30
0.0
 11
1.175204885044961
 21
0.0278883636426857
 31
0.0
  0
LINE
  5
5E694672E3595984
330
5E694672E3594F72
100
AcDbEntity
  8
TEXT
100
AcDbLine
 10
1.073651028469739
 20
0.0278883636426857
 30
0.0
 11
1.073651028469734
 21
0.2051788690741541
 31
0.0
  0
LWPOLYLINE
  5
5E694672E3595985
330
5E694672E3594F72
100
AcDbEntity
  8
TEXT
100
AcDbPolyline
 90
        2
 70
     0
 43
0.0
 10
1.015295814634404
 20
0.0713793085931238
 42
-0.2901071551932486
 10
0.9722198817667599
 20
0.0278883636426857
 42
-5.328517124445184
  0
LWPOLYLINE
  5
5E694672E3595986
330
5E694672E3594F72
100
AcDbEntity
  8
TEXT
100
AcDbPolyline
 90
        4
 70
     1
 43
0.0
 10
0.9520974166968674
 20
0.1308523416267109
 10
0.8634370980370089
 20
0.1308523416267109
 42
0.9999999999999998
 10
0.8634370980370089
 20
0.0884538011228502
 10
0.9520974166968674
 20
0.0884538011228502
 42
1.0
  0
LWPOLYLINE
  5
5E694672E3595987
330
5E694672E3594F72
100
AcDbEntity
  8
TEXT
100
AcDbPolyline
 90
        2
 70
     0
 43
0.0
 10
0.8382024641353833
 20
0.0278883636426857
 10
0.9722198817667599
 20
0.0278883636426857
 42
0.9999999999999998
  0
LWPOLYLINE
  5
5E694672E3595988
330
5E694672E3594F72
100
AcDbEntity
  8
TEXT
100
AcDbPolyline
 90
        2
 70
     0
 43
0.0
 10
0.7951265312677478
 20
0.0713793085931238
 42
0.2901071551932823
 10
0.8382024641353833
 20
0.0278883636426857
 42
5.328517124445801
  0
LWPOLYLINE
  5
5E694672E3595989
330
5E694672E3594F72
100
AcDbEntity
  8
TEXT
100
AcDbPolyline
 90
        2
 70
     0
 43
0.0
 10
1.015295814634404
 20
0.0713793085931238
 10
1.015295814634404
 20
0.0278883636426857
  0
LWPOLYLINE
  5
5E694672E359598A
330
5E694672E3594F72
100
AcDbEntity
  8
TEXT
100
AcDbPolyline
 90
        2
 70
     0
 43
0.0
 10
1.015295814634404
 20
0.0278883636426857
 10
1.073651028469738
 20
0.0278883636426857
  0
LINE
  5
5E694672E359598B
330
5E694672E3594F72
100
AcDbEntity
  8
TEXT
100
AcDbLine
 10
1.011356137329365
 20
0.1891494180777693
 30
0.0
 11
0.9676053661474641
 21
0.2713996940739145
 31
0.0
  0
LINE
  5
5E694672E359598C
330
5E694672E3594F72
100
AcDbEntity
  8
TEXT
100
AcDbLine
 10
0.9033653001098462
 20
0.2300847019744312
 30
0.0
 11
0.7961590267225569
 21
0.2300847019744312
 31
0.0
  0
LINE
  5
5E694672E359598D
330
5E694672E3594F72
100
AcDbEntity
  8
TEXT
100
AcDbLine
 10
0.8568783856305843
 20
0.1928097285122989
 30
0.0
 11
0.9391663754139676
 21
0.1928097285122989
 31
0.0
  0
LINE
  5
5E694672E359598E
330
5E694672E3594F72
100
AcDbEntity
  8
TEXT
100
AcDbLine
 10
0.9323961984543247
 20
0.2943613966311966
 30
0.0
 11
0.7975642892372657
 21
0.2943613966311966
 31
0.0
  0
LINE
  5
5E694672E359598F
330
5E694672E3594F72
100
AcDbEntity
  8
TEXT
100
AcDbLine
 10
0.7961590267225569
 20
0.2300847019744312
 30
0.0
 11
0.7961590267225569
 21
0.1550322959002246
 31
0.0
  0
ARC
  5
5E694672E3595990
330
5E694672E3594F72
100
AcDbEntity
  8
TEXT
100
AcDbCircle
 10
0.8568783856305834
 20
0.1251241473681803
 30
0.0
 40
0.0676855811441166
100
AcDbArc
 50
90.0
 51
153.7768192527749
  0
LINE
  5
5E694672E3595991
330
5E694672E3594F72
100
AcDbEntity
  8
TEXT
100
AcDbLine
 10
0.7975642892372657
 20
0.2943613966311966
 30
0.0
 11
0.7975642892372657
 21
0.2660388508615528
 31
0.0
  0
LWPOLYLINE
  5
5E694672E3595992
330
5E694672E3594F72
100
AcDbEntity
  8
TEXT
100
AcDbPolyline
 90
        2
 70
     0
 43
0.0
 10
0.7617825985240998
 20
0.2943613966312002
 42
-0.3277054968067132
 10
0.7975642892372648
 20
0.2660388508615563
 42
6.667889725900311
  0
ARC
  5
5E694672E3595993
330
5E694672E3594F72
100
AcDbEntity
  8
TEXT
100
AcDbCircle
 10
0.9033653001098453
 20
0.2017253269744339
 30
0.0
 40
0.028359375
100
AcDbArc
 50
25.78218179591245
 51
90.0
  0
LINE
  5
5E694672E3595994
330
5E694672E3594F72
100
AcDbEntity
  8
TEXT
100
AcDbLine
 10
0.9391663754139676
 20
0.1928097285122989
 30
0.0
 11
0.9289016150004032
 21
0.2140602680849932
 31
0.0
  0
ARC
  5
5E694672E3595995
330
5E694672E3594F72
100
AcDbEntity
  8
TEXT
100
AcDbCircle
 10
0.9303692586772562
 20
0.2527778295102943
 30
0.0
 40
0.0416329381542859
100
AcDbArc
 50
26.56974201007528
 51
87.20939649401342
  0
LINE
  5
5E694672E3595996
330
5E694672E3594F72
100
AcDbEntity
  8
TEXT
100
AcDbLine
 10
1.170724997718461
 20
0.3598256023987973
 30
0.0
 11
1.170724997718456
 21
0.2943613966311966
 31
0.0
  0
LINE
  5
5E694672E3595997
330
5E694672E3594F72
100
AcDbEntity
  8
TEXT
100
AcDbLine
 10
1.170724997718456
 20
0.2943613966311966
 30
0.0
 11
1.103225280068939
 21
0.2943613966311966
 31
0.0
  0
LINE
  5
5E694672E3595998
330
5E694672E3594F72
100
AcDbEntity
  8
TEXT
100
AcDbLine
 10
1.098556903752398
 20
0.2300847019744312
 30
0.0
 11
1.175204885044956
 21
0.2300847019744312
 31
0.0
  0
LINE
  5
5E694672E3595999
330
5E694672E3594F72
100
AcDbEntity
  8
TEXT
100
AcDbLine
 10
1.075253043628866
 20
0.266813746770322
 30
0.0
 11
1.075253043628866
 21
0.2943613966311966
 31
0.0
  0
ARC
  5
5E694672E359599A
330
5E694672E3594F72
100
AcDbEntity
  8
TEXT
100
AcDbCircle
 10
1.106445860691975
 20
0.2631156693489318
 30
0.0
 40
0.0314112657011332
100
AcDbArc
 50
95.88484768694724
 51
173.2388340632136
  0
ARC
  5
5E694672E359599B
330
5E694672E3594F72
100
AcDbEntity
  8
TEXT
100
AcDbCircle
 10
1.098556903752397
 20
0.2051788266917685
 30
0.0
 40
0.0249058752826653
100
AcDbArc
 50
89.99971217465335
 51
179.9999999999985
  0
LINE
  5
5E694672E359599C
330
5E694672E3594F72
100
AcDbEntity
  8
TEXT
100
AcDbLine
 10
1.011356137329365
 20
0.2943613966311966
 30
0.0
 11
1.011356137329365
 21
0.1891494180777693
 31
0.0
  0
LINE
  5
5E694672E359599D
330
5E694672E3594F72
100
AcDbEntity
  8
TEXT
100
AcDbLine
 10
1.075253043628866
 20
0.2943613966311966
 30
0.0
 11
1.011356137329365
 21
0.2943613966311966
 31
0.0
  0
LINE
  5
5E694672E359599E
330
5E694672E3594F72
100
AcDbEntity
  8
TEXT
100
AcDbLine
 10
1.239583069363582
 20
0.1594679321188659
 30
0.0
 11
1.315486602575046
 21
0.0278883636426857
 31
0.0
  0
LINE
  5
5E694672E359599F
330
5E694672E3594F72
100
AcDbEntity
  8
TEXT
100
AcDbLine
 10
1.239583069363582
 20
0.0278883636426857
 30
0.0
 11
1.239583069363582
 21
0.1594679321188659
 31
0.0
  0
LINE
  5
5E694672E35959A0
330
5E694672E3594F72
100
AcDbEntity
  8
TEXT
100
AcDbLine
 10
1.392064974951252
 20
0.0278883636426857
 30
0.0
 11
1.296572751587642
 21
0.1844681536902231
 31
0.0
  0
LINE
  5
5E694672E35959A1
330
5E694672E3594F72
100
AcDbEntity
  8
TEXT
100
AcDbLine
 10
1.315486602575046
 20
0.0278883636426857
 30
0.0
 11
1.392064974951252
 21
0.0278883636426857
 31
0.0
  0
LINE
  5
5E694672E35959A2
330
5E694672E3594F72
100
AcDbEntity
  8
TEXT
100
AcDbLine
 10
1.239039876267734
 20
0.2184960702196586
 30
0.0
 11
1.239039876267734
 21
0.3598256023987973
 31
0.0
  0
LINE
  5
5E694672E35959A3
330
5E694672E3594F72
100
AcDbEntity
  8
TEXT
100
AcDbLine
 10
1.361129867553347
 20
0.2943613966311966
 30
0.0
 11
1.286138034823721
 21
0.2943613966311966
 31
0.0
  0
LINE
  5
5E694672E35959A4
330
5E694672E3594F72
100
AcDbEntity
  8
TEXT
100
AcDbLine
 10
1.296572751587642
 20
0.1844681536902231
 30
0.0
 11
1.361129867553347
 21
0.2943613966311966
 31
0.0
  0
LINE
  5
5E694672E35959A5
330
5E694672E3594F72
100
AcDbEntity
  8
TEXT
100
AcDbLine
 10
1.286138034823719
 20
0.2943613966311966
 30
0.0
 11
1.239039876267734
 21
0.2184960702196586
 31
0.0
  0
ENDSEC
  0
SECTION
  2
OBJECTS
  0
DICTIONARY
  5
5E694672E3594F66
330
0
100
AcDbDictionary
  3
ACAD_GROUP
350
5E694672E3594F67
  3
ACAD_LAYOUT
350
5E694672E35959AA
  3
ACAD_MLINESTYLE
350
5E694672E3594F68
  3
ACAD_PLOTSETTINGS
350
5E694672E35959AB
  3
ACAD_PLOTSTYLENAME
350
5E694672E35959A8
  3
ACDBHEADERROUNDTRIPXREC
350
5E694672E35959B4
  3
ACDBVARIABLEDICTIONARY
350
5E694672E3595899
  0
DICTIONARY
  5
5E694672E35959D6
330
5E694672E3594F72
100
AcDbDictionary
280
     1
  3
ACAD_LAYOUTSELFREF
360
5E694672E35959D7
  0
DICTIONARY
  5
5E694672E35959D4
330
5E694672E3594F6F
100
AcDbDictionary
280
     1
  3
ACAD_LAYOUTSELFREF
360
5E694672E35959D5
  0
DICTIONARY
  5
5E694672E3594F67
102
{ACAD_REACTORS
330
5E694672E3594F66
102
}
330
5E694672E3594F66
100
AcDbDictionary
  3
*A1
350
5E694672E3594F93
  3
*A2
350
5E694672E359514C
  3
*A3
350
5E694672E35951B8
  3
*A4
350
5E694672E35951B9
  0
DICTIONARY
  5
5E694672E35959AA
102
{ACAD_REACTORS
330
5E694672E3594F66
102
}
330
5E694672E3594F66
100
AcDbDictionary
  0
DICTIONARY
  5
5E694672E3594F68
102
{ACAD_REACTORS
330
5E694672E3594F66
102
}
330
5E694672E3594F66
100
AcDbDictionary
  3
STANDARD
350
5E694672E3594F75
  0
DICTIONARY
  5
5E694672E35959AB
102
{ACAD_REACTORS
330
5E694672E3594F66
102
}
330
5E694672E3594F66
100
AcDbDictionary
  0
ACDBDICTIONARYWDFLT
  5
5E694672E35959A8
102
{ACAD_REACTORS
330
5E694672E3594F66
102
}
330
5E694672E3594F66
100
AcDbDictionary
281
     1
  3
Normal
350
5E694672E35959A9
100
AcDbDictionaryWithDefault
340
5E694672E35959A9
  0
DICTIONARY
  5
5E694672E35959B4
102
{ACAD_REACTORS
330
5E694672E3594F66
102
}
330
5E694672E3594F66
100
AcDbDictionary
  3
CEPSNTYPE
350
5E694672E35959BE
  3
FINGERPRINTGUID
350
5E694672E35959BF
  3
HYPERLINKBASE
350
5E694672E35959B7
  3
INSUNITS
350
5E694672E35959BD
  3
LAYOUTDICT
350
5E694672E35959B9
  3
LWETCUNION
350
5E694672E35959BC
  3
PLOTSETDICT
350
5E694672E35959BA
  3
PLOTSTYLNAMDICT
350
5E694672E35959BB
  3
PSVPSCALE
350
5E694672E35959C1
  3
PUCSBASE
350
5E694672E35959C4
  3
PUCSORGBACK
350
5E694672E35959CA
  3
PUCSORGBOTTOM
350
5E694672E35959C6
  3
PUCSORGFRONT
350
5E694672E35959C9
  3
PUCSORGLEFT
350
5E694672E35959C7
  3
PUCSORGRIGHT
350
5E694672E35959C8
  3
PUCSORGTOP
350
5E694672E35959C5
  3
PUCSORTHOREF
350
5E694672E35959C2
  3
PUCSORTHOVIEW
350
5E694672E35959C3
  3
STYLESHEET
350
5E694672E35959B8
  3
TSTACKALIGN
350
5E694672E35959B5
  3
TSTACKSIZE
350
5E694672E35959B6
  3
UCSBASE
350
5E694672E35959CD
  3
UCSORGBACK
350
5E694672E35959D3
  3
UCSORGBOTTOM
350
5E694672E35959CF
  3
UCSORGFRONT
350
5E694672E35959D2
  3
UCSORGLEFT
350
5E694672E35959D0
  3
UCSORGRIGHT
350
5E694672E35959D1
  3
UCSORGTOP
350
5E694672E35959CE
  3
UCSORTHOREF
350
5E694672E35959CB
  3
UCSORTHOVIEW
350
5E694672E35959CC
  3
VERSIONGUID
350
5E694672E35959C0
  0
DICTIONARY
  5
5E694672E3595899
102
{ACAD_REACTORS
330
5E694672E3594F66
102
}
330
5E694672E3594F66
100
AcDbDictionary
  3
DIMASSOC
350
5E694672E35959B2
  3
SORTENTS
350
5E694672E359589A
  0
XRECORD
  5
5E694672E35959D7
102
{ACAD_REACTORS
330
5E694672E35959D6
102
}
330
5E694672E35959D6
100
AcDbXrecord
340
5E694672E3594F72
  0
XRECORD
  5
5E694672E35959D5
102
{ACAD_REACTORS
330
5E694672E35959D4
102
}
330
5E694672E35959D4
100
AcDbXrecord
340
5E694672E3594F6F
  0
GROUP
  5
5E694672E3594F93
102
{ACAD_REACTORS
330
5E694672E3594F67
102
}
330
5E694672E3594F67
100
AcDbGroup
300
BORDER FRAME 10-1-95
 70
     3
 71
     1
  0
GROUP
  5
5E694672E359514C
102
{ACAD_REACTORS
330
5E694672E3594F67
102
}
330
5E694672E3594F67
100
AcDbGroup
300

 70
     1
 71
     1
  0
GROUP
  5
5E694672E35951B8
102
{ACAD_REACTORS
330
5E694672E3594F67
102
}
330
5E694672E3594F67
100
AcDbGroup
300
BORDER FRAME 10-1-95
 70
     3
 71
     1
  0
GROUP
  5
5E694672E35951B9
102
{ACAD_REACTORS
330
5E694672E3594F67
102
}
330
5E694672E3594F67
100
AcDbGroup
300

 70
     3
 71
     1
  0
MLINESTYLE
  5
5E694672E3594F75
102
{ACAD_REACTORS
330
5E694672E3594F68
102
}
330
5E694672E3594F68
100
AcDbMlineStyle
  2
STANDARD
 70
     0
  3

 62
     0
 51
90.0
 52
90.0
 71
     2
 49
0.5
 62
   256
  6
BYLAYER
 49
-0.5
 62
   256
  6
BYLAYER
  0
ACDBPLACEHOLDER
  5
5E694672E35959A9
102
{ACAD_REACTORS
330
5E694672E35959A8
102
}
330
5E694672E35959A8
100
AcDbPlaceHolder
280
     0
  0
XRECORD
  5
5E694672E35959BE
102
{ACAD_REACTORS
330
5E694672E35959B4
102
}
330
5E694672E35959B4
100
AcDbXrecord
 90
        0
  0
XRECORD
  5
5E694672E35959BF
102
{ACAD_REACTORS
330
5E694672E35959B4
102
}
330
5E694672E35959B4
100
AcDbXrecord
  1
{5E44D290-8DBA-11D6-88E6-0090279574E7}
  0
XRECORD
  5
5E694672E35959B7
102
{ACAD_REACTORS
330
5E694672E35959B4
102
}
330
5E694672E35959B4
100
AcDbXrecord
  1

  0
XRECORD
  5
5E694672E35959BD
102
{ACAD_REACTORS
330
5E694672E35959B4
102
}
330
5E694672E35959B4
100
AcDbXrecord
 90
        0
  0
XRECORD
  5
5E694672E35959B9
102
{ACAD_REACTORS
330
5E694672E35959B4
102
}
330
5E694672E35959B4
100
AcDbXrecord
340
5E694672E35959AA
  0
XRECORD
  5
5E694672E35959BC
102
{ACAD_REACTORS
330
5E694672E35959B4
102
}
330
5E694672E35959B4
100
AcDbXrecord
 90
    14877
  0
XRECORD
  5
5E694672E35959BA
102
{ACAD_REACTORS
330
5E694672E35959B4
102
}
330
5E694672E35959B4
100
AcDbXrecord
340
5E694672E35959AB
  0
XRECORD
  5
5E694672E35959BB
102
{ACAD_REACTORS
330
5E694672E35959B4
102
}
330
5E694672E35959B4
100
AcDbXrecord
340
5E694672E35959A8
  0
XRECORD
  5
5E694672E35959C1
102
{ACAD_REACTORS
330
5E694672E35959B4
102
}
330
5E694672E35959B4
100
AcDbXrecord
 40
0.0
  0
XRECORD
  5
5E694672E35959C4
102
{ACAD_REACTORS
330
5E694672E35959B4
102
}
330
5E694672E35959B4
100
AcDbXrecord
340
0
  0
XRECORD
  5
5E694672E35959CA
102
{ACAD_REACTORS
330
5E694672E35959B4
102
}
330
5E694672E35959B4
100
AcDbXrecord
 10
0.0
 20
0.0
 30
0.0
  0
XRECORD
  5
5E694672E35959C6
102
{ACAD_REACTORS
330
5E694672E35959B4
102
}
330
5E694672E35959B4
100
AcDbXrecord
 10
0.0
 20
0.0
 30
0.0
  0
XRECORD
  5
5E694672E35959C9
102
{ACAD_REACTORS
330
5E694672E35959B4
102
}
330
5E694672E35959B4
100
AcDbXrecord
 10
0.0
 20
0.0
 30
0.0
  0
XRECORD
  5
5E694672E35959C7
102
{ACAD_REACTORS
330
5E694672E35959B4
102
}
330
5E694672E35959B4
100
AcDbXrecord
 10
0.0
 20
0.0
 30
0.0
  0
XRECORD
  5
5E694672E35959C8
102
{ACAD_REACTORS
330
5E694672E35959B4
102
}
330
5E694672E35959B4
100
AcDbXrecord
 10
0.0
 20
0.0
 30
0.0
  0
XRECORD
  5
5E694672E35959C5
102
{ACAD_REACTORS
330
5E694672E35959B4
102
}
330
5E694672E35959B4
100
AcDbXrecord
 10
0.0
 20
0.0
 30
0.0
  0
XRECORD
  5
5E694672E35959C2
102
{ACAD_REACTORS
330
5E694672E35959B4
102
}
330
5E694672E35959B4
100
AcDbXrecord
340
0
  0
XRECORD
  5
5E694672E35959C3
102
{ACAD_REACTORS
330
5E694672E35959B4
102
}
330
5E694672E35959B4
100
AcDbXrecord
 70
     0
  0
XRECORD
  5
5E694672E35959B8
102
{ACAD_REACTORS
330
5E694672E35959B4
102
}
330
5E694672E35959B4
100
AcDbXrecord
  1

  0
XRECORD
  5
5E694672E35959B5
102
{ACAD_REACTORS
330
5E694672E35959B4
102
}
330
5E694672E35959B4
100
AcDbXrecord
 90
        1
  0
XRECORD
  5
5E694672E35959B6
102
{ACAD_REACTORS
330
5E694672E35959B4
102
}
330
5E694672E35959B4
100
AcDbXrecord
 90
       70
  0
XRECORD
  5
5E694672E35959CD
102
{ACAD_REACTORS
330
5E694672E35959B4
102
}
330
5E694672E35959B4
100
AcDbXrecord
340
0
  0
XRECORD
  5
5E694672E35959D3
102
{ACAD_REACTORS
330
5E694672E35959B4
102
}
330
5E694672E35959B4
100
AcDbXrecord
 10
0.0
 20
0.0
 30
0.0
  0
XRECORD
  5
5E694672E35959CF
102
{ACAD_REACTORS
330
5E694672E35959B4
102
}
330
5E694672E35959B4
100
AcDbXrecord
 10
0.0
 20
0.0
 30
0.0
  0
XRECORD
  5
5E694672E35959D2
102
{ACAD_REACTORS
330
5E694672E35959B4
102
}
330
5E694672E35959B4
100
AcDbXrecord
 10
0.0
 20
0.0
 30
0.0
  0
XRECORD
  5
5E694672E35959D0
102
{ACAD_REACTORS
330
5E694672E35959B4
102
}
330
5E694672E35959B4
100
AcDbXrecord
 10
0.0
 20
0.0
 30
0.0
  0
XRECORD
  5
5E694672E35959D1
102
{ACAD_REACTORS
330
5E694672E35959B4
102
}
330
5E694672E35959B4
100
AcDbXrecord
 10
0.0
 20
0.0
 30
0.0
  0
XRECORD
  5
5E694672E35959CE
102
{ACAD_REACTORS
330
5E694672E35959B4
102
}
330
5E694672E35959B4
100
AcDbXrecord
 10
0.0
 20
0.0
 30
0.0
  0
XRECORD
  5
5E694672E35959CB
102
{ACAD_REACTORS
330
5E694672E35959B4
102
}
330
5E694672E35959B4
100
AcDbXrecord
340
0
  0
XRECORD
  5
5E694672E35959CC
102
{ACAD_REACTORS
330
5E694672E35959B4
102
}
330
5E694672E35959B4
100
AcDbXrecord
 70
     0
  0
XRECORD
  5
5E694672E35959C0
102
{ACAD_REACTORS
330
5E694672E35959B4
102
}
330
5E694672E35959B4
100
AcDbXrecord
  1
{5E44D292-8DBA-11D6-88E6-0090279574E7}
  0
DICTIONARYVAR
  5
5E694672E35959B2
102
{ACAD_REACTORS
330
5E694672E3595899
102
}
330
5E694672E3595899
100
DictionaryVariables
280
     0
  1
1
  0
DICTIONARYVAR
  5
5E694672E359589A
102
{ACAD_REACTORS
330
5E694672E3595899
102
}
330
5E694672E3595899
100
DictionaryVariables
280
     0
  1
97
  0
ENDSEC
  0
EOF
