  0
SECTION
  2
HEADER
  9
$ACADVER
  1
AC1014
  9
$ACADMAINTVER
 70
     9
  9
$DWGCODEPAGE
  3
ANSI_1252
  9
$INSBASE
 10
1.714999999999999
 20
0.9375
 30
0.0
  9
$EXTMIN
 10
-0.0279815792271434
 20
0.4794813959174185
 30
0.0
  9
$EXTMAX
 10
3.457237742519984
 20
2.905796511790803
 30
0.0
  9
$LIMMIN
 10
0.0
 20
0.0
  9
$LIMMAX
 10
18.0
 20
12.0
  9
$ORTHOMODE
 70
     0
  9
$REGENMODE
 70
     1
  9
$FILLMODE
 70
     1
  9
$QTEXTMODE
 70
     0
  9
$MIRRTEXT
 70
     0
  9
$DRAGMODE
 70
     2
  9
$LTSCALE
 40
1.0
  9
$OSMODE
 70
    39
  9
$ATTMODE
 70
     1
  9
$TEXTSIZE
 40
0.125
  9
$TRACEWID
 40
0.05
  9
$TEXTSTYLE
  7
ROMANS
  9
$CLAYER
  8
0
  9
$CELTYPE
  6
BYLAYER
  9
$CECOLOR
 62
   256
  9
$CELTSCALE
 40
1.0
  9
$DELOBJ
 70
     1
  9
$DISPSILH
 70
     1
  9
$DIMSCALE
 40
1.0
  9
$DIMASZ
 40
0.125
  9
$DIMEXO
 40
0.125
  9
$DIMDLI
 40
0.375
  9
$DIMRND
 40
0.0
  9
$DIMDLE
 40
0.0
  9
$DIMEXE
 40
0.125
  9
$DIMTP
 40
0.0
  9
$DIMTM
 40
0.0
  9
$DIMTXT
 40
0.125
  9
$DIMCEN
 40
-0.125
  9
$DIMTSZ
 40
0.0
  9
$DIMTOL
 70
     0
  9
$DIMLIM
 70
     0
  9
$DIMTIH
 70
     1
  9
$DIMTOH
 70
     1
  9
$DIMSE1
 70
     0
  9
$DIMSE2
 70
     0
  9
$DIMTAD
 70
     0
  9
$DIMZIN
 70
     4
  9
$DIMBLK
  1

  9
$DIMASO
 70
     1
  9
$DIMSHO
 70
     1
  9
$DIMPOST
  1

  9
$DIMAPOST
  1

  9
$DIMALT
 70
     0
  9
$DIMALTD
 70
     2
  9
$DIMALTF
 40
25.4
  9
$DIMLFAC
 40
1.0
  9
$DIMTOFL
 70
     0
  9
$DIMTVP
 40
0.0
  9
$DIMTIX
 70
     1
  9
$DIMSOXD
 70
     0
  9
$DIMSAH
 70
     0
  9
$DIMBLK1
  1

  9
$DIMBLK2
  1

  9
$DIMSTYLE
  2
STANDARD
  9
$DIMCLRD
 70
     0
  9
$DIMCLRE
 70
     0
  9
$DIMCLRT
 70
     0
  9
$DIMTFAC
 40
1.0
  9
$DIMGAP
 40
0.09
  9
$DIMJUST
 70
     0
  9
$DIMSD1
 70
     0
  9
$DIMSD2
 70
     0
  9
$DIMTOLJ
 70
     1
  9
$DIMTZIN
 70
     4
  9
$DIMALTZ
 70
     0
  9
$DIMALTTZ
 70
     0
  9
$DIMFIT
 70
     3
  9
$DIMUPT
 70
     0
  9
$DIMUNIT
 70
     2
  9
$DIMDEC
 70
     3
  9
$DIMTDEC
 70
     3
  9
$DIMALTU
 70
     2
  9
$DIMALTTD
 70
     2
  9
$DIMTXSTY
  7
ROMANS
  9
$DIMAUNIT
 70
     0
  9
$LUNITS
 70
     2
  9
$LUPREC
 70
     3
  9
$SKETCHINC
 40
0.1
  9
$FILLETRAD
 40
0.03125
  9
$AUNITS
 70
     0
  9
$AUPREC
 70
     0
  9
$MENU
  1
ACAD
  9
$ELEVATION
 40
0.0
  9
$PELEVATION
 40
0.0
  9
$THICKNESS
 40
0.0
  9
$LIMCHECK
 70
     0
  9
$BLIPMODE
 70
     0
  9
$CHAMFERA
 40
0.0
  9
$CHAMFERB
 40
0.0
  9
$CHAMFERC
 40
0.0
  9
$CHAMFERD
 40
0.0
  9
$SKPOLY
 70
     0
  9
$TDCREATE
 40
2449966.350671874
  9
$TDUPDATE
 40
2452458.327054398
  9
$TDINDWG
 40
0.0001132870
  9
$TDUSRTIMER
 40
0.0001132870
  9
$USRTIMER
 70
     1
  9
$ANGBASE
 50
0.0
  9
$ANGDIR
 70
     0
  9
$PDMODE
 70
     0
  9
$PDSIZE
 40
0.0
  9
$PLINEWID
 40
0.0
  9
$COORDS
 70
     2
  9
$SPLFRAME
 70
     0
  9
$SPLINETYPE
 70
     6
  9
$SPLINESEGS
 70
     8
  9
$ATTDIA
 70
     0
  9
$ATTREQ
 70
     1
  9
$HANDLING
 70
 22529
  9
$HANDSEED
  5
FA01DB4B745DCE94
  9
$SURFTAB1
 70
     6
  9
$SURFTAB2
 70
     6
  9
$SURFTYPE
 70
     6
  9
$SURFU
 70
     6
  9
$SURFV
 70
     6
  9
$UCSNAME
  2

  9
$UCSORG
 10
0.0
 20
0.0
 30
0.0
  9
$UCSXDIR
 10
1.0
 20
0.0
 30
0.0
  9
$UCSYDIR
 10
0.0
 20
1.0
 30
0.0
  9
$PUCSNAME
  2

  9
$PUCSORG
 10
0.0
 20
0.0
 30
0.0
  9
$PUCSXDIR
 10
1.0
 20
0.0
 30
0.0
  9
$PUCSYDIR
 10
0.0
 20
1.0
 30
0.0
  9
$USERI1
 70
     0
  9
$USERI2
 70
     0
  9
$USERI3
 70
     0
  9
$USERI4
 70
     0
  9
$USERI5
 70
     0
  9
$USERR1
 40
0.0
  9
$USERR2
 40
0.0
  9
$USERR3
 40
0.0
  9
$USERR4
 40
0.0
  9
$USERR5
 40
0.0
  9
$WORLDVIEW
 70
     1
  9
$SHADEDGE
 70
     3
  9
$SHADEDIF
 70
    70
  9
$TILEMODE
 70
     1
  9
$MAXACTVP
 70
    16
  9
$PINSBASE
 10
0.0
 20
0.0
 30
0.0
  9
$PLIMCHECK
 70
     0
  9
$PEXTMIN
 10
1.000000000000000E+20
 20
1.000000000000000E+20
 30
1.000000000000000E+20
  9
$PEXTMAX
 10
-1.000000000000000E+20
 20
-1.000000000000000E+20
 30
-1.000000000000000E+20
  9
$PLIMMIN
 10
0.0
 20
0.0
  9
$PLIMMAX
 10
12.0
 20
9.0
  9
$UNITMODE
 70
     0
  9
$VISRETAIN
 70
     0
  9
$PLINEGEN
 70
     1
  9
$PSLTSCALE
 70
     0
  9
$TREEDEPTH
 70
  3020
  9
$PICKSTYLE
 70
     1
  9
$CMLSTYLE
  2
STANDARD
  9
$CMLJUST
 70
     0
  9
$CMLSCALE
 40
1.0
  9
$PROXYGRAPHICS
 70
     1
  9
$MEASUREMENT
 70
     0
  0
ENDSEC
  0
SECTION
  2
CLASSES
  0
CLASS
  1
LWPOLYLINE
  2
AcDbPolyline
  3
AutoCAD 2000
 90
        0
280
     0
281
     1
  0
CLASS
  1
ACDBDICTIONARYWDFLT
  2
AcDbDictionaryWithDefault
  3
AutoCAD 2000
 90
        0
280
     0
281
     0
  0
CLASS
  1
ACDBPLACEHOLDER
  2
AcDbPlaceHolder
  3
AutoCAD 2000
 90
        0
280
     0
281
     0
  0
CLASS
  1
LAYOUT
  2
AcDbLayout
  3
AutoCAD 2000
 90
        0
280
     0
281
     0
  0
CLASS
  1
DICTIONARYVAR
  2
AcDbDictionaryVar
  3
AutoCAD 2000
 90
        0
280
     0
281
     0
  0
CLASS
  1
LONG_TRANSACTION
  2
AcDbLongTransaction
  3
AutoCAD 2000
 90
        0
280
     0
281
     0
  0
CLASS
  1
LWPOLYLINE
  2
AcDbPolyline
  3
AutoCAD 2000
 90
        0
280
     0
281
     1
  0
CLASS
  1
HATCH
  2
AcDbHatch
  3
AutoCAD 2000
 90
        0
280
     0
281
     1
  0
CLASS
  1
XRECORD
  2
AcDbXrecord
  3
AutoCAD 2000
 90
        0
280
     0
281
     0
  0
ENDSEC
  0
SECTION
  2
TABLES
  0
TABLE
  2
VPORT
  5
FA01DB4B745DCE3C
330
0
100
AcDbSymbolTable
 70
     2
  0
VPORT
  5
FA01DB4B745DCE6F
330
FA01DB4B745DCE3C
100
AcDbSymbolTableRecord
100
AcDbViewportTableRecord
  2
*ACTIVE
 70
     0
 10
0.0
 20
0.0
 11
1.0
 21
1.0
 12
5.287497370525361
 22
1.692901634253679
 13
0.0
 23
0.0
 14
0.015625
 24
0.015625
 15
0.0
 25
0.0
 16
0.0
 26
0.0
 36
1.0
 17
0.0
 27
0.0
 37
0.0
 40
2.739999795935876
 41
4.320930232558139
 42
50.0
 43
0.0
 44
0.0
 50
0.0
 51
0.0
 71
     0
 72
  2000
 73
     1
 74
     0
 75
     1
 76
     0
 77
     0
 78
     0
  0
ENDTAB
  0
TABLE
  2
LTYPE
  5
FA01DB4B745DCE39
330
0
100
AcDbSymbolTable
 70
     1
  0
LTYPE
  5
FA01DB4B745DCE46
330
FA01DB4B745DCE39
100
AcDbSymbolTableRecord
100
AcDbLinetypeTableRecord
  2
BYBLOCK
 70
     0
  3

 72
    65
 73
     0
 40
0.0
  0
LTYPE
  5
FA01DB4B745DCE47
330
FA01DB4B745DCE39
100
AcDbSymbolTableRecord
100
AcDbLinetypeTableRecord
  2
BYLAYER
 70
     0
  3

 72
    65
 73
     0
 40
0.0
  0
LTYPE
  5
FA01DB4B745DCE48
330
FA01DB4B745DCE39
100
AcDbSymbolTableRecord
100
AcDbLinetypeTableRecord
  2
CONTINUOUS
 70
     0
  3
Solid line
 72
    65
 73
     0
 40
0.0
  0
ENDTAB
  0
TABLE
  2
LAYER
  5
FA01DB4B745DCE36
330
0
100
AcDbSymbolTable
 70
     2
  0
LAYER
  5
FA01DB4B745DCE43
330
FA01DB4B745DCE36
100
AcDbSymbolTableRecord
100
AcDbLayerTableRecord
  2
0
 70
     0
 62
     7
  6
CONTINUOUS
  0
LAYER
  5
FA01DB4B745DCE51
330
FA01DB4B745DCE36
100
AcDbSymbolTableRecord
100
AcDbLayerTableRecord
  2
TEXT
 70
     0
 62
     3
  6
CONTINUOUS
  0
ENDTAB
  0
TABLE
  2
STYLE
  5
FA01DB4B745DCE37
330
0
100
AcDbSymbolTable
 70
     3
  0
STYLE
  5
FA01DB4B745DCE44
330
FA01DB4B745DCE37
100
AcDbSymbolTableRecord
100
AcDbTextStyleTableRecord
  2
STANDARD
 70
     0
 40
0.0
 41
1.0
 50
0.0
 71
     0
 42
0.3125
  3
txt
  4

  0
STYLE
  5
FA01DB4B745DCE50
330
FA01DB4B745DCE37
100
AcDbSymbolTableRecord
100
AcDbTextStyleTableRecord
  2
ITALICC
 70
     0
 40
0.0
 41
1.0
 50
0.0
 71
     0
 42
0.125
  3
italicc
  4

  0
STYLE
  5
FA01DB4B745DCE5F
330
FA01DB4B745DCE37
100
AcDbSymbolTableRecord
100
AcDbTextStyleTableRecord
  2
ROMANS
 70
     0
 40
0.0
 41
1.0
 50
0.0
 71
     0
 42
0.125
  3
romans.shx
  4

  0
ENDTAB
  0
TABLE
  2
VIEW
  5
FA01DB4B745DCE3A
330
0
100
AcDbSymbolTable
 70
     0
  0
ENDTAB
  0
TABLE
  2
UCS
  5
FA01DB4B745DCE3B
330
0
100
AcDbSymbolTable
 70
     0
  0
ENDTAB
  0
TABLE
  2
APPID
  5
FA01DB4B745DCE3D
330
0
100
AcDbSymbolTable
 70
     1
  0
APPID
  5
FA01DB4B745DCE45
330
FA01DB4B745DCE3D
100
AcDbSymbolTableRecord
100
AcDbRegAppTableRecord
  2
ACAD
 70
     0
  0
ENDTAB
  0
TABLE
  2
DIMSTYLE
  5
FA01DB4B745DCE3E
330
0
100
AcDbSymbolTable
 70
     1
  0
DIMSTYLE
105
FA01DB4B745DCE57
330
FA01DB4B745DCE3E
100
AcDbSymbolTableRecord
100
AcDbDimStyleTableRecord
  2
STANDARD
 70
     0
  3

  4

  5

  6

  7

 40
1.0
 41
0.125
 42
0.125
 43
0.375
 44
0.125
 45
0.0
 46
0.0
 47
0.0
 48
0.0
140
0.125
141
-0.125
142
0.0
143
25.4
144
1.0
145
0.0
146
1.0
147
0.09
 71
     0
 72
     0
 73
     1
 74
     1
 75
     0
 76
     0
 77
     0
 78
     4
170
     0
171
     2
172
     0
173
     0
174
     1
175
     0
176
     0
177
     0
178
     0
270
     2
271
     3
272
     3
273
     2
274
     2
340
FA01DB4B745DCE5F
275
     0
280
     0
281
     0
282
     0
283
     1
284
     4
285
     0
286
     0
287
     3
288
     0
  0
ENDTAB
  0
TABLE
  2
BLOCK_RECORD
  5
FA01DB4B745DCE35
330
0
100
AcDbSymbolTable
 70
     0
  0
BLOCK_RECORD
  5
FA01DB4B745DCE4C
102
{ACAD_XDICTIONARY
360
FA01DB4B745DCE92
102
}
330
FA01DB4B745DCE35
100
AcDbSymbolTableRecord
100
AcDbBlockTableRecord
  2
*MODEL_SPACE
  0
BLOCK_RECORD
  5
FA01DB4B745DCE49
102
{ACAD_XDICTIONARY
360
FA01DB4B745DCE90
102
}
330
FA01DB4B745DCE35
100
AcDbSymbolTableRecord
100
AcDbBlockTableRecord
  2
*PAPER_SPACE
  0
ENDTAB
  0
ENDSEC
  0
SECTION
  2
BLOCKS
  0
BLOCK
  5
FA01DB4B745DCE54
330
FA01DB4B745DCE4C
100
AcDbEntity
  8
0
100
AcDbBlockBegin
  2
*MODEL_SPACE
 70
     0
 10
0.0
 20
0.0
 30
0.0
  3
*MODEL_SPACE
  1

  0
ENDBLK
  5
FA01DB4B745DCE55
330
FA01DB4B745DCE4C
100
AcDbEntity
  8
0
100
AcDbBlockEnd
  0
BLOCK
  5
FA01DB4B745DCE52
330
FA01DB4B745DCE49
100
AcDbEntity
 67
     1
  8
0
100
AcDbBlockBegin
  2
*PAPER_SPACE
 70
     0
 10
0.0
 20
0.0
 30
0.0
  3
*PAPER_SPACE
  1

  0
ENDBLK
  5
FA01DB4B745DCE53
330
FA01DB4B745DCE49
100
AcDbEntity
 67
     1
  8
0
100
AcDbBlockEnd
  0
ENDSEC
  0
SECTION
  2
ENTITIES
  0
TEXT
  5
1F786CD0F673540
330
FA01DB4B745DCE4C
100
AcDbEntity
  8
TEXT
100
AcDbText
 10
2.12830515825032
 20
0.4905773573276249
 30
0.0
 40
0.0522247191011236
  1
Phone  1-800-328-2495
 41
1.272321428571429
 72
     5
 11
3.457237742519984
 21
0.4905773573276249
 31
0.0
100
AcDbText
  0
TEXT
  5
1F786CD0F673541
330
FA01DB4B745DCE4C
100
AcDbEntity
  8
TEXT
100
AcDbText
 10
2.12830515825032
 20
0.7703526382265014
 30
0.0
 40
0.0522247191011236
  1
Stylmark  Incorporated
 41
1.221428571428573
 72
     5
 11
3.457237742519984
 21
0.7703526382265014
 31
0.0
100
AcDbText
  0
TEXT
  5
1F786CD0F673542
330
FA01DB4B745DCE4C
100
AcDbEntity
  8
TEXT
100
AcDbText
 10
2.12830515825032
 20
0.6770942112602092
 30
0.0
 40
0.0522247191011236
  1
6536 Main St. N.E. * P.O. Box 32008
 41
0.8388932496075366
 72
     5
 11
3.457237742519984
 21
0.6770942112602092
 31
0.0
100
AcDbText
  0
TEXT
  5
1F786CD0F673543
330
FA01DB4B745DCE4C
100
AcDbEntity
  8
TEXT
100
AcDbText
 10
2.12830515825032
 20
0.5838357842939171
 30
0.0
 40
0.0522247191011236
  1
Minneapolis, MN 55432-0008
 41
1.11444212721585
 72
     5
 11
3.457237742519984
 21
0.5838357842939171
 31
0.0
100
AcDbText
  0
LWPOLYLINE
  5
FA01DB4B745DCB68
330
FA01DB4B745DCE4C
100
AcDbEntity
  8
0
100
AcDbPolyline
 90
      120
 70
     1
 43
0.0
 10
1.141956659750047
 20
2.249241232532624
 10
1.141956659750047
 20
2.725893445516723
 42
0.1989123673796552
 10
1.137563261467845
 20
2.736500047234521
 10
1.092563261467846
 20
2.781500047234521
 42
0.6681786379192988
 10
1.066956659750047
 20
2.770893445516723
 10
1.066956659750047
 20
2.604154376167072
 42
-0.4142135623730951
 10
1.051956659750048
 20
2.589154376167072
 10
1.031956659750048
 20
2.589154376167072
 42
-0.4142135623730951
 10
1.016956659750047
 20
2.604154376167072
 10
1.016956659750047
 20
2.881654376167072
 42
-0.4142135623730951
 10
1.036956659750048
 20
2.901654376167072
 10
1.314456659750048
 20
2.901654376167072
 42
-0.4142135623730972
 10
1.329456659750047
 20
2.886654376167072
 10
1.329456659750047
 20
2.866654376167072
 42
-0.4142135623730971
 10
1.314456659750048
 20
2.851654376167072
 10
1.147717590400396
 20
2.851654376167072
 42
0.668178637919295
 10
1.137110988682598
 20
2.826047774449274
 10
1.182110988682598
 20
2.781047774449274
 42
0.1989123673796582
 10
1.192717590400396
 20
2.776654376167073
 10
1.669369803384495
 20
2.776654376167072
 42
-0.339454258863374
 10
1.683858690778831
 20
2.76553666184361
 10
1.696445547144383
 20
2.718561874379799
 42
-0.0655434628152402
 10
1.696956659750047
 20
2.714679588703262
 10
1.696956659750047
 20
2.479654376167072
 42
0.4142135623730993
 10
1.711956659750047
 20
2.464654376167072
 10
1.821956659750047
 20
2.464654376167072
 42
0.4142135623730951
 10
1.836956659750046
 20
2.479654376167072
 10
1.836956659750047
 20
2.714679588703263
 42
-0.0655434628152383
 10
1.837467772355711
 20
2.7185618743798
 10
1.850054628721263
 20
2.765536661843611
 42
-0.3394542588633699
 10
1.864543516115599
 20
2.776654376167073
 10
2.341195729099698
 20
2.776654376167073
 42
0.1989123673796559
 10
2.351802330817496
 20
2.781047774449274
 10
2.396802330817496
 20
2.826047774449274
 42
0.6681786379193048
 10
2.386195729099699
 20
2.851654376167072
 10
2.219456659750048
 20
2.851654376167072
 42
-0.4142135623730951
 10
2.204456659750048
 20
2.866654376167072
 10
2.204456659750048
 20
2.886654376167072
 42
-0.4142135623730951
 10
2.219456659750048
 20
2.901654376167072
 10
2.496956659750047
 20
2.901654376167072
 42
-0.4142135623730951
 10
2.516956659750048
 20
2.881654376167072
 10
2.516956659750047
 20
2.604154376167072
 42
-0.4142135623730951
 10
2.501956659750047
 20
2.589154376167072
 10
2.481956659750048
 20
2.589154376167072
 42
-0.4142135623730951
 10
2.466956659750047
 20
2.604154376167072
 10
2.466956659750047
 20
2.770893445516724
 42
0.668178637919295
 10
2.441350058032249
 20
2.781500047234522
 10
2.396350058032248
 20
2.736500047234522
 42
0.1989123673796584
 10
2.391956659750046
 20
2.725893445516724
 10
2.391956659750047
 20
2.249241232532623
 42
-0.3394542588633769
 10
2.380838945426585
 20
2.234752345138288
 10
2.333864157962774
 20
2.222165488772736
 42
-0.0655434628152388
 10
2.329981872286236
 20
2.221654376167072
 10
2.094956659750046
 20
2.221654376167072
 42
0.4142135623730994
 10
2.079956659750046
 20
2.206654376167072
 10
2.079956659750047
 20
2.096654376167072
 42
0.414213562373095
 10
2.094956659750046
 20
2.081654376167072
 10
2.329981872286235
 20
2.081654376167072
 42
-0.0655434628152389
 10
2.333864157962774
 20
2.081143263561409
 10
2.380838945426585
 20
2.068556407195856
 42
-0.3394542588633769
 10
2.391956659750047
 20
2.05406751980152
 10
2.391956659750047
 20
1.577415306817421
 42
0.1989123673796584
 10
2.396350058032249
 20
1.566808705099623
 10
2.441350058032248
 20
1.521808705099623
 42
0.6681786379192973
 10
2.466956659750047
 20
1.532415306817421
 10
2.466956659750047
 20
1.699154376167072
 42
-0.414213562373095
 10
2.481956659750047
 20
1.714154376167072
 10
2.501956659750047
 20
1.714154376167072
 42
-0.4142135623730951
 10
2.516956659750047
 20
1.699154376167072
 10
2.516956659750047
 20
1.421654376167072
 42
-0.4142135623730951
 10
2.496956659750046
 20
1.401654376167072
 10
2.219456659750047
 20
1.401654376167072
 42
-0.414213562373095
 10
2.204456659750047
 20
1.416654376167072
 10
2.204456659750047
 20
1.436654376167072
 42
-0.414213562373095
 10
2.219456659750047
 20
1.451654376167072
 10
2.386195729099698
 20
1.451654376167072
 42
0.668178637919295
 10
2.396802330817496
 20
1.47726097788487
 10
2.351802330817496
 20
1.522260977884871
 42
0.1989123673796592
 10
2.341195729099698
 20
1.526654376167072
 10
1.864543516115599
 20
1.526654376167072
 42
-0.339454258863377
 10
1.850054628721263
 20
1.537772090490534
 10
1.83746777235571
 20
1.584746877954345
 42
-0.0655434628152393
 10
1.836956659750046
 20
1.588629163630883
 10
1.836956659750046
 20
1.823654376167072
 42
0.4142135623730994
 10
1.821956659750047
 20
1.838654376167072
 10
1.711956659750047
 20
1.838654376167072
 42
0.4142135623730907
 10
1.696956659750047
 20
1.823654376167072
 10
1.696956659750047
 20
1.588629163630881
 42
-0.0655434628152393
 10
1.696445547144383
 20
1.584746877954343
 10
1.683858690778831
 20
1.537772090490534
 42
-0.3394542588633719
 10
1.669369803384495
 20
1.526654376167072
 10
1.192717590400396
 20
1.526654376167072
 42
0.1989123673796571
 10
1.182110988682597
 20
1.522260977884871
 10
1.137110988682597
 20
1.47726097788487
 42
0.6681786379192988
 10
1.147717590400396
 20
1.451654376167072
 10
1.314456659750047
 20
1.451654376167072
 42
-0.4142135623730971
 10
1.329456659750047
 20
1.436654376167072
 10
1.329456659750047
 20
1.416654376167072
 42
-0.4142135623730971
 10
1.314456659750047
 20
1.401654376167072
 10
1.036956659750047
 20
1.401654376167072
 42
-0.414213562373095
 10
1.016956659750047
 20
1.421654376167072
 10
1.016956659750047
 20
1.699154376167072
 42
-0.4142135623730951
 10
1.031956659750047
 20
1.714154376167072
 10
1.051956659750047
 20
1.714154376167072
 42
-0.4142135623730951
 10
1.066956659750047
 20
1.699154376167072
 10
1.066956659750047
 20
1.532415306817421
 42
0.668178637919298
 10
1.092563261467845
 20
1.521808705099623
 10
1.137563261467845
 20
1.566808705099623
 42
0.1989123673796571
 10
1.141956659750047
 20
1.577415306817421
 10
1.141956659750047
 20
2.05406751980152
 42
-0.3394542588633769
 10
1.153074374073509
 20
2.068556407195856
 10
1.20004916153732
 20
2.081143263561408
 42
-0.0655434628152387
 10
1.203931447213857
 20
2.081654376167072
 10
1.438956659750046
 20
2.081654376167072
 42
0.4142135623730974
 10
1.453956659750046
 20
2.096654376167072
 10
1.453956659750046
 20
2.206654376167072
 42
0.4142135623730951
 10
1.438956659750046
 20
2.221654376167072
 10
1.203931447213856
 20
2.221654376167072
 42
-0.0655434628152393
 10
1.200049161537318
 20
2.222165488772736
 10
1.153074374073509
 20
2.234752345138288
 42
-0.3394542588633759
  0
LWPOLYLINE
  5
FA01DB4B745DCC87
330
FA01DB4B745DCE4C
100
AcDbEntity
  8
0
100
AcDbPolyline
 90
       80
 70
     1
 43
0.0
 10
1.38722124497063
 20
2.437330119872513
 10
1.354351587826662
 20
2.443125927273631
 42
0.3631588356135679
 10
1.337666240677256
 20
2.433524498952911
 42
-2.735272382175388
 10
1.306782732982492
 20
2.518376238977828
 42
0.3631588356135624
 10
1.325736129607658
 20
2.521746252577692
 10
1.347190274624452
 20
2.547314306977494
 42
0.4520591054978646
 10
1.343802525125247
 20
2.569579224295129
 42
0.2130707033431413
 10
1.2366022293703
 20
2.585869290480983
 42
-0.495403198411262
 10
1.204956659750047
 20
2.60996983828435
 10
1.204956659750047
 20
2.682654376167072
 42
-0.414213562373096
 10
1.235956659750047
 20
2.713654376167072
 10
1.618956659750047
 20
2.713654376167072
 42
-0.4142135623730951
 10
1.633956659750047
 20
2.698654376167072
 10
1.633956659750047
 20
2.464654376167072
 42
0.414213562373096
 10
1.696956659750047
 20
2.401654376167072
 10
1.836956659750047
 20
2.401654376167072
 42
0.4142135623730951
 10
1.899956659750047
 20
2.464654376167072
 10
1.899956659750047
 20
2.591337109423315
 42
-0.8354331298452375
 10
1.948374381269034
 20
2.600089841503024
 42
0.2318007921068703
 10
2.033398883864999
 20
2.519673344642564
 42
0.4520591054978624
 10
2.052632403455488
 20
2.531389790946489
 10
2.058428210856606
 20
2.564259448090457
 42
0.363158835613571
 10
2.048826782535886
 20
2.580944795239862
 42
-2.735272382175387
 10
2.133678522560803
 20
2.611828302934626
 42
0.3631588356135653
 10
2.137048536160667
 20
2.592874906309461
 10
2.162616590560468
 20
2.571420761292666
 42
0.4520591054978654
 10
2.184881507878103
 20
2.574808510791872
 42
0.2130707033431412
 10
2.201171574063959
 20
2.682008806546819
 42
-0.4954031984112616
 10
2.225272121867326
 20
2.713654376167072
 10
2.297956659750047
 20
2.713654376167072
 42
-0.4142135623730971
 10
2.328956659750047
 20
2.682654376167072
 10
2.328956659750047
 20
2.299654376167072
 42
-0.4142135623730951
 10
2.313956659750047
 20
2.284654376167073
 10
2.079956659750047
 20
2.284654376167072
 42
0.4142135623730941
 10
2.016956659750046
 20
2.221654376167072
 10
2.016956659750047
 20
2.081654376167072
 42
0.414213562373096
 10
2.079956659750047
 20
2.018654376167072
 10
2.20663939300629
 20
2.018654376167072
 42
-0.8354331298452347
 10
2.215392125085998
 20
1.970236654648085
 42
0.2318007921068697
 10
2.134975628225538
 20
1.88521215205212
 42
0.4520591054978623
 10
2.146692074529464
 20
1.865978632461631
 10
2.179561731673431
 20
1.860182825060513
 42
0.3631588356135679
 10
2.196247078822837
 20
1.869784253381233
 42
-2.735272382175387
 10
2.227130586517601
 20
1.784932513356316
 42
0.3631588356135639
 10
2.208177189892435
 20
1.781562499756452
 10
2.186723044875641
 20
1.755994445356651
 42
0.4520591054978659
 10
2.190110794374847
 20
1.733729528039015
 42
0.2130707033431415
 10
2.297311090129793
 20
1.717439461853161
 42
-0.4954031984112611
 10
2.328956659750047
 20
1.693338914049794
 10
2.328956659750047
 20
1.620654376167072
 42
-0.414213562373096
 10
2.297956659750047
 20
1.589654376167072
 10
1.914956659750047
 20
1.589654376167072
 42
-0.4142135623730974
 10
1.899956659750047
 20
1.604654376167072
 10
1.899956659750047
 20
1.838654376167072
 42
0.4142135623730951
 10
1.836956659750047
 20
1.901654376167072
 10
1.696956659750047
 20
1.901654376167072
 42
0.414213562373096
 10
1.633956659750047
 20
1.838654376167072
 10
1.633956659750047
 20
1.71197164291083
 42
-0.8354331298452322
 10
1.58553893823106
 20
1.703218910831121
 42
0.2318007921068702
 10
1.500514435635095
 20
1.783635407691581
 42
0.4520591054978575
 10
1.481280916044606
 20
1.771918961387655
 10
1.475485108643487
 20
1.739049304243688
 42
0.3631588356135676
 10
1.485086536964208
 20
1.722363957094282
 42
-2.735272382175388
 10
1.40023479693929
 20
1.691480449399517
 42
0.3631588356135651
 10
1.396864783339426
 20
1.710433846024684
 10
1.371296728939626
 20
1.731887991041478
 42
0.4520591054978659
 10
1.34903181162199
 20
1.728500241542272
 42
0.2130707033431412
 10
1.332741745436135
 20
1.621299945787325
 42
-0.495403198411262
 10
1.308641197632768
 20
1.589654376167072
 10
1.235956659750047
 20
1.589654376167072
 42
-0.4142135623730951
 10
1.204956659750047
 20
1.620654376167072
 10
1.204956659750046
 20
2.003654376167072
 42
-0.4142135623730972
 10
1.219956659750046
 20
2.018654376167072
 10
1.453956659750046
 20
2.018654376167072
 42
0.4142135623730951
 10
1.516956659750047
 20
2.081654376167072
 10
1.516956659750047
 20
2.221654376167072
 42
0.4142135623730956
 10
1.453956659750046
 20
2.284654376167072
 10
1.327273926493804
 20
2.284654376167072
 42
-0.8354331298452308
 10
1.318521194414095
 20
2.333072097686059
 42
0.2318007921068699
 10
1.398937691274555
 20
2.418096600282024
 42
0.4520591054978624
  0
LINE
  5
1F786CD0F6735FE
330
FA01DB4B745DCE4C
100
AcDbEntity
  8
TEXT
100
AcDbLine
 10
0.5036646010417894
 20
0.5932480897439248
 30
0.0
 11
0.5794424413066182
 21
0.5932480897439248
 31
0.0
  0
LINE
  5
1F786CD0F6735FB
330
FA01DB4B745DCE4C
100
AcDbEntity
  8
TEXT
100
AcDbLine
 10
0.5745020674003385
 20
0.6573415923695385
 30
0.0
 11
0.5089019311560375
 21
0.6573415923695385
 31
0.0
  0
LINE
  5
1F786CD0F6735FD
330
FA01DB4B745DCE4C
100
AcDbEntity
  8
TEXT
100
AcDbLine
 10
0.5794424413066182
 20
0.5593069819818602
 30
0.0
 11
0.4215771415952841
 21
0.5593069819818602
 31
0.0
  0
LINE
  5
1F786CD0F6735FC
330
FA01DB4B745DCE4C
100
AcDbEntity
  8
TEXT
100
AcDbLine
 10
0.4215771415952858
 20
0.4909499756484208
 30
0.0
 11
0.5745020674003385
 21
0.4909499756484208
 31
0.0
  0
LINE
  5
1F786CD0F67360C
330
FA01DB4B745DCE4C
100
AcDbEntity
  8
TEXT
100
AcDbLine
 10
0.6793963539403017
 20
0.7574230086369318
 30
0.0
 11
0.5036646010417894
 21
0.7574230086369318
 31
0.0
  0
LINE
  5
1F786CD0F6735FA
330
FA01DB4B745DCE4C
100
AcDbEntity
  8
TEXT
100
AcDbLine
 10
0.5089019311560375
 20
0.6931463139801664
 30
0.0
 11
0.6758075851850088
 21
0.6931463139801664
 31
0.0
  0
LWPOLYLINE
  5
1F786CD0F6735A8
330
FA01DB4B745DCE4C
100
AcDbEntity
  8
TEXT
100
AcDbPolyline
 90
        2
 70
     0
 43
0.0001332181640625
 10
0.2387877943080126
 20
0.6042221199650597
 10
0.1655178040736365
 20
0.614213482269745
  0
LWPOLYLINE
  5
1F786CD0F6735AC
330
FA01DB4B745DCE4C
100
AcDbEntity
  8
TEXT
100
AcDbPolyline
 90
        2
 70
     0
 43
0.0001332181640625
 10
0.2121441614955115
 20
0.6042221199650597
 10
0.1521959876673877
 20
0.614213482269745
  0
LWPOLYLINE
  5
1F786CD0F6735B0
330
FA01DB4B745DCE4C
100
AcDbEntity
  8
TEXT
100
AcDbPolyline
 90
        2
 70
     0
 43
0.0001332181640625
 10
0.2121441614955115
 20
0.5176303133244331
 10
0.1521959876673877
 20
0.5775784871525587
  0
LWPOLYLINE
  5
1F786CD0F6735B4
330
FA01DB4B745DCE4C
100
AcDbEntity
  8
TEXT
100
AcDbPolyline
 90
        3
 70
     0
 43
0.0006660908203125
 10
0.1255523548548867
 20
0.5176303133244331
 10
0.2121441614955115
 20
0.5176303133244331
 10
0.2121441614955115
 20
0.6042221199650597
  0
LWPOLYLINE
  5
1F786CD0F67358F
330
FA01DB4B745DCE4C
100
AcDbEntity
  8
TEXT
100
AcDbPolyline
 90
        3
 70
     0
 43
0.0006660908203125
 10
0.2121441614955115
 20
0.6441875691838077
 10
0.2121441614955115
 20
0.7307793758244343
 10
0.1255523548548867
 20
0.7307793758244343
  0
LWPOLYLINE
  5
1F786CD0F673594
330
FA01DB4B745DCE4C
100
AcDbEntity
  8
TEXT
100
AcDbPolyline
 90
        2
 70
     0
 43
0.0001332181640625
 10
0.2121441614955115
 20
0.7307793758244343
 10
0.1521959876673877
 20
0.6708312019963088
  0
LWPOLYLINE
  5
1F786CD0F6735A0
330
FA01DB4B745DCE4C
100
AcDbEntity
  8
TEXT
100
AcDbPolyline
 90
        2
 70
     0
 43
0.0001332181640625
 10
0.1655178040736365
 20
0.634196206879119
 10
0.2387877943080126
 20
0.6441875691838077
  0
LWPOLYLINE
  5
1F786CD0F6735A4
330
FA01DB4B745DCE4C
100
AcDbEntity
  8
TEXT
100
AcDbPolyline
 90
        2
 70
     0
 43
0.0001332181640625
 10
0.2121441614955115
 20
0.6441875691838077
 10
0.1521959876673877
 20
0.634196206879119
  0
LWPOLYLINE
  5
1F786CD0F6735B9
330
FA01DB4B745DCE4C
100
AcDbEntity
  8
TEXT
100
AcDbPolyline
 90
        3
 70
     0
 43
0.0006660908203125
 10
0.1255523548548867
 20
0.4909866805119321
 10
0.2387877943080126
 20
0.4909866805119321
 10
0.2387877943080126
 20
0.6042221199650597
  0
LWPOLYLINE
  5
1F786CD0F67358A
330
FA01DB4B745DCE4C
100
AcDbEntity
  8
TEXT
100
AcDbPolyline
 90
        3
 70
     0
 43
0.0006660908203125
 10
0.2387877943080126
 20
0.6441875691838077
 10
0.2387877943080126
 20
0.7574230086369354
 10
0.1255523548548867
 20
0.7574230086369354
  0
LWPOLYLINE
  5
1F786CD0F6735EB
330
FA01DB4B745DCE4C
100
AcDbEntity
  8
TEXT
100
AcDbPolyline
 90
        5
 70
     0
 43
0.0001332181640625
 10
0.1655178040736365
 20
0.614213482269745
 10
0.1521959876673877
 20
0.614213482269745
 10
0.1521959876673877
 20
0.5775784871525587
 10
0.1155609925501979
 20
0.5775784871525587
 10
0.1155609925501979
 20
0.5642566707463082
  0
LWPOLYLINE
  5
1F786CD0F67354E
330
FA01DB4B745DCE4C
100
AcDbEntity
  8
TEXT
100
AcDbPolyline
 90
        2
 70
     0
 43
0.0001332181640625
 10
0.0456214564173871
 20
0.614213482269745
 10
-0.0276485338169872
 20
0.6042221199650597
  0
LWPOLYLINE
  5
1F786CD0F673552
330
FA01DB4B745DCE4C
100
AcDbEntity
  8
TEXT
100
AcDbPolyline
 90
        2
 70
     0
 43
0.0001332181640625
 10
-0.0010049010044897
 20
0.6042221199650597
 10
0.0589432728236377
 20
0.614213482269745
  0
LWPOLYLINE
  5
1F786CD0F6735BE
330
FA01DB4B745DCE4C
100
AcDbEntity
  8
TEXT
100
AcDbPolyline
 90
        5
 70
     0
 43
0.0001332181640625
 10
0.0955782679408257
 20
0.5642566707463082
 10
0.0955782679408257
 20
0.5775784871525587
 10
0.0589432728236377
 20
0.5775784871525587
 10
0.0589432728236377
 20
0.614213482269745
 10
0.0456214564173871
 20
0.614213482269745
  0
LWPOLYLINE
  5
1F786CD0F673549
330
FA01DB4B745DCE4C
100
AcDbEntity
  8
TEXT
100
AcDbPolyline
 90
        3
 70
     0
 43
0.0006660908203125
 10
-0.0010049010044897
 20
0.6042221199650597
 10
-0.0010049010044897
 20
0.5176303133244331
 10
0.0855869056361352
 20
0.5176303133244331
  0
LWPOLYLINE
  5
1F786CD0F673556
330
FA01DB4B745DCE4C
100
AcDbEntity
  8
TEXT
100
AcDbPolyline
 90
        2
 70
     0
 43
0.0001332181640625
 10
-0.0010049010044897
 20
0.5176303133244331
 10
0.0589432728236377
 20
0.5775784871525587
  0
LWPOLYLINE
  5
1F786CD0F673544
330
FA01DB4B745DCE4C
100
AcDbEntity
  8
TEXT
100
AcDbPolyline
 90
        3
 70
     0
 43
0.0006660908203125
 10
-0.0276485338169872
 20
0.6042221199650597
 10
-0.0276485338169872
 20
0.4909866805119321
 10
0.0855869056361352
 20
0.4909866805119321
  0
LWPOLYLINE
  5
1F786CD0F673570
330
FA01DB4B745DCE4C
100
AcDbEntity
  8
TEXT
100
AcDbPolyline
 90
        2
 70
     0
 43
0.0006660908203125
 10
-0.0010049010044897
 20
0.6042221199650597
 10
-0.0276485338169872
 20
0.6042221199650597
  0
LWPOLYLINE
  5
1F786CD0F6735C9
330
FA01DB4B745DCE4C
100
AcDbEntity
  8
TEXT
100
AcDbPolyline
 90
        2
 70
     0
 43
0.0001332181640625
 10
0.0855869056361352
 20
0.5176303133244331
 10
0.0955782679408257
 20
0.5775784871525587
  0
LWPOLYLINE
  5
1F786CD0F6735DF
330
FA01DB4B745DCE4C
100
AcDbEntity
  8
TEXT
100
AcDbPolyline
 90
        2
 70
     0
 43
0.0001332181640625
 10
0.1255523548548867
 20
0.5176303133244331
 10
0.1155609925501979
 20
0.5775784871525587
  0
LWPOLYLINE
  5
1F786CD0F6735C5
330
FA01DB4B745DCE4C
100
AcDbEntity
  8
TEXT
100
AcDbPolyline
 90
        2
 70
     0
 43
0.0006660908203125
 10
0.0855869056361352
 20
0.5176303133244331
 10
0.0855869056361352
 20
0.4909866805119321
  0
LWPOLYLINE
  5
1F786CD0F6735CD
330
FA01DB4B745DCE4C
100
AcDbEntity
  8
TEXT
100
AcDbPolyline
 90
        2
 70
     0
 43
0.0001332181640625
 10
0.0855869056361352
 20
0.4909866805119321
 10
0.0955782679408257
 20
0.5642566707463082
  0
LWPOLYLINE
  5
1F786CD0F6735E3
330
FA01DB4B745DCE4C
100
AcDbEntity
  8
TEXT
100
AcDbPolyline
 90
        2
 70
     0
 43
0.0001332181640625
 10
0.1155609925501979
 20
0.5642566707463082
 10
0.1255523548548867
 20
0.4909866805119321
  0
LWPOLYLINE
  5
1F786CD0F6735E7
330
FA01DB4B745DCE4C
100
AcDbEntity
  8
TEXT
100
AcDbPolyline
 90
        2
 70
     0
 43
0.0006660908203125
 10
0.1255523548548867
 20
0.5176303133244331
 10
0.1255523548548867
 20
0.4909866805119321
  0
LWPOLYLINE
  5
1F786CD0F67356C
330
FA01DB4B745DCE4C
100
AcDbEntity
  8
TEXT
100
AcDbPolyline
 90
        2
 70
     0
 43
0.0001332181640625
 10
-0.0276485338169872
 20
0.6441875691838077
 10
0.0456214564173871
 20
0.634196206879119
  0
LWPOLYLINE
  5
1F786CD0F67355F
330
FA01DB4B745DCE4C
100
AcDbEntity
  8
TEXT
100
AcDbPolyline
 90
        3
 70
     0
 43
0.0006660908203125
 10
0.0855869056361352
 20
0.7307793758244343
 10
-0.0010049010044897
 20
0.7307793758244343
 10
-0.0010049010044897
 20
0.6441875691838077
  0
LWPOLYLINE
  5
1F786CD0F673568
330
FA01DB4B745DCE4C
100
AcDbEntity
  8
TEXT
100
AcDbPolyline
 90
        2
 70
     0
 43
0.0001332181640625
 10
-0.0010049010044897
 20
0.6441875691838077
 10
0.0589432728236359
 20
0.634196206879119
  0
LWPOLYLINE
  5
1F786CD0F673564
330
FA01DB4B745DCE4C
100
AcDbEntity
  8
TEXT
100
AcDbPolyline
 90
        2
 70
     0
 43
0.0001332181640625
 10
-0.0010049010044897
 20
0.7307793758244343
 10
0.0589432728236359
 20
0.6708312019963088
  0
LWPOLYLINE
  5
1F786CD0F67355A
330
FA01DB4B745DCE4C
100
AcDbEntity
  8
TEXT
100
AcDbPolyline
 90
        3
 70
     0
 43
0.0006660908203125
 10
0.0855869056361352
 20
0.7574230086369354
 10
-0.0276485338169872
 20
0.7574230086369354
 10
-0.0276485338169872
 20
0.6441875691838077
  0
LWPOLYLINE
  5
1F786CD0F673574
330
FA01DB4B745DCE4C
100
AcDbEntity
  8
TEXT
100
AcDbPolyline
 90
        2
 70
     0
 43
0.0006660908203125
 10
-0.0010049010044897
 20
0.6441875691838077
 10
-0.0276485338169872
 20
0.6441875691838077
  0
LWPOLYLINE
  5
1F786CD0F6735D8
330
FA01DB4B745DCE4C
100
AcDbEntity
  8
TEXT
100
AcDbPolyline
 90
        5
 70
     0
 43
0.0001332181640625
 10
0.1155609925501979
 20
0.6841530184025558
 10
0.1155609925501979
 20
0.6708312019963088
 10
0.1521959876673877
 20
0.6708312019963088
 10
0.1521959876673877
 20
0.634196206879119
 10
0.1655178040736365
 20
0.634196206879119
  0
LWPOLYLINE
  5
1F786CD0F673586
330
FA01DB4B745DCE4C
100
AcDbEntity
  8
TEXT
100
AcDbPolyline
 90
        2
 70
     0
 43
0.0001332181640625
 10
0.0855869056361352
 20
0.7307793758244343
 10
0.0955782679408257
 20
0.6708312019963088
  0
LWPOLYLINE
  5
1F786CD0F673598
330
FA01DB4B745DCE4C
100
AcDbEntity
  8
TEXT
100
AcDbPolyline
 90
        2
 70
     0
 43
0.0001332181640625
 10
0.1255523548548867
 20
0.7307793758244343
 10
0.1155609925501979
 20
0.6708312019963088
  0
LWPOLYLINE
  5
1F786CD0F673582
330
FA01DB4B745DCE4C
100
AcDbEntity
  8
TEXT
100
AcDbPolyline
 90
        2
 70
     0
 43
0.0001332181640625
 10
0.0955782679408257
 20
0.6841530184025558
 10
0.0855869056361352
 20
0.7574230086369354
  0
LWPOLYLINE
  5
1F786CD0F673604
330
FA01DB4B745DCE4C
100
AcDbEntity
  8
TEXT
100
AcDbPolyline
 90
        2
 70
     0
 43
0.0006660908203125
 10
0.0855869056361352
 20
0.7307793758244343
 10
0.0855869056361352
 20
0.7574230086369354
  0
LWPOLYLINE
  5
1F786CD0F67359C
330
FA01DB4B745DCE4C
100
AcDbEntity
  8
TEXT
100
AcDbPolyline
 90
        2
 70
     0
 43
0.0001332181640625
 10
0.1255523548548867
 20
0.7574230086369354
 10
0.1155609925501979
 20
0.6841530184025558
  0
LWPOLYLINE
  5
1F786CD0F673608
330
FA01DB4B745DCE4C
100
AcDbEntity
  8
TEXT
100
AcDbPolyline
 90
        2
 70
     0
 43
0.0006660908203125
 10
0.1255523548548867
 20
0.7307793758244343
 10
0.1255523548548867
 20
0.7574230086369354
  0
LWPOLYLINE
  5
1F786CD0F6735D1
330
FA01DB4B745DCE4C
100
AcDbEntity
  8
TEXT
100
AcDbPolyline
 90
        5
 70
     0
 43
0.0001332181640625
 10
0.0456214564173871
 20
0.634196206879119
 10
0.0589432728236359
 20
0.634196206879119
 10
0.0589432728236359
 20
0.6708312019963088
 10
0.0955782679408257
 20
0.6708312019963088
 10
0.0955782679408257
 20
0.6841530184025558
  0
ARC
  5
1F786CD0F673581
330
FA01DB4B745DCE4C
100
AcDbEntity
  8
TEXT
100
AcDbCircle
 10
0.5036646010417903
 20
0.6753355491904301
 30
0.0
 40
0.0820874594465043
100
AcDbArc
 50
90.0
 51
270.0
  0
LWPOLYLINE
  5
1F786CD0F6735F6
330
FA01DB4B745DCE4C
100
AcDbEntity
  8
TEXT
100
AcDbPolyline
 90
        2
 70
     0
 43
0.0006660908203125
 10
0.2121441614955115
 20
0.6042221199650597
 10
0.2387877943080126
 20
0.6042221199650597
  0
LINE
  5
1F786CD0F673600
330
FA01DB4B745DCE4C
100
AcDbEntity
  8
TEXT
100
AcDbLine
 10
0.4215771415952841
 20
0.5593069819818602
 30
0.0
 11
0.4215771415952858
 21
0.4909499756484208
 31
0.0
  0
LWPOLYLINE
  5
1F786CD0F6735F2
330
FA01DB4B745DCE4C
100
AcDbEntity
  8
TEXT
100
AcDbPolyline
 90
        2
 70
     0
 43
0.0006660908203125
 10
0.2121441614955115
 20
0.6441875691838077
 10
0.2387877943080126
 20
0.6441875691838077
  0
ARC
  5
1F786CD0F6735FF
330
FA01DB4B745DCE4C
100
AcDbEntity
  8
TEXT
100
AcDbCircle
 10
0.5089019311560384
 20
0.6752439531748542
 30
0.0
 40
0.017902360805315
100
AcDbArc
 50
90.0
 51
270.0
  0
TEXT
  5
1F786CD0F67353F
330
FA01DB4B745DCE4C
100
AcDbEntity
  8
TEXT
100
AcDbText
 10
0.9739285714285708
 20
0.9375
 30
0.0
 40
0.125
  1
PART #170011
  7
ITALICC
 72
     1
 11
1.714999999999999
 21
0.9375
 31
0.0
100
AcDbText
  0
LINE
  5
1F786CD0F67367C
330
FA01DB4B745DCE4C
100
AcDbEntity
  8
TEXT
100
AcDbLine
 10
1.945306462753011
 20
0.7574230086369318
 30
0.0
 11
1.870314630023385
 21
0.7574230086369318
 31
0.0
  0
LINE
  5
1F786CD0F673672
330
FA01DB4B745DCE4C
100
AcDbEntity
  8
TEXT
100
AcDbLine
 10
1.89966319777471
 20
0.4909499756484208
 30
0.0
 11
1.976241570150916
 21
0.4909499756484208
 31
0.0
  0
LINE
  5
1F786CD0F673671
330
FA01DB4B745DCE4C
100
AcDbEntity
  8
TEXT
100
AcDbLine
 10
1.976241570150916
 20
0.4909499756484208
 30
0.0
 11
1.880749346787306
 21
0.6475297656959583
 31
0.0
  0
LINE
  5
1F786CD0F673652
330
FA01DB4B745DCE4C
100
AcDbEntity
  8
TEXT
100
AcDbLine
 10
1.880749346787306
 20
0.6475297656959583
 30
0.0
 11
1.945306462753011
 21
0.7574230086369318
 31
0.0
  0
LWPOLYLINE
  5
1F786CD0F67363F
330
FA01DB4B745DCE4C
100
AcDbEntity
  8
TEXT
100
AcDbPolyline
 90
        3
 70
     0
 43
0.0
 10
1.345959193723762
 20
0.7574230086369354
 10
1.227659034907718
 20
0.7574230086369354
 10
1.227659034907718
 20
0.7302555118760395
 42
-1.960274751411753
  0
LINE
  5
1F786CD0F673625
330
FA01DB4B745DCE4C
100
AcDbEntity
  8
TEXT
100
AcDbLine
 10
1.182079410310651
 20
0.4909499756484208
 30
0.0
 11
1.249137457092491
 21
0.4909499756484208
 31
0.0
  0
LINE
  5
1F786CD0F673614
330
FA01DB4B745DCE4C
100
AcDbEntity
  8
TEXT
100
AcDbLine
 10
0.8602680089631995
 20
0.5109084817534338
 30
0.0
 11
0.9575677150566441
 21
0.6752586926887019
 31
0.0
  0
LINE
  5
1F786CD0F67360F
330
FA01DB4B745DCE4C
100
AcDbEntity
  8
TEXT
100
AcDbLine
 10
0.9286168087660193
 20
0.7574230086369318
 30
0.0
 11
0.8698682459601538
 21
0.6565510125238112
 31
0.0
  0
LINE
  5
1F786CD0F673601
330
FA01DB4B745DCE4C
100
AcDbEntity
  8
TEXT
100
AcDbLine
 10
0.6758075851850088
 20
0.6931463139801664
 30
0.0
 11
0.6758075851850088
 21
0.5507423669864706
 31
0.0
  0
LWPOLYLINE
  5
1F786CD0F673617
330
FA01DB4B745DCE4C
100
AcDbEntity
  8
TEXT
100
AcDbPolyline
 90
        6
 70
     1
 43
0.0
 10
0.772217996240264
 20
0.6931463139801664
 10
0.7419014020200559
 20
0.6931463139801664
 10
0.7419014020200559
 20
0.5700353159252721
 42
0.407328721240804
 10
0.7534450531815322
 20
0.558216401248886
 10
0.814066752226263
 20
0.558216401248886
 10
0.8315320926335809
 20
0.5910286302923651
  0
ARC
  5
1F786CD0F673602
330
FA01DB4B745DCE4C
100
AcDbEntity
  8
TEXT
100
AcDbCircle
 10
0.5745020674003394
 20
0.5741457840089779
 30
0.0
 40
0.0831958083605586
100
AcDbArc
 50
270.0
 51
90.0
  0
ARC
  5
1F786CD0F67357F
330
FA01DB4B745DCE4C
100
AcDbEntity
  8
TEXT
100
AcDbCircle
 10
0.7359236031587609
 20
0.5507423669864706
 30
0.0
 40
0.0601160179737537
100
AcDbArc
 50
180.0000000000003
 51
264.0521544866073
  0
ARC
  5
1F786CD0F673603
330
FA01DB4B745DCE4C
100
AcDbEntity
  8
TEXT
100
AcDbCircle
 10
0.5794424413066191
 20
0.5762775358628942
 30
0.0
 40
0.0169705538810321
100
AcDbArc
 50
270.0
 51
90.0
  0
ARC
  5
1F786CD0F673615
330
FA01DB4B745DCE4C
100
AcDbEntity
  8
TEXT
100
AcDbCircle
 10
0.8262244490509855
 20
0.5304976979221166
 30
0.0
 40
0.0392772371940762
100
AcDbArc
 50
270.1604552698595
 51
330.0831797321295
  0
LINE
  5
1F786CD0F673616
330
FA01DB4B745DCE4C
100
AcDbEntity
  8
TEXT
100
AcDbLine
 10
0.7296941926651144
 20
0.4909499756484208
 30
0.0
 11
0.8263344437401087
 21
0.4912206147467031
 31
0.0
  0
LINE
  5
1F786CD0F673580
330
FA01DB4B745DCE4C
100
AcDbEntity
  8
TEXT
100
AcDbLine
 10
0.7394389587843087
 20
0.79181092623107
 30
0.0
 11
0.6793963539403017
 21
0.79181092623107
 31
0.0
  0
LINE
  5
1F786CD0F67360D
330
FA01DB4B745DCE4C
100
AcDbEntity
  8
TEXT
100
AcDbLine
 10
0.6793963539403017
 20
0.79181092623107
 30
0.0
 11
0.6793963539403017
 21
0.7574230086369318
 31
0.0
  0
LINE
  5
1F786CD0F67363B
330
FA01DB4B745DCE4C
100
AcDbEntity
  8
TEXT
100
AcDbLine
 10
0.811237924928216
 20
0.7574230086369318
 30
0.0
 11
0.7394389587843087
 21
0.7574230086369318
 31
0.0
  0
LINE
  5
1F786CD0F67360E
330
FA01DB4B745DCE4C
100
AcDbEntity
  8
TEXT
100
AcDbLine
 10
0.8698682459601538
 20
0.6565510125238112
 30
0.0
 11
0.811237924928216
 21
0.7574230086369318
 31
0.0
  0
LINE
  5
1F786CD0F67363A
330
FA01DB4B745DCE4C
100
AcDbEntity
  8
TEXT
100
AcDbLine
 10
0.7394389587843087
 20
0.7574230086369318
 30
0.0
 11
0.7394389587843087
 21
0.79181092623107
 31
0.0
  0
LINE
  5
1F786CD0F673611
330
FA01DB4B745DCE4C
100
AcDbEntity
  8
TEXT
100
AcDbLine
 10
1.05785928826342
 20
0.7574230086369318
 30
0.0
 11
1.05785928826342
 21
0.5565588019045236
 31
0.0
  0
LINE
  5
1F786CD0F673626
330
FA01DB4B745DCE4C
100
AcDbEntity
  8
TEXT
100
AcDbLine
 10
1.182079410310651
 20
0.6855925248140565
 30
0.0
 11
1.182079410310651
 21
0.4909499756484208
 31
0.0
  0
LINE
  5
1F786CD0F673628
330
FA01DB4B745DCE4C
100
AcDbEntity
  8
TEXT
100
AcDbLine
 10
1.12469034132139
 20
0.4909499756484208
 30
0.0
 11
1.12469034132139
 21
0.6931463139801664
 31
0.0
  0
LINE
  5
1F786CD0F67361F
330
FA01DB4B745DCE4C
100
AcDbEntity
  8
TEXT
100
AcDbLine
 10
0.9575677150566441
 20
0.6752586926887019
 30
0.0
 11
0.9575677150566441
 21
0.5425013178633456
 31
0.0
  0
LINE
  5
1F786CD0F673610
330
FA01DB4B745DCE4C
100
AcDbEntity
  8
TEXT
100
AcDbLine
 10
1.02554743412576
 20
0.5733378137514201
 30
0.0
 11
1.02554743412576
 21
0.8254344863757424
 31
0.0
  0
LINE
  5
1F786CD0F673613
330
FA01DB4B745DCE4C
100
AcDbEntity
  8
TEXT
100
AcDbLine
 10
1.026687007621955
 20
0.4909499756484208
 30
0.0
 11
1.12469034132139
 21
0.4909499756484208
 31
0.0
  0
ARC
  5
1F786CD0F673620
330
FA01DB4B745DCE4C
100
AcDbEntity
  8
TEXT
100
AcDbCircle
 10
1.040865651378817
 20
0.571940608147949
 30
0.0
 40
0.0153818062434269
100
AcDbArc
 50
174.7883570302258
 51
270.0
  0
LINE
  5
1F786CD0F673612
330
FA01DB4B745DCE4C
100
AcDbEntity
  8
TEXT
100
AcDbLine
 10
1.05785928826342
 20
0.5565588019045236
 30
0.0
 11
1.040865651378819
 21
0.5565588019045236
 31
0.0
  0
LWPOLYLINE
  5
1F786CD0F673621
330
FA01DB4B745DCE4C
100
AcDbEntity
  8
TEXT
100
AcDbPolyline
 90
        2
 70
     0
 43
0.0
 10
0.9575677150566423
 20
0.5425013178633491
 42
0.3318488747599744
 10
1.026687007621955
 20
0.4909499756484208
 42
-6.868794160588311
  0
LINE
  5
1F786CD0F673644
330
FA01DB4B745DCE4C
100
AcDbEntity
  8
TEXT
100
AcDbLine
 10
1.191877344194557
 20
0.7574230086369318
 30
0.0
 11
1.05785928826342
 21
0.7574230086369318
 31
0.0
  0
LINE
  5
1F786CD0F67363E
330
FA01DB4B745DCE4C
100
AcDbEntity
  8
TEXT
100
AcDbLine
 10
1.02554743412576
 20
0.8254344863757424
 30
0.0
 11
0.9587387215593956
 21
0.8254344863757424
 31
0.0
  0
LINE
  5
1F786CD0F67363C
330
FA01DB4B745DCE4C
100
AcDbEntity
  8
TEXT
100
AcDbLine
 10
0.9587387215593956
 20
0.7574230086369318
 30
0.0
 11
0.9286168087660193
 21
0.7574230086369318
 31
0.0
  0
LINE
  5
1F786CD0F67363D
330
FA01DB4B745DCE4C
100
AcDbEntity
  8
TEXT
100
AcDbLine
 10
0.9587387215593956
 20
0.8254344863757424
 30
0.0
 11
0.9587387215593956
 21
0.7574230086369318
 31
0.0
  0
LINE
  5
1F786CD0F673627
330
FA01DB4B745DCE4C
100
AcDbEntity
  8
TEXT
100
AcDbLine
 10
1.12469034132139
 20
0.6931463139801664
 30
0.0
 11
1.174525621144537
 21
0.6931463139801664
 31
0.0
  0
LWPOLYLINE
  5
1F786CD0F673629
330
FA01DB4B745DCE4C
100
AcDbEntity
  8
TEXT
100
AcDbPolyline
 90
        2
 70
     0
 43
0.0
 10
1.174525621144535
 20
0.6931463139801664
 42
-0.4142135623731017
 10
1.182079410310649
 20
0.6855925248140565
 42
-0.9999999999999998
  0
LWPOLYLINE
  5
1F786CD0F673645
330
FA01DB4B745DCE4C
100
AcDbEntity
  8
TEXT
100
AcDbPolyline
 90
        2
 70
     0
 43
0.0
 10
1.191877344194557
 20
0.7574230086369354
 42
-0.3328679258950098
 10
1.227659034907718
 20
0.7302555118760395
 42
6.772930709997214
  0
LINE
  5
1F786CD0F67364E
330
FA01DB4B745DCE4C
100
AcDbEntity
  8
TEXT
100
AcDbLine
 10
1.595532732529029
 20
0.6522110300835045
 30
0.0
 11
1.551781961347128
 21
0.7344613060796497
 31
0.0
  0
LWPOLYLINE
  5
1F786CD0F673654
330
FA01DB4B745DCE4C
100
AcDbEntity
  8
TEXT
100
AcDbPolyline
 90
        2
 70
     0
 43
0.0
 10
1.599472409834067
 20
0.534440920598859
 42
-0.2901071551932486
 10
1.556396476966423
 20
0.4909499756484208
 42
-5.328517124445184
  0
LINE
  5
1F786CD0F67362F
330
FA01DB4B745DCE4C
100
AcDbEntity
  8
TEXT
100
AcDbLine
 10
1.249137457092491
 20
0.4909499756484208
 30
0.0
 11
1.249137457092491
 21
0.6931463139801664
 31
0.0
  0
LWPOLYLINE
  5
1F786CD0F673634
330
FA01DB4B745DCE4C
100
AcDbEntity
  8
TEXT
100
AcDbPolyline
 90
        4
 70
     0
 43
0.0
 10
1.310824843179553
 20
0.6855925248140565
 10
1.310824843179553
 20
0.4909499756484208
 10
1.37930312646741
 20
0.4909499756484208
 10
1.37930312646741
 20
0.534440920598859
 42
-1.714843617202739
  0
LWPOLYLINE
  5
1F786CD0F67357B
330
FA01DB4B745DCE4C
100
AcDbEntity
  8
TEXT
100
AcDbPolyline
 90
        2
 70
     0
 43
0.0
 10
1.37930312646741
 20
0.534440920598859
 42
0.2901071551932823
 10
1.422379059335046
 20
0.4909499756484208
 42
5.328517124445801
  0
LWPOLYLINE
  5
1F786CD0F67365B
330
FA01DB4B745DCE4C
100
AcDbEntity
  8
TEXT
100
AcDbPolyline
 90
        4
 70
     1
 43
0.0
 10
1.53627401189653
 20
0.5939139536324461
 10
1.447613693236672
 20
0.5939139536324461
 42
0.9999999999999998
 10
1.447613693236672
 20
0.5515154131285854
 10
1.53627401189653
 20
0.5515154131285854
 42
1.0
  0
LWPOLYLINE
  5
1F786CD0F673661
330
FA01DB4B745DCE4C
100
AcDbEntity
  8
TEXT
100
AcDbPolyline
 90
        2
 70
     0
 43
0.0
 10
1.422379059335046
 20
0.4909499756484208
 10
1.556396476966423
 20
0.4909499756484208
 42
0.9999999999999998
  0
LINE
  5
1F786CD0F673579
330
FA01DB4B745DCE4C
100
AcDbEntity
  8
TEXT
100
AcDbLine
 10
1.516572793653988
 20
0.7574230086369318
 30
0.0
 11
1.381740884436929
 21
0.7574230086369318
 31
0.0
  0
LINE
  5
1F786CD0F673578
330
FA01DB4B745DCE4C
100
AcDbEntity
  8
TEXT
100
AcDbLine
 10
1.48754189530951
 20
0.6931463139801664
 30
0.0
 11
1.38033562192222
 21
0.6931463139801664
 31
0.0
  0
ARC
  5
1F786CD0F67357A
330
FA01DB4B745DCE4C
100
AcDbEntity
  8
TEXT
100
AcDbCircle
 10
1.441054980830246
 20
0.5881857593739155
 30
0.0
 40
0.0676855811441166
100
AcDbArc
 50
90.0
 51
153.7768192527749
  0
LWPOLYLINE
  5
1F786CD0F673630
330
FA01DB4B745DCE4C
100
AcDbEntity
  8
TEXT
100
AcDbPolyline
 90
        2
 70
     0
 43
0.0
 10
1.303271054013439
 20
0.6931463139801664
 42
-0.4142135623731017
 10
1.310824843179553
 20
0.6855925248140565
 42
-0.9999999999999998
  0
LINE
  5
1F786CD0F67362E
330
FA01DB4B745DCE4C
100
AcDbEntity
  8
TEXT
100
AcDbLine
 10
1.249137457092491
 20
0.6931463139801664
 30
0.0
 11
1.303271054013441
 21
0.6931463139801664
 31
0.0
  0
LINE
  5
1F786CD0F67362D
330
FA01DB4B745DCE4C
100
AcDbEntity
  8
TEXT
100
AcDbLine
 10
1.38033562192222
 20
0.6931463139801664
 30
0.0
 11
1.38033562192222
 21
0.6180939079059598
 31
0.0
  0
LINE
  5
1F786CD0F673649
330
FA01DB4B745DCE4C
100
AcDbEntity
  8
TEXT
100
AcDbLine
 10
1.381740884436929
 20
0.7574230086369318
 30
0.0
 11
1.381740884436929
 21
0.729100462867288
 31
0.0
  0
LWPOLYLINE
  5
1F786CD0F67364A
330
FA01DB4B745DCE4C
100
AcDbEntity
  8
TEXT
100
AcDbPolyline
 90
        2
 70
     0
 43
0.0
 10
1.345959193723762
 20
0.7574230086369354
 42
-0.3277054968067132
 10
1.381740884436927
 20
0.7291004628672915
 42
6.667889725900311
  0
LINE
  5
1F786CD0F67365A
330
FA01DB4B745DCE4C
100
AcDbEntity
  8
TEXT
100
AcDbLine
 10
1.441054980830248
 20
0.6558713405180341
 30
0.0
 11
1.523342970613631
 21
0.6558713405180341
 31
0.0
  0
ARC
  5
1F786CD0F673658
330
FA01DB4B745DCE4C
100
AcDbEntity
  8
TEXT
100
AcDbCircle
 10
1.487541895309508
 20
0.6647869389801691
 30
0.0
 40
0.028359375
100
AcDbArc
 50
25.78218179591245
 51
90.0
  0
LINE
  5
1F786CD0F673659
330
FA01DB4B745DCE4C
100
AcDbEntity
  8
TEXT
100
AcDbLine
 10
1.523342970613631
 20
0.6558713405180341
 30
0.0
 11
1.513078210200067
 21
0.6771218800907284
 31
0.0
  0
ARC
  5
1F786CD0F673676
330
FA01DB4B745DCE4C
100
AcDbEntity
  8
TEXT
100
AcDbCircle
 10
1.514545853876919
 20
0.7158394415160294
 30
0.0
 40
0.0416329381542859
100
AcDbArc
 50
26.56974201007528
 51
87.20939649401342
  0
LINE
  5
1F786CD0F673673
330
FA01DB4B745DCE4C
100
AcDbEntity
  8
TEXT
100
AcDbLine
 10
1.823759664563246
 20
0.6225295441246011
 30
0.0
 11
1.89966319777471
 21
0.4909499756484208
 31
0.0
  0
LINE
  5
1F786CD0F673674
330
FA01DB4B745DCE4C
100
AcDbEntity
  8
TEXT
100
AcDbLine
 10
1.823759664563246
 20
0.4909499756484208
 30
0.0
 11
1.823759664563246
 21
0.6225295441246011
 31
0.0
  0
LINE
  5
1F786CD0F673668
330
FA01DB4B745DCE4C
100
AcDbEntity
  8
TEXT
100
AcDbLine
 10
1.657827623669403
 20
0.4909499756484208
 30
0.0
 11
1.657827623669398
 21
0.6682404810798892
 31
0.0
  0
LINE
  5
1F786CD0F673666
330
FA01DB4B745DCE4C
100
AcDbEntity
  8
TEXT
100
AcDbLine
 10
1.75938148024462
 20
0.6931463139801664
 30
0.0
 11
1.759381480244625
 21
0.4909499756484208
 31
0.0
  0
LINE
  5
1F786CD0F673653
330
FA01DB4B745DCE4C
100
AcDbEntity
  8
TEXT
100
AcDbLine
 10
1.759381480244625
 20
0.4909499756484208
 30
0.0
 11
1.823759664563246
 21
0.4909499756484208
 31
0.0
  0
LWPOLYLINE
  5
1F786CD0F67366D
330
FA01DB4B745DCE4C
100
AcDbEntity
  8
TEXT
100
AcDbPolyline
 90
        2
 70
     0
 43
0.0
 10
1.599472409834067
 20
0.534440920598859
 10
1.599472409834067
 20
0.4909499756484208
  0
LWPOLYLINE
  5
1F786CD0F673669
330
FA01DB4B745DCE4C
100
AcDbEntity
  8
TEXT
100
AcDbPolyline
 90
        2
 70
     0
 43
0.0
 10
1.599472409834067
 20
0.4909499756484208
 10
1.657827623669401
 20
0.4909499756484208
  0
LINE
  5
1F786CD0F673675
330
FA01DB4B745DCE4C
100
AcDbEntity
  8
TEXT
100
AcDbLine
 10
1.823216471467398
 20
0.8228872144045325
 30
0.0
 11
1.754901592918125
 21
0.8228872144045325
 31
0.0
  0
LINE
  5
1F786CD0F67367A
330
FA01DB4B745DCE4C
100
AcDbEntity
  8
TEXT
100
AcDbLine
 10
1.75490159291812
 20
0.7574230086369318
 30
0.0
 11
1.687401875268603
 21
0.7574230086369318
 31
0.0
  0
ARC
  5
1F786CD0F673667
330
FA01DB4B745DCE4C
100
AcDbEntity
  8
TEXT
100
AcDbCircle
 10
1.68273349895206
 20
0.6682404386975036
 30
0.0
 40
0.0249058752826653
100
AcDbArc
 50
89.99971217465335
 51
179.9999999999985
  0
LINE
  5
1F786CD0F673665
330
FA01DB4B745DCE4C
100
AcDbEntity
  8
TEXT
100
AcDbLine
 10
1.682733498952062
 20
0.6931463139801664
 30
0.0
 11
1.75938148024462
 21
0.6931463139801664
 31
0.0
  0
ARC
  5
1F786CD0F673679
330
FA01DB4B745DCE4C
100
AcDbEntity
  8
TEXT
100
AcDbCircle
 10
1.690622455891638
 20
0.726177281354667
 30
0.0
 40
0.0314112657011332
100
AcDbArc
 50
95.88484768694724
 51
173.2388340632136
  0
LINE
  5
1F786CD0F673678
330
FA01DB4B745DCE4C
100
AcDbEntity
  8
TEXT
100
AcDbLine
 10
1.65942963882853
 20
0.7298753587760572
 30
0.0
 11
1.65942963882853
 21
0.7574230086369318
 31
0.0
  0
LINE
  5
1F786CD0F67364F
330
FA01DB4B745DCE4C
100
AcDbEntity
  8
TEXT
100
AcDbLine
 10
1.595532732529029
 20
0.7574230086369318
 30
0.0
 11
1.595532732529029
 21
0.6522110300835045
 31
0.0
  0
LINE
  5
1F786CD0F673677
330
FA01DB4B745DCE4C
100
AcDbEntity
  8
TEXT
100
AcDbLine
 10
1.65942963882853
 20
0.7574230086369318
 30
0.0
 11
1.595532732529029
 21
0.7574230086369318
 31
0.0
  0
LINE
  5
1F786CD0F67367B
330
FA01DB4B745DCE4C
100
AcDbEntity
  8
TEXT
100
AcDbLine
 10
1.754901592918125
 20
0.8228872144045325
 30
0.0
 11
1.75490159291812
 21
0.7574230086369318
 31
0.0
  0
LINE
  5
1F786CD0F673651
330
FA01DB4B745DCE4C
100
AcDbEntity
  8
TEXT
100
AcDbLine
 10
1.870314630023383
 20
0.7574230086369318
 30
0.0
 11
1.823216471467398
 21
0.6815576822253937
 31
0.0
  0
LINE
  5
1F786CD0F673650
330
FA01DB4B745DCE4C
100
AcDbEntity
  8
TEXT
100
AcDbLine
 10
1.823216471467398
 20
0.6815576822253937
 30
0.0
 11
1.823216471467398
 21
0.8228872144045325
 31
0.0
  0
ENDSEC
  0
SECTION
  2
OBJECTS
  0
DICTIONARY
  5
FA01DB4B745DCE40
330
0
100
AcDbDictionary
  3
ACAD_GROUP
350
FA01DB4B745DCE41
  3
ACAD_LAYOUT
350
FA01DB4B745DCE65
  3
ACAD_MLINESTYLE
350
FA01DB4B745DCE42
  3
ACAD_PLOTSETTINGS
350
FA01DB4B745DCE66
  3
ACAD_PLOTSTYLENAME
350
FA01DB4B745DCE63
  3
ACDBHEADERROUNDTRIPXREC
350
FA01DB4B745DCE70
  3
ACDBVARIABLEDICTIONARY
350
FA01DB4B745DCE6D
  0
DICTIONARY
  5
FA01DB4B745DCE92
330
FA01DB4B745DCE4C
100
AcDbDictionary
280
     1
  3
ACAD_LAYOUTSELFREF
360
FA01DB4B745DCE93
  0
DICTIONARY
  5
FA01DB4B745DCE90
330
FA01DB4B745DCE49
100
AcDbDictionary
280
     1
  3
ACAD_LAYOUTSELFREF
360
FA01DB4B745DCE91
  0
DICTIONARY
  5
FA01DB4B745DCE41
102
{ACAD_REACTORS
330
FA01DB4B745DCE40
102
}
330
FA01DB4B745DCE40
100
AcDbDictionary
  0
DICTIONARY
  5
FA01DB4B745DCE65
102
{ACAD_REACTORS
330
FA01DB4B745DCE40
102
}
330
FA01DB4B745DCE40
100
AcDbDictionary
  0
DICTIONARY
  5
FA01DB4B745DCE42
102
{ACAD_REACTORS
330
FA01DB4B745DCE40
102
}
330
FA01DB4B745DCE40
100
AcDbDictionary
  3
STANDARD
350
FA01DB4B745DCE4F
  0
DICTIONARY
  5
FA01DB4B745DCE66
102
{ACAD_REACTORS
330
FA01DB4B745DCE40
102
}
330
FA01DB4B745DCE40
100
AcDbDictionary
  0
ACDBDICTIONARYWDFLT
  5
FA01DB4B745DCE63
102
{ACAD_REACTORS
330
FA01DB4B745DCE40
102
}
330
FA01DB4B745DCE40
100
AcDbDictionary
281
     1
  3
Normal
350
FA01DB4B745DCE64
100
AcDbDictionaryWithDefault
340
FA01DB4B745DCE64
  0
DICTIONARY
  5
FA01DB4B745DCE70
102
{ACAD_REACTORS
330
FA01DB4B745DCE40
102
}
330
FA01DB4B745DCE40
100
AcDbDictionary
  3
CEPSNTYPE
350
FA01DB4B745DCE7A
  3
FINGERPRINTGUID
350
FA01DB4B745DCE7B
  3
HYPERLINKBASE
350
FA01DB4B745DCE73
  3
INSUNITS
350
FA01DB4B745DCE79
  3
LAYOUTDICT
350
FA01DB4B745DCE75
  3
LWETCUNION
350
FA01DB4B745DCE78
  3
PLOTSETDICT
350
FA01DB4B745DCE76
  3
PLOTSTYLNAMDICT
350
FA01DB4B745DCE77
  3
PSVPSCALE
350
FA01DB4B745DCE7D
  3
PUCSBASE
350
FA01DB4B745DCE80
  3
PUCSORGBACK
350
FA01DB4B745DCE86
  3
PUCSORGBOTTOM
350
FA01DB4B745DCE82
  3
PUCSORGFRONT
350
FA01DB4B745DCE85
  3
PUCSORGLEFT
350
FA01DB4B745DCE83
  3
PUCSORGRIGHT
350
FA01DB4B745DCE84
  3
PUCSORGTOP
350
FA01DB4B745DCE81
  3
PUCSORTHOREF
350
FA01DB4B745DCE7E
  3
PUCSORTHOVIEW
350
FA01DB4B745DCE7F
  3
STYLESHEET
350
FA01DB4B745DCE74
  3
TSTACKALIGN
350
FA01DB4B745DCE71
  3
TSTACKSIZE
350
FA01DB4B745DCE72
  3
UCSBASE
350
FA01DB4B745DCE89
  3
UCSORGBACK
350
FA01DB4B745DCE8F
  3
UCSORGBOTTOM
350
FA01DB4B745DCE8B
  3
UCSORGFRONT
350
FA01DB4B745DCE8E
  3
UCSORGLEFT
350
FA01DB4B745DCE8C
  3
UCSORGRIGHT
350
FA01DB4B745DCE8D
  3
UCSORGTOP
350
FA01DB4B745DCE8A
  3
UCSORTHOREF
350
FA01DB4B745DCE87
  3
UCSORTHOVIEW
350
FA01DB4B745DCE88
  3
VERSIONGUID
350
FA01DB4B745DCE7C
  0
DICTIONARY
  5
FA01DB4B745DCE6D
102
{ACAD_REACTORS
330
FA01DB4B745DCE40
102
}
330
FA01DB4B745DCE40
100
AcDbDictionary
  3
DIMASSOC
350
FA01DB4B745DCE6E
  0
XRECORD
  5
FA01DB4B745DCE93
102
{ACAD_REACTORS
330
FA01DB4B745DCE92
102
}
330
FA01DB4B745DCE92
100
AcDbXrecord
340
FA01DB4B745DCE4C
  0
XRECORD
  5
FA01DB4B745DCE91
102
{ACAD_REACTORS
330
FA01DB4B745DCE90
102
}
330
FA01DB4B745DCE90
100
AcDbXrecord
340
FA01DB4B745DCE49
  0
MLINESTYLE
  5
FA01DB4B745DCE4F
102
{ACAD_REACTORS
330
FA01DB4B745DCE42
102
}
330
FA01DB4B745DCE42
100
AcDbMlineStyle
  2
STANDARD
 70
     0
  3

 62
     0
 51
90.0
 52
90.0
 71
     2
 49
0.5
 62
   256
  6
BYLAYER
 49
-0.5
 62
   256
  6
BYLAYER
  0
ACDBPLACEHOLDER
  5
FA01DB4B745DCE64
102
{ACAD_REACTORS
330
FA01DB4B745DCE63
102
}
330
FA01DB4B745DCE63
100
AcDbPlaceHolder
280
     0
  0
XRECORD
  5
FA01DB4B745DCE7A
102
{ACAD_REACTORS
330
FA01DB4B745DCE70
102
}
330
FA01DB4B745DCE70
100
AcDbXrecord
 90
        0
  0
XRECORD
  5
FA01DB4B745DCE7B
102
{ACAD_REACTORS
330
FA01DB4B745DCE70
102
}
330
FA01DB4B745DCE70
100
AcDbXrecord
  1
{58B19970-8DBA-11D6-88E6-0090279574E7}
  0
XRECORD
  5
FA01DB4B745DCE73
102
{ACAD_REACTORS
330
FA01DB4B745DCE70
102
}
330
FA01DB4B745DCE70
100
AcDbXrecord
  1

  0
XRECORD
  5
FA01DB4B745DCE79
102
{ACAD_REACTORS
330
FA01DB4B745DCE70
102
}
330
FA01DB4B745DCE70
100
AcDbXrecord
 90
        0
  0
XRECORD
  5
FA01DB4B745DCE75
102
{ACAD_REACTORS
330
FA01DB4B745DCE70
102
}
330
FA01DB4B745DCE70
100
AcDbXrecord
340
FA01DB4B745DCE65
  0
XRECORD
  5
FA01DB4B745DCE78
102
{ACAD_REACTORS
330
FA01DB4B745DCE70
102
}
330
FA01DB4B745DCE70
100
AcDbXrecord
 90
    14877
  0
XRECORD
  5
FA01DB4B745DCE76
102
{ACAD_REACTORS
330
FA01DB4B745DCE70
102
}
330
FA01DB4B745DCE70
100
AcDbXrecord
340
FA01DB4B745DCE66
  0
XRECORD
  5
FA01DB4B745DCE77
102
{ACAD_REACTORS
330
FA01DB4B745DCE70
102
}
330
FA01DB4B745DCE70
100
AcDbXrecord
340
FA01DB4B745DCE63
  0
XRECORD
  5
FA01DB4B745DCE7D
102
{ACAD_REACTORS
330
FA01DB4B745DCE70
102
}
330
FA01DB4B745DCE70
100
AcDbXrecord
 40
0.0
  0
XRECORD
  5
FA01DB4B745DCE80
102
{ACAD_REACTORS
330
FA01DB4B745DCE70
102
}
330
FA01DB4B745DCE70
100
AcDbXrecord
340
0
  0
XRECORD
  5
FA01DB4B745DCE86
102
{ACAD_REACTORS
330
FA01DB4B745DCE70
102
}
330
FA01DB4B745DCE70
100
AcDbXrecord
 10
0.0
 20
0.0
 30
0.0
  0
XRECORD
  5
FA01DB4B745DCE82
102
{ACAD_REACTORS
330
FA01DB4B745DCE70
102
}
330
FA01DB4B745DCE70
100
AcDbXrecord
 10
0.0
 20
0.0
 30
0.0
  0
XRECORD
  5
FA01DB4B745DCE85
102
{ACAD_REACTORS
330
FA01DB4B745DCE70
102
}
330
FA01DB4B745DCE70
100
AcDbXrecord
 10
0.0
 20
0.0
 30
0.0
  0
XRECORD
  5
FA01DB4B745DCE83
102
{ACAD_REACTORS
330
FA01DB4B745DCE70
102
}
330
FA01DB4B745DCE70
100
AcDbXrecord
 10
0.0
 20
0.0
 30
0.0
  0
XRECORD
  5
FA01DB4B745DCE84
102
{ACAD_REACTORS
330
FA01DB4B745DCE70
102
}
330
FA01DB4B745DCE70
100
AcDbXrecord
 10
0.0
 20
0.0
 30
0.0
  0
XRECORD
  5
FA01DB4B745DCE81
102
{ACAD_REACTORS
330
FA01DB4B745DCE70
102
}
330
FA01DB4B745DCE70
100
AcDbXrecord
 10
0.0
 20
0.0
 30
0.0
  0
XRECORD
  5
FA01DB4B745DCE7E
102
{ACAD_REACTORS
330
FA01DB4B745DCE70
102
}
330
FA01DB4B745DCE70
100
AcDbXrecord
340
0
  0
XRECORD
  5
FA01DB4B745DCE7F
102
{ACAD_REACTORS
330
FA01DB4B745DCE70
102
}
330
FA01DB4B745DCE70
100
AcDbXrecord
 70
     0
  0
XRECORD
  5
FA01DB4B745DCE74
102
{ACAD_REACTORS
330
FA01DB4B745DCE70
102
}
330
FA01DB4B745DCE70
100
AcDbXrecord
  1

  0
XRECORD
  5
FA01DB4B745DCE71
102
{ACAD_REACTORS
330
FA01DB4B745DCE70
102
}
330
FA01DB4B745DCE70
100
AcDbXrecord
 90
        1
  0
XRECORD
  5
FA01DB4B745DCE72
102
{ACAD_REACTORS
330
FA01DB4B745DCE70
102
}
330
FA01DB4B745DCE70
100
AcDbXrecord
 90
       70
  0
XRECORD
  5
FA01DB4B745DCE89
102
{ACAD_REACTORS
330
FA01DB4B745DCE70
102
}
330
FA01DB4B745DCE70
100
AcDbXrecord
340
0
  0
XRECORD
  5
FA01DB4B745DCE8F
102
{ACAD_REACTORS
330
FA01DB4B745DCE70
102
}
330
FA01DB4B745DCE70
100
AcDbXrecord
 10
0.0
 20
0.0
 30
0.0
  0
XRECORD
  5
FA01DB4B745DCE8B
102
{ACAD_REACTORS
330
FA01DB4B745DCE70
102
}
330
FA01DB4B745DCE70
100
AcDbXrecord
 10
0.0
 20
0.0
 30
0.0
  0
XRECORD
  5
FA01DB4B745DCE8E
102
{ACAD_REACTORS
330
FA01DB4B745DCE70
102
}
330
FA01DB4B745DCE70
100
AcDbXrecord
 10
0.0
 20
0.0
 30
0.0
  0
XRECORD
  5
FA01DB4B745DCE8C
102
{ACAD_REACTORS
330
FA01DB4B745DCE70
102
}
330
FA01DB4B745DCE70
100
AcDbXrecord
 10
0.0
 20
0.0
 30
0.0
  0
XRECORD
  5
FA01DB4B745DCE8D
102
{ACAD_REACTORS
330
FA01DB4B745DCE70
102
}
330
FA01DB4B745DCE70
100
AcDbXrecord
 10
0.0
 20
0.0
 30
0.0
  0
XRECORD
  5
FA01DB4B745DCE8A
102
{ACAD_REACTORS
330
FA01DB4B745DCE70
102
}
330
FA01DB4B745DCE70
100
AcDbXrecord
 10
0.0
 20
0.0
 30
0.0
  0
XRECORD
  5
FA01DB4B745DCE87
102
{ACAD_REACTORS
330
FA01DB4B745DCE70
102
}
330
FA01DB4B745DCE70
100
AcDbXrecord
340
0
  0
XRECORD
  5
FA01DB4B745DCE88
102
{ACAD_REACTORS
330
FA01DB4B745DCE70
102
}
330
FA01DB4B745DCE70
100
AcDbXrecord
 70
     0
  0
XRECORD
  5
FA01DB4B745DCE7C
102
{ACAD_REACTORS
330
FA01DB4B745DCE70
102
}
330
FA01DB4B745DCE70
100
AcDbXrecord
  1
{58B19972-8DBA-11D6-88E6-0090279574E7}
  0
DICTIONARYVAR
  5
FA01DB4B745DCE6E
102
{ACAD_REACTORS
330
FA01DB4B745DCE6D
102
}
330
FA01DB4B745DCE6D
100
DictionaryVariables
280
     0
  1
1
  0
ENDSEC
  0
EOF
