  0
SECTION
  2
HEADER
  9
$ACADVER
  1
AC1014
  9
$ACADMAINTVER
 70
     9
  9
$DWGCODEPAGE
  3
ANSI_1252
  9
$INSBASE
 10
0.0
 20
0.0
 30
0.0
  9
$EXTMIN
 10
-0.7533796721899979
 20
-0.0716855747603462
 30
0.0
  9
$EXTMAX
 10
2.73183964955713
 20
1.089379420117823
 30
0.0
  9
$LIMMIN
 10
0.0
 20
0.0
  9
$LIMMAX
 10
18.0
 20
12.0
  9
$ORTHOMODE
 70
     1
  9
$REGENMODE
 70
     1
  9
$FILLMODE
 70
     1
  9
$QTEXTMODE
 70
     0
  9
$MIRRTEXT
 70
     0
  9
$DRAGMODE
 70
     2
  9
$LTSCALE
 40
1.0
  9
$OSMODE
 70
    39
  9
$ATTMODE
 70
     1
  9
$TEXTSIZE
 40
0.125
  9
$TRACEWID
 40
0.05
  9
$TEXTSTYLE
  7
ROMANS
  9
$CLAYER
  8
0
  9
$CELTYPE
  6
BYLAYER
  9
$CECOLOR
 62
   256
  9
$CELTSCALE
 40
1.0
  9
$DELOBJ
 70
     1
  9
$DISPSILH
 70
     1
  9
$DIMSCALE
 40
1.0
  9
$DIMASZ
 40
0.125
  9
$DIMEXO
 40
0.125
  9
$DIMDLI
 40
0.375
  9
$DIMRND
 40
0.0
  9
$DIMDLE
 40
0.0
  9
$DIMEXE
 40
0.125
  9
$DIMTP
 40
0.0
  9
$DIMTM
 40
0.0
  9
$DIMTXT
 40
0.125
  9
$DIMCEN
 40
-0.125
  9
$DIMTSZ
 40
0.0
  9
$DIMTOL
 70
     0
  9
$DIMLIM
 70
     0
  9
$DIMTIH
 70
     1
  9
$DIMTOH
 70
     1
  9
$DIMSE1
 70
     0
  9
$DIMSE2
 70
     0
  9
$DIMTAD
 70
     0
  9
$DIMZIN
 70
     4
  9
$DIMBLK
  1

  9
$DIMASO
 70
     1
  9
$DIMSHO
 70
     1
  9
$DIMPOST
  1

  9
$DIMAPOST
  1

  9
$DIMALT
 70
     0
  9
$DIMALTD
 70
     2
  9
$DIMALTF
 40
25.4
  9
$DIMLFAC
 40
1.0
  9
$DIMTOFL
 70
     0
  9
$DIMTVP
 40
0.0
  9
$DIMTIX
 70
     1
  9
$DIMSOXD
 70
     0
  9
$DIMSAH
 70
     0
  9
$DIMBLK1
  1

  9
$DIMBLK2
  1

  9
$DIMSTYLE
  2
STANDARD
  9
$DIMCLRD
 70
     0
  9
$DIMCLRE
 70
     0
  9
$DIMCLRT
 70
     0
  9
$DIMTFAC
 40
1.0
  9
$DIMGAP
 40
0.09375
  9
$DIMJUST
 70
     0
  9
$DIMSD1
 70
     0
  9
$DIMSD2
 70
     0
  9
$DIMTOLJ
 70
     1
  9
$DIMTZIN
 70
     0
  9
$DIMALTZ
 70
     0
  9
$DIMALTTZ
 70
     0
  9
$DIMFIT
 70
     3
  9
$DIMUPT
 70
     0
  9
$DIMUNIT
 70
     2
  9
$DIMDEC
 70
     3
  9
$DIMTDEC
 70
     4
  9
$DIMALTU
 70
     2
  9
$DIMALTTD
 70
     2
  9
$DIMTXSTY
  7
ROMANS
  9
$DIMAUNIT
 70
     0
  9
$LUNITS
 70
     2
  9
$LUPREC
 70
     3
  9
$SKETCHINC
 40
0.1
  9
$FILLETRAD
 40
0.031
  9
$AUNITS
 70
     0
  9
$AUPREC
 70
     0
  9
$MENU
  1
U:\ACAD
  9
$ELEVATION
 40
0.0
  9
$PELEVATION
 40
0.0
  9
$THICKNESS
 40
0.0
  9
$LIMCHECK
 70
     0
  9
$BLIPMODE
 70
     0
  9
$CHAMFERA
 40
0.0
  9
$CHAMFERB
 40
0.0
  9
$CHAMFERC
 40
0.0
  9
$CHAMFERD
 40
0.0
  9
$SKPOLY
 70
     0
  9
$TDCREATE
 40
2449426.408685648
  9
$TDUPDATE
 40
2452458.326603171
  9
$TDINDWG
 40
0.0463975810
  9
$TDUSRTIMER
 40
0.0463975810
  9
$USRTIMER
 70
     1
  9
$ANGBASE
 50
0.0
  9
$ANGDIR
 70
     0
  9
$PDMODE
 70
     0
  9
$PDSIZE
 40
0.0
  9
$PLINEWID
 40
0.0
  9
$COORDS
 70
     2
  9
$SPLFRAME
 70
     0
  9
$SPLINETYPE
 70
     6
  9
$SPLINESEGS
 70
     8
  9
$ATTDIA
 70
     0
  9
$ATTREQ
 70
     1
  9
$HANDLING
 70
 22529
  9
$HANDSEED
  5
6F4
  9
$SURFTAB1
 70
     6
  9
$SURFTAB2
 70
     6
  9
$SURFTYPE
 70
     6
  9
$SURFU
 70
     6
  9
$SURFV
 70
     6
  9
$UCSNAME
  2

  9
$UCSORG
 10
0.0
 20
0.0
 30
0.0
  9
$UCSXDIR
 10
1.0
 20
0.0
 30
0.0
  9
$UCSYDIR
 10
0.0
 20
1.0
 30
0.0
  9
$PUCSNAME
  2

  9
$PUCSORG
 10
0.0
 20
0.0
 30
0.0
  9
$PUCSXDIR
 10
1.0
 20
0.0
 30
0.0
  9
$PUCSYDIR
 10
0.0
 20
1.0
 30
0.0
  9
$USERI1
 70
     0
  9
$USERI2
 70
     0
  9
$USERI3
 70
     0
  9
$USERI4
 70
     0
  9
$USERI5
 70
     0
  9
$USERR1
 40
0.0
  9
$USERR2
 40
0.0
  9
$USERR3
 40
0.0
  9
$USERR4
 40
0.0
  9
$USERR5
 40
0.0
  9
$WORLDVIEW
 70
     1
  9
$SHADEDGE
 70
     3
  9
$SHADEDIF
 70
    70
  9
$TILEMODE
 70
     1
  9
$MAXACTVP
 70
    16
  9
$PINSBASE
 10
0.0
 20
0.0
 30
0.0
  9
$PLIMCHECK
 70
     0
  9
$PEXTMIN
 10
1.000000000000000E+20
 20
1.000000000000000E+20
 30
1.000000000000000E+20
  9
$PEXTMAX
 10
-1.000000000000000E+20
 20
-1.000000000000000E+20
 30
-1.000000000000000E+20
  9
$PLIMMIN
 10
0.0
 20
0.0
  9
$PLIMMAX
 10
12.0
 20
9.0
  9
$UNITMODE
 70
     0
  9
$VISRETAIN
 70
     0
  9
$PLINEGEN
 70
     1
  9
$PSLTSCALE
 70
     0
  9
$TREEDEPTH
 70
  3020
  9
$PICKSTYLE
 70
     1
  9
$CMLSTYLE
  2
STANDARD
  9
$CMLJUST
 70
     0
  9
$CMLSCALE
 40
1.0
  9
$PROXYGRAPHICS
 70
     1
  9
$MEASUREMENT
 70
     0
  0
ENDSEC
  0
SECTION
  2
CLASSES
  0
CLASS
  1
LWPOLYLINE
  2
AcDbPolyline
  3
AutoCAD 2000
 90
        0
280
     0
281
     1
  0
CLASS
  1
ACDBDICTIONARYWDFLT
  2
AcDbDictionaryWithDefault
  3
AutoCAD 2000
 90
        0
280
     0
281
     0
  0
CLASS
  1
ACDBPLACEHOLDER
  2
AcDbPlaceHolder
  3
AutoCAD 2000
 90
        0
280
     0
281
     0
  0
CLASS
  1
LAYOUT
  2
AcDbLayout
  3
AutoCAD 2000
 90
        0
280
     0
281
     0
  0
CLASS
  1
DICTIONARYVAR
  2
AcDbDictionaryVar
  3
AutoCAD 2000
 90
        0
280
     0
281
     0
  0
CLASS
  1
LONG_TRANSACTION
  2
AcDbLongTransaction
  3
AutoCAD 2000
 90
        0
280
     0
281
     0
  0
CLASS
  1
LWPOLYLINE
  2
AcDbPolyline
  3
AutoCAD 2000
 90
        0
280
     0
281
     1
  0
CLASS
  1
HATCH
  2
AcDbHatch
  3
AutoCAD 2000
 90
        0
280
     0
281
     1
  0
CLASS
  1
XRECORD
  2
AcDbXrecord
  3
AutoCAD 2000
 90
        0
280
     0
281
     0
  0
ENDSEC
  0
SECTION
  2
TABLES
  0
TABLE
  2
VPORT
  5
58F
330
0
100
AcDbSymbolTable
 70
     2
  0
VPORT
  5
6CF
330
58F
100
AcDbSymbolTableRecord
100
AcDbViewportTableRecord
  2
*ACTIVE
 70
     0
 10
0.0
 20
0.0
 11
1.0
 21
1.0
 12
3.91164651931144
 22
0.5088707758400375
 13
0.0
 23
0.0
 14
0.015625
 24
0.015625
 15
0.0
 25
0.0
 16
0.0
 26
0.0
 36
1.0
 17
0.0
 27
0.0
 37
0.0
 40
2.163675904046961
 41
4.320930232558139
 42
50.0
 43
0.0
 44
0.0
 50
0.0
 51
0.0
 71
     0
 72
  2000
 73
     1
 74
     1
 75
     0
 76
     0
 77
     0
 78
     0
  0
ENDTAB
  0
TABLE
  2
LTYPE
  5
58C
330
0
100
AcDbSymbolTable
 70
     1
  0
LTYPE
  5
599
330
58C
100
AcDbSymbolTableRecord
100
AcDbLinetypeTableRecord
  2
BYBLOCK
 70
     0
  3

 72
    65
 73
     0
 40
0.0
  0
LTYPE
  5
59A
330
58C
100
AcDbSymbolTableRecord
100
AcDbLinetypeTableRecord
  2
BYLAYER
 70
     0
  3

 72
    65
 73
     0
 40
0.0
  0
LTYPE
  5
59B
330
58C
100
AcDbSymbolTableRecord
100
AcDbLinetypeTableRecord
  2
CONTINUOUS
 70
     0
  3
Solid line
 72
    65
 73
     0
 40
0.0
  0
ENDTAB
  0
TABLE
  2
LAYER
  5
589
330
0
100
AcDbSymbolTable
 70
     2
  0
LAYER
  5
596
330
589
100
AcDbSymbolTableRecord
100
AcDbLayerTableRecord
  2
0
 70
     0
 62
     7
  6
CONTINUOUS
  0
LAYER
  5
5AC
330
589
100
AcDbSymbolTableRecord
100
AcDbLayerTableRecord
  2
TEXT
 70
     0
 62
     3
  6
CONTINUOUS
  0
ENDTAB
  0
TABLE
  2
STYLE
  5
58A
330
0
100
AcDbSymbolTable
 70
     3
  0
STYLE
  5
597
330
58A
100
AcDbSymbolTableRecord
100
AcDbTextStyleTableRecord
  2
STANDARD
 70
     0
 40
0.0
 41
1.0
 50
0.0
 71
     0
 42
0.125
  3
txt
  4

  0
STYLE
  5
5BC
330
58A
100
AcDbSymbolTableRecord
100
AcDbTextStyleTableRecord
  2
ITALICC
 70
     0
 40
0.0
 41
1.0
 50
0.0
 71
     0
 42
0.125
  3
italicc
  4

  0
STYLE
  5
6CB
330
58A
100
AcDbSymbolTableRecord
100
AcDbTextStyleTableRecord
  2
ROMANS
 70
     0
 40
0.0
 41
1.0
 50
0.0
 71
     0
 42
0.125
  3
romans.shx
  4

  0
ENDTAB
  0
TABLE
  2
VIEW
  5
58D
330
0
100
AcDbSymbolTable
 70
     1
  0
VIEW
  5
5A8
330
58D
100
AcDbSymbolTableRecord
100
AcDbViewTableRecord
  2
OLE1
 70
     0
 40
12.95138888888887
 10
10.47936379482071
 20
4.250000000000002
 41
20.61386398849046
 11
0.0
 21
0.0
 31
1.0
 12
0.0
 22
0.0
 32
0.0
 42
50.0
 43
0.0
 44
0.0
 50
0.0
 71
     0
  0
ENDTAB
  0
TABLE
  2
UCS
  5
58E
330
0
100
AcDbSymbolTable
 70
     0
  0
ENDTAB
  0
TABLE
  2
APPID
  5
590
330
0
100
AcDbSymbolTable
 70
     1
  0
APPID
  5
598
330
590
100
AcDbSymbolTableRecord
100
AcDbRegAppTableRecord
  2
ACAD
 70
     0
  0
ENDTAB
  0
TABLE
  2
DIMSTYLE
  5
591
330
0
100
AcDbSymbolTable
 70
     1
  0
DIMSTYLE
105
5B4
330
591
100
AcDbSymbolTableRecord
100
AcDbDimStyleTableRecord
  2
STANDARD
 70
     0
  3

  4

  5

  6

  7

 40
1.0
 41
0.18
 42
0.0625
 43
0.38
 44
0.18
 45
0.0
 46
0.0
 47
0.0
 48
0.0
140
0.18
141
0.09
142
0.0
143
25.4
144
1.0
145
0.0
146
1.0
147
0.09
 71
     0
 72
     0
 73
     1
 74
     1
 75
     0
 76
     0
 77
     0
 78
     0
170
     0
171
     2
172
     0
173
     0
174
     0
175
     0
176
     0
177
     0
178
     0
270
     2
271
     4
272
     4
273
     2
274
     2
340
597
275
     0
280
     0
281
     0
282
     0
283
     1
284
     0
285
     0
286
     0
287
     3
288
     0
  0
ENDTAB
  0
TABLE
  2
BLOCK_RECORD
  5
588
330
0
100
AcDbSymbolTable
 70
     0
  0
BLOCK_RECORD
  5
59F
102
{ACAD_XDICTIONARY
360
6F2
102
}
330
588
100
AcDbSymbolTableRecord
100
AcDbBlockTableRecord
  2
*MODEL_SPACE
  0
BLOCK_RECORD
  5
59C
102
{ACAD_XDICTIONARY
360
6F0
102
}
330
588
100
AcDbSymbolTableRecord
100
AcDbBlockTableRecord
  2
*PAPER_SPACE
  0
ENDTAB
  0
ENDSEC
  0
SECTION
  2
BLOCKS
  0
BLOCK
  5
5B2
330
59F
100
AcDbEntity
  8
0
100
AcDbBlockBegin
  2
*MODEL_SPACE
 70
     0
 10
0.0
 20
0.0
 30
0.0
  3
*MODEL_SPACE
  1

  0
ENDBLK
  5
5B3
330
59F
100
AcDbEntity
  8
0
100
AcDbBlockEnd
  0
BLOCK
  5
5B0
330
59C
100
AcDbEntity
 67
     1
  8
0
100
AcDbBlockBegin
  2
*PAPER_SPACE
 70
     0
 10
0.0
 20
0.0
 30
0.0
  3
*PAPER_SPACE
  1

  0
ENDBLK
  5
5B1
330
59C
100
AcDbEntity
 67
     1
  8
0
100
AcDbBlockEnd
  0
ENDSEC
  0
SECTION
  2
ENTITIES
  0
LWPOLYLINE
  5
54F
330
59F
100
AcDbEntity
  8
0
100
AcDbPolyline
 90
       29
 70
     0
 43
0.0
 10
1.430327882620444
 20
0.8430273396888452
 42
0.3299257205756977
 10
1.408348579214207
 20
0.8727172044663937
 42
-0.3270788004052942
 10
1.243462309431214
 20
1.072248502503409
 42
0.3859435469224541
 10
1.227911480207843
 20
1.086352865970381
 10
1.224090651171401
 20
1.086352865970381
 42
0.3888787318529836
 10
1.208525109013717
 20
1.072089674450813
 10
1.200501921385505
 20
0.9803842202254706
 42
-0.3639702342661365
 10
1.195577882620444
 20
0.976252461113809
 10
1.102577882620444
 20
0.976252461113809
 42
-0.4142135623731992
 10
1.097577882620443
 20
0.9812524611138098
 10
1.089661457605469
 20
1.071737613085852
 42
0.3888787318529835
 10
1.074095915447784
 20
1.08600080460542
 10
1.070275086411344
 20
1.08600080460542
 42
0.385943546922608
 10
1.054724257187972
 20
1.071896441138434
 42
-0.3273665186689362
 10
0.8898071860266796
 20
0.8726858466128835
 42
0.3301509304864231
 10
0.8678278826204447
 20
0.8430273396888452
 10
0.8678278826204444
 20
0.8353774611138096
 42
0.4142135623730894
 10
0.883827882620444
 20
0.8193774611138096
 10
0.9823369565719296
 20
0.8193774611138078
 42
0.2762565891456999
 10
1.009650370328819
 20
0.8357153525019809
 10
1.038674313599162
 20
0.889782812537021
 42
-0.2762565891456882
 10
1.066207996821832
 20
0.9062524611138087
 10
1.231947768419056
 20
0.9062524611138105
 42
-0.2762565891456976
 10
1.259481451641725
 20
0.889782812537021
 10
1.288505394912067
 20
0.8357153525019818
 42
0.276256589145697
 10
1.315818808668956
 20
0.8193774611138087
 10
1.414327882620444
 20
0.8193774611138096
 42
0.4142135623730951
 10
1.430327882620444
 20
0.8353774611138096
 10
1.430327882620444
 20
0.8433255353574651
  0
TEXT
  5
641
330
59F
100
AcDbEntity
  8
TEXT
100
AcDbText
 10
0.2366257165609552
 20
0.3863330293222353
 30
0.0
 40
0.125
  1
PART #150020
  7
ITALICC
 72
     1
 11
0.9896019070371453
 21
0.3863330293222353
 31
0.0
100
AcDbText
  0
LWPOLYLINE
  5
642
330
59F
100
AcDbEntity
  8
TEXT
100
AcDbPolyline
 90
        3
 70
     0
 43
0.0
 10
0.6205611007609094
 20
0.2062560379591707
 10
0.502260941944865
 20
0.2062560379591707
 10
0.502260941944865
 20
0.1790885411982748
 42
-1.960274751411753
  0
LWPOLYLINE
  5
643
330
59F
100
AcDbEntity
  8
TEXT
100
AcDbPolyline
 90
        4
 70
     0
 43
0.0
 10
0.5854267502166995
 20
0.1344255541362918
 10
0.5854267502166995
 20
-0.0602169950293439
 10
0.6539050335045573
 20
-0.0602169950293439
 10
0.6539050335045573
 20
-0.0167260500789057
 42
-1.714843617202739
  0
LWPOLYLINE
  5
644
330
59F
100
AcDbEntity
  8
TEXT
100
AcDbPolyline
 90
        2
 70
     0
 43
0.0001332181640625
 10
-0.513253931467343
 20
-0.0335366573533316
 10
-0.5732021052954668
 20
0.026411516474794
  0
LWPOLYLINE
  5
645
330
59F
100
AcDbEntity
  8
TEXT
100
AcDbPolyline
 90
        3
 70
     0
 43
0.0006660908203125
 10
-0.5998457381079679
 20
-0.0335366573533316
 10
-0.513253931467343
 20
-0.0335366573533316
 10
-0.513253931467343
 20
0.0530551492872951
  0
LWPOLYLINE
  5
646
330
59F
100
AcDbEntity
  8
TEXT
100
AcDbPolyline
 90
        3
 70
     0
 43
0.0006660908203125
 10
-0.5998457381079679
 20
-0.0601802901658326
 10
-0.486610298654842
 20
-0.0601802901658326
 10
-0.486610298654842
 20
0.0530551492872951
  0
LWPOLYLINE
  5
647
330
59F
100
AcDbEntity
  8
TEXT
100
AcDbPolyline
 90
        2
 70
     0
 43
0.0001332181640625
 10
-0.486610298654842
 20
0.0530551492872951
 10
-0.5598802888892181
 20
0.0630465115919803
  0
LWPOLYLINE
  5
648
330
59F
100
AcDbEntity
  8
TEXT
100
AcDbPolyline
 90
        2
 70
     0
 43
0.0001332181640625
 10
-0.513253931467343
 20
0.0530551492872951
 10
-0.5732021052954668
 20
0.0630465115919803
  0
LWPOLYLINE
  5
649
330
59F
100
AcDbEntity
  8
TEXT
100
AcDbPolyline
 90
        2
 70
     0
 43
0.0001332181640625
 10
-0.7264029939673442
 20
-0.0335366573533316
 10
-0.6664548201392169
 20
0.026411516474794
  0
LWPOLYLINE
  5
64A
330
59F
100
AcDbEntity
  8
TEXT
100
AcDbPolyline
 90
        2
 70
     0
 43
0.0001332181640625
 10
-0.7264029939673442
 20
0.0530551492872951
 10
-0.6664548201392169
 20
0.0630465115919803
  0
LWPOLYLINE
  5
64B
330
59F
100
AcDbEntity
  8
TEXT
100
AcDbPolyline
 90
        3
 70
     0
 43
0.0006660908203125
 10
-0.7530466267798417
 20
0.0530551492872951
 10
-0.7530466267798417
 20
-0.0601802901658326
 10
-0.6398111873267194
 20
-0.0601802901658326
  0
LWPOLYLINE
  5
64C
330
59F
100
AcDbEntity
  8
TEXT
100
AcDbPolyline
 90
        3
 70
     0
 43
0.0006660908203125
 10
-0.7264029939673442
 20
0.0530551492872951
 10
-0.7264029939673442
 20
-0.0335366573533316
 10
-0.6398111873267194
 20
-0.0335366573533316
  0
LWPOLYLINE
  5
64D
330
59F
100
AcDbEntity
  8
TEXT
100
AcDbPolyline
 90
        5
 70
     0
 43
0.0001332181640625
 10
-0.6298198250220289
 20
0.0130897000685435
 10
-0.6298198250220289
 20
0.026411516474794
 10
-0.6664548201392169
 20
0.026411516474794
 10
-0.6664548201392169
 20
0.0630465115919803
 10
-0.6797766365454674
 20
0.0630465115919803
  0
LWPOLYLINE
  5
64E
330
59F
100
AcDbEntity
  8
TEXT
100
AcDbPolyline
 90
        2
 70
     0
 43
0.0006660908203125
 10
-0.7264029939673442
 20
0.0530551492872951
 10
-0.7530466267798417
 20
0.0530551492872951
  0
LWPOLYLINE
  5
64F
330
59F
100
AcDbEntity
  8
TEXT
100
AcDbPolyline
 90
        2
 70
     0
 43
0.0001332181640625
 10
-0.6797766365454674
 20
0.0630465115919803
 10
-0.7530466267798417
 20
0.0530551492872951
  0
LWPOLYLINE
  5
650
330
59F
100
AcDbEntity
  8
TEXT
100
AcDbPolyline
 90
        2
 70
     0
 43
0.0006660908203125
 10
-0.6398111873267194
 20
-0.0335366573533316
 10
-0.6398111873267194
 20
-0.0601802901658326
  0
LWPOLYLINE
  5
651
330
59F
100
AcDbEntity
  8
TEXT
100
AcDbPolyline
 90
        2
 70
     0
 43
0.0001332181640625
 10
-0.6398111873267194
 20
-0.0335366573533316
 10
-0.6298198250220289
 20
0.026411516474794
  0
LWPOLYLINE
  5
652
330
59F
100
AcDbEntity
  8
TEXT
100
AcDbPolyline
 90
        2
 70
     0
 43
0.0001332181640625
 10
-0.6398111873267194
 20
-0.0601802901658326
 10
-0.6298198250220289
 20
0.0130897000685435
  0
LWPOLYLINE
  5
653
330
59F
100
AcDbEntity
  8
TEXT
100
AcDbPolyline
 90
        2
 70
     0
 43
0.0001332181640625
 10
-0.5998457381079679
 20
-0.0335366573533316
 10
-0.6098371004126566
 20
0.026411516474794
  0
LWPOLYLINE
  5
654
330
59F
100
AcDbEntity
  8
TEXT
100
AcDbPolyline
 90
        2
 70
     0
 43
0.0001332181640625
 10
-0.6098371004126566
 20
0.0130897000685435
 10
-0.5998457381079679
 20
-0.0601802901658326
  0
LWPOLYLINE
  5
655
330
59F
100
AcDbEntity
  8
TEXT
100
AcDbPolyline
 90
        2
 70
     0
 43
0.0006660908203125
 10
-0.5998457381079679
 20
-0.0335366573533316
 10
-0.5998457381079679
 20
-0.0601802901658326
  0
LWPOLYLINE
  5
656
330
59F
100
AcDbEntity
  8
TEXT
100
AcDbPolyline
 90
        5
 70
     0
 43
0.0001332181640625
 10
-0.5598802888892181
 20
0.0630465115919803
 10
-0.5732021052954668
 20
0.0630465115919803
 10
-0.5732021052954668
 20
0.026411516474794
 10
-0.6098371004126566
 20
0.026411516474794
 10
-0.6098371004126566
 20
0.0130897000685435
  0
LWPOLYLINE
  5
657
330
59F
100
AcDbEntity
  8
TEXT
100
AcDbPolyline
 90
        2
 70
     0
 43
0.0006660908203125
 10
-0.513253931467343
 20
0.0530551492872951
 10
-0.486610298654842
 20
0.0530551492872951
  0
LWPOLYLINE
  5
658
330
59F
100
AcDbEntity
  8
TEXT
100
AcDbPolyline
 90
        3
 70
     0
 43
0.0006660908203125
 10
-0.486610298654842
 20
0.0930205985060431
 10
-0.486610298654842
 20
0.2062560379591707
 10
-0.5998457381079679
 20
0.2062560379591707
  0
LWPOLYLINE
  5
659
330
59F
100
AcDbEntity
  8
TEXT
100
AcDbPolyline
 90
        3
 70
     0
 43
0.0006660908203125
 10
-0.513253931467343
 20
0.0930205985060431
 10
-0.513253931467343
 20
0.1796124051466696
 10
-0.5998457381079679
 20
0.1796124051466696
  0
LWPOLYLINE
  5
65A
330
59F
100
AcDbEntity
  8
TEXT
100
AcDbPolyline
 90
        2
 70
     0
 43
0.0001332181640625
 10
-0.5598802888892181
 20
0.0830292362013543
 10
-0.486610298654842
 20
0.0930205985060431
  0
LWPOLYLINE
  5
65B
330
59F
100
AcDbEntity
  8
TEXT
100
AcDbPolyline
 90
        2
 70
     0
 43
0.0001332181640625
 10
-0.513253931467343
 20
0.0930205985060431
 10
-0.5732021052954668
 20
0.0830292362013543
  0
LWPOLYLINE
  5
65C
330
59F
100
AcDbEntity
  8
TEXT
100
AcDbPolyline
 90
        2
 70
     0
 43
0.0001332181640625
 10
-0.513253931467343
 20
0.1796124051466696
 10
-0.5732021052954668
 20
0.1196642313185441
  0
LWPOLYLINE
  5
65D
330
59F
100
AcDbEntity
  8
TEXT
100
AcDbPolyline
 90
        2
 70
     0
 43
0.0001332181640625
 10
-0.7264029939673442
 20
0.1796124051466696
 10
-0.6664548201392187
 20
0.1196642313185441
  0
LWPOLYLINE
  5
65E
330
59F
100
AcDbEntity
  8
TEXT
100
AcDbPolyline
 90
        2
 70
     0
 43
0.0001332181640625
 10
-0.7264029939673442
 20
0.0930205985060431
 10
-0.6664548201392187
 20
0.0830292362013543
  0
LWPOLYLINE
  5
65F
330
59F
100
AcDbEntity
  8
TEXT
100
AcDbPolyline
 90
        3
 70
     0
 43
0.0006660908203125
 10
-0.6398111873267194
 20
0.2062560379591707
 10
-0.7530466267798417
 20
0.2062560379591707
 10
-0.7530466267798417
 20
0.0930205985060431
  0
LWPOLYLINE
  5
660
330
59F
100
AcDbEntity
  8
TEXT
100
AcDbPolyline
 90
        3
 70
     0
 43
0.0006660908203125
 10
-0.6398111873267194
 20
0.1796124051466696
 10
-0.7264029939673442
 20
0.1796124051466696
 10
-0.7264029939673442
 20
0.0930205985060431
  0
LWPOLYLINE
  5
661
330
59F
100
AcDbEntity
  8
TEXT
100
AcDbPolyline
 90
        5
 70
     0
 43
0.0001332181640625
 10
-0.6797766365454674
 20
0.0830292362013543
 10
-0.6664548201392187
 20
0.0830292362013543
 10
-0.6664548201392187
 20
0.1196642313185441
 10
-0.6298198250220289
 20
0.1196642313185441
 10
-0.6298198250220289
 20
0.1329860477247911
  0
LWPOLYLINE
  5
662
330
59F
100
AcDbEntity
  8
TEXT
100
AcDbPolyline
 90
        2
 70
     0
 43
0.0001332181640625
 10
-0.7530466267798417
 20
0.0930205985060431
 10
-0.6797766365454674
 20
0.0830292362013543
  0
LWPOLYLINE
  5
663
330
59F
100
AcDbEntity
  8
TEXT
100
AcDbPolyline
 90
        2
 70
     0
 43
0.0006660908203125
 10
-0.7264029939673442
 20
0.0930205985060431
 10
-0.7530466267798417
 20
0.0930205985060431
  0
LWPOLYLINE
  5
664
330
59F
100
AcDbEntity
  8
TEXT
100
AcDbPolyline
 90
        2
 70
     0
 43
0.0006660908203125
 10
-0.6398111873267194
 20
0.1796124051466696
 10
-0.6398111873267194
 20
0.2062560379591707
  0
LWPOLYLINE
  5
665
330
59F
100
AcDbEntity
  8
TEXT
100
AcDbPolyline
 90
        2
 70
     0
 43
0.0001332181640625
 10
-0.6298198250220289
 20
0.1329860477247911
 10
-0.6398111873267194
 20
0.2062560379591707
  0
LWPOLYLINE
  5
666
330
59F
100
AcDbEntity
  8
TEXT
100
AcDbPolyline
 90
        2
 70
     0
 43
0.0001332181640625
 10
-0.6398111873267194
 20
0.1796124051466696
 10
-0.6298198250220289
 20
0.1196642313185441
  0
LWPOLYLINE
  5
667
330
59F
100
AcDbEntity
  8
TEXT
100
AcDbPolyline
 90
        5
 70
     0
 43
0.0001332181640625
 10
-0.6098371004126566
 20
0.1329860477247911
 10
-0.6098371004126566
 20
0.1196642313185441
 10
-0.5732021052954668
 20
0.1196642313185441
 10
-0.5732021052954668
 20
0.0830292362013543
 10
-0.5598802888892181
 20
0.0830292362013543
  0
LWPOLYLINE
  5
668
330
59F
100
AcDbEntity
  8
TEXT
100
AcDbPolyline
 90
        2
 70
     0
 43
0.0006660908203125
 10
-0.5998457381079679
 20
0.1796124051466696
 10
-0.5998457381079679
 20
0.2062560379591707
  0
LWPOLYLINE
  5
669
330
59F
100
AcDbEntity
  8
TEXT
100
AcDbPolyline
 90
        2
 70
     0
 43
0.0001332181640625
 10
-0.5998457381079679
 20
0.1796124051466696
 10
-0.6098371004126566
 20
0.1196642313185441
  0
LWPOLYLINE
  5
66A
330
59F
100
AcDbEntity
  8
TEXT
100
AcDbPolyline
 90
        2
 70
     0
 43
0.0001332181640625
 10
-0.5998457381079679
 20
0.2062560379591707
 10
-0.6098371004126566
 20
0.1329860477247911
  0
LWPOLYLINE
  5
66B
330
59F
100
AcDbEntity
  8
TEXT
100
AcDbPolyline
 90
        2
 70
     0
 43
0.0006660908203125
 10
-0.513253931467343
 20
0.0930205985060431
 10
-0.486610298654842
 20
0.0930205985060431
  0
LINE
  5
66C
330
59F
100
AcDbEntity
  8
TEXT
100
AcDbLine
 10
0.134869916000345
 20
-0.0402584889243309
 30
0.0
 11
0.2321696220937897
 21
0.1240917220109372
 31
0.0
  0
LINE
  5
66D
330
59F
100
AcDbEntity
  8
TEXT
100
AcDbLine
 10
0.1444701529972994
 20
0.1053840418460465
 30
0.0
 11
0.0858398319653615
 21
0.2062560379591671
 31
0.0
  0
LINE
  5
66E
330
59F
100
AcDbEntity
  8
TEXT
100
AcDbLine
 10
-0.0495905077778458
 20
0.1419793433024017
 30
0.0
 11
-0.0495905077778458
 21
-0.000424603691294
 31
0.0
  0
LWPOLYLINE
  5
66F
330
59F
100
AcDbEntity
  8
TEXT
100
AcDbPolyline
 90
        6
 70
     1
 43
0.0
 10
0.0468199032774095
 20
0.1419793433024017
 10
0.0165033090572013
 20
0.1419793433024017
 10
0.0165033090572013
 20
0.0188683452475074
 42
0.407328721240804
 10
0.0280469602186777
 20
0.0070494305711213
 10
0.0886686592634085
 20
0.0070494305711213
 10
0.1061339996707264
 20
0.0398616596146004
  0
ARC
  5
670
330
59F
100
AcDbEntity
  8
TEXT
100
AcDbCircle
 10
-0.2217334919210643
 20
0.1241685785126654
 30
0.0
 40
0.0820874594465043
100
AcDbArc
 50
90.0
 51
270.0
  0
ARC
  5
671
330
59F
100
AcDbEntity
  8
TEXT
100
AcDbCircle
 10
-0.1508960255625151
 20
0.0229788133312132
 30
0.0
 40
0.0831958083605586
100
AcDbArc
 50
270.0
 51
90.0
  0
LINE
  5
672
330
59F
100
AcDbEntity
  8
TEXT
100
AcDbLine
 10
-0.2217334919210643
 20
0.0420811190661601
 30
0.0
 11
-0.1459556516562355
 21
0.0420811190661601
 31
0.0
  0
LINE
  5
673
330
59F
100
AcDbEntity
  8
TEXT
100
AcDbLine
 10
-0.3038209513675678
 20
-0.0602169950293439
 30
0.0
 11
-0.1508960255625151
 21
-0.0602169950293439
 31
0.0
  0
LINE
  5
674
330
59F
100
AcDbEntity
  8
TEXT
100
AcDbLine
 10
-0.1459556516562355
 20
0.0081400113040955
 30
0.0
 11
-0.3038209513675696
 21
0.0081400113040955
 31
0.0
  0
LINE
  5
675
330
59F
100
AcDbEntity
  8
TEXT
100
AcDbLine
 10
-0.3038209513675696
 20
0.0081400113040955
 30
0.0
 11
-0.3038209513675678
 21
-0.0602169950293439
 31
0.0
  0
ARC
  5
676
330
59F
100
AcDbEntity
  8
TEXT
100
AcDbCircle
 10
-0.1459556516562355
 20
0.0251105651851296
 30
0.0
 40
0.0169705538810321
100
AcDbArc
 50
270.0
 51
90.0
  0
LINE
  5
677
330
59F
100
AcDbEntity
  8
TEXT
100
AcDbLine
 10
0.0042960997022599
 20
-0.0602169950293439
 30
0.0
 11
0.1009363507772543
 21
-0.0599463559310616
 31
0.0
  0
ARC
  5
678
330
59F
100
AcDbEntity
  8
TEXT
100
AcDbCircle
 10
0.0105255101959063
 20
-0.000424603691294
 30
0.0
 40
0.0601160179737537
100
AcDbArc
 50
180.0000000000003
 51
264.0521544866073
  0
ARC
  5
679
330
59F
100
AcDbEntity
  8
TEXT
100
AcDbCircle
 10
0.1008263560881311
 20
-0.0206692727556481
 30
0.0
 40
0.0392772371940762
100
AcDbArc
 50
270.1604552698595
 51
330.0831797321295
  0
LINE
  5
67A
330
59F
100
AcDbEntity
  8
TEXT
100
AcDbLine
 10
-0.2164961618068162
 20
0.1419793433024017
 30
0.0
 11
-0.0495905077778458
 21
0.1419793433024017
 31
0.0
  0
LINE
  5
67B
330
59F
100
AcDbEntity
  8
TEXT
100
AcDbLine
 10
-0.0460017390225529
 20
0.2062560379591671
 30
0.0
 11
-0.2217334919210643
 21
0.2062560379591671
 31
0.0
  0
LINE
  5
67C
330
59F
100
AcDbEntity
  8
TEXT
100
AcDbLine
 10
-0.1508960255625151
 20
0.1061746216917738
 30
0.0
 11
-0.2164961618068162
 21
0.1061746216917738
 31
0.0
  0
ARC
  5
67D
330
59F
100
AcDbEntity
  8
TEXT
100
AcDbCircle
 10
-0.2164961618068162
 20
0.1240769824970895
 30
0.0
 40
0.017902360805315
100
AcDbArc
 50
90.0
 51
270.0
  0
LINE
  5
67E
330
59F
100
AcDbEntity
  8
TEXT
100
AcDbLine
 10
0.0858398319653615
 20
0.2062560379591671
 30
0.0
 11
0.0140408658214542
 21
0.2062560379591671
 31
0.0
  0
LINE
  5
67F
330
59F
100
AcDbEntity
  8
TEXT
100
AcDbLine
 10
0.0140408658214542
 20
0.2062560379591671
 30
0.0
 11
0.0140408658214542
 21
0.2406439555533053
 31
0.0
  0
LINE
  5
680
330
59F
100
AcDbEntity
  8
TEXT
100
AcDbLine
 10
-0.0460017390225529
 20
0.2406439555533053
 30
0.0
 11
-0.0460017390225529
 21
0.2062560379591671
 31
0.0
  0
LINE
  5
681
330
59F
100
AcDbEntity
  8
TEXT
100
AcDbLine
 10
0.0140408658214542
 20
0.2406439555533053
 30
0.0
 11
-0.0460017390225529
 21
0.2406439555533053
 31
0.0
  0
LINE
  5
682
330
59F
100
AcDbEntity
  8
TEXT
100
AcDbLine
 10
0.5237393641296367
 20
-0.0602169950293439
 30
0.0
 11
0.5237393641296367
 21
0.1419793433024017
 31
0.0
  0
LINE
  5
683
330
59F
100
AcDbEntity
  8
TEXT
100
AcDbLine
 10
0.4566813173477966
 20
0.1344255541362918
 30
0.0
 11
0.4566813173477966
 21
-0.0602169950293439
 31
0.0
  0
LINE
  5
684
330
59F
100
AcDbEntity
  8
TEXT
100
AcDbLine
 10
0.3001493411629061
 20
0.0221708430736554
 30
0.0
 11
0.3001493411629061
 21
0.2742675156979777
 31
0.0
  0
LINE
  5
685
330
59F
100
AcDbEntity
  8
TEXT
100
AcDbLine
 10
0.3324611953005663
 20
0.2062560379591671
 30
0.0
 11
0.3324611953005663
 21
0.0053918312267589
 31
0.0
  0
LINE
  5
686
330
59F
100
AcDbEntity
  8
TEXT
100
AcDbLine
 10
0.3992922483585355
 20
-0.0602169950293439
 30
0.0
 11
0.3992922483585355
 21
0.1419793433024017
 31
0.0
  0
LINE
  5
687
330
59F
100
AcDbEntity
  8
TEXT
100
AcDbLine
 10
0.2321696220937897
 20
0.1240917220109372
 30
0.0
 11
0.2321696220937897
 21
-0.0086656528144191
 31
0.0
  0
LINE
  5
688
330
59F
100
AcDbEntity
  8
TEXT
100
AcDbLine
 10
0.3012889146591009
 20
-0.0602169950293439
 30
0.0
 11
0.3992922483585355
 21
-0.0602169950293439
 31
0.0
  0
LWPOLYLINE
  5
689
330
59F
100
AcDbEntity
  8
TEXT
100
AcDbPolyline
 90
        2
 70
     0
 43
0.0
 10
0.2321696220937888
 20
-0.0086656528144156
 42
0.3318488747599744
 10
0.3012889146591018
 20
-0.0602169950293439
 42
-6.868794160588311
  0
ARC
  5
68A
330
59F
100
AcDbEntity
  8
TEXT
100
AcDbCircle
 10
0.3154675584159641
 20
0.0207736374701844
 30
0.0
 40
0.0153818062434269
100
AcDbArc
 50
174.7883570302258
 51
270.0
  0
LINE
  5
68B
330
59F
100
AcDbEntity
  8
TEXT
100
AcDbLine
 10
0.3324611953005663
 20
0.0053918312267589
 30
0.0
 11
0.315467558415965
 21
0.0053918312267589
 31
0.0
  0
LINE
  5
68C
330
59F
100
AcDbEntity
  8
TEXT
100
AcDbLine
 10
0.4566813173477966
 20
-0.0602169950293439
 30
0.0
 11
0.5237393641296367
 21
-0.0602169950293439
 31
0.0
  0
LINE
  5
68D
330
59F
100
AcDbEntity
  8
TEXT
100
AcDbLine
 10
0.4664792512317027
 20
0.2062560379591671
 30
0.0
 11
0.3324611953005663
 21
0.2062560379591671
 31
0.0
  0
LINE
  5
68E
330
59F
100
AcDbEntity
  8
TEXT
100
AcDbLine
 10
0.2333406285965411
 20
0.2742675156979777
 30
0.0
 11
0.2333406285965411
 21
0.2062560379591671
 31
0.0
  0
LINE
  5
68F
330
59F
100
AcDbEntity
  8
TEXT
100
AcDbLine
 10
0.2333406285965411
 20
0.2062560379591671
 30
0.0
 11
0.2032187158031649
 21
0.2062560379591671
 31
0.0
  0
LINE
  5
690
330
59F
100
AcDbEntity
  8
TEXT
100
AcDbLine
 10
0.2032187158031649
 20
0.2062560379591671
 30
0.0
 11
0.1444701529972994
 21
0.1053840418460465
 31
0.0
  0
LINE
  5
691
330
59F
100
AcDbEntity
  8
TEXT
100
AcDbLine
 10
0.3001493411629061
 20
0.2742675156979777
 30
0.0
 11
0.2333406285965411
 21
0.2742675156979777
 31
0.0
  0
LWPOLYLINE
  5
692
330
59F
100
AcDbEntity
  8
TEXT
100
AcDbPolyline
 90
        2
 70
     0
 43
0.0
 10
0.4664792512317036
 20
0.2062560379591707
 42
-0.3328679258950098
 10
0.502260941944865
 20
0.1790885411982748
 42
6.772930709997214
  0
LINE
  5
693
330
59F
100
AcDbEntity
  8
TEXT
100
AcDbLine
 10
0.3992922483585355
 20
0.1419793433024017
 30
0.0
 11
0.4491275281816831
 21
0.1419793433024017
 31
0.0
  0
LWPOLYLINE
  5
694
330
59F
100
AcDbEntity
  8
TEXT
100
AcDbPolyline
 90
        2
 70
     0
 43
0.0
 10
0.4491275281816823
 20
0.1419793433024017
 42
-0.4142135623731017
 10
0.4566813173477958
 20
0.1344255541362918
 42
-0.9999999999999998
  0
LWPOLYLINE
  5
695
330
59F
100
AcDbEntity
  8
TEXT
100
AcDbPolyline
 90
        2
 70
     0
 43
0.0
 10
0.577872961050586
 20
0.1419793433024017
 42
-0.4142135623731017
 10
0.5854267502166995
 20
0.1344255541362918
 42
-0.9999999999999998
  0
LINE
  5
696
330
59F
100
AcDbEntity
  8
TEXT
100
AcDbLine
 10
0.5237393641296367
 20
0.1419793433024017
 30
0.0
 11
0.5778729610505869
 21
0.1419793433024017
 31
0.0
  0
TEXT
  5
697
330
59F
100
AcDbEntity
  8
TEXT
100
AcDbText
 10
1.402907065287466
 20
-0.0605896133501398
 30
0.0
 40
0.0522247191011236
  1
Phone  1-800-328-2495
 41
1.272321428571429
 72
     5
 11
2.73183964955713
 21
-0.0605896133501398
 31
0.0
100
AcDbText
  0
TEXT
  5
698
330
59F
100
AcDbEntity
  8
TEXT
100
AcDbText
 10
1.402907065287466
 20
0.2191856675487367
 30
0.0
 40
0.0522247191011236
  1
Stylmark  Incorporated
 41
1.221428571428571
 72
     5
 11
2.73183964955713
 21
0.2191856675487367
 31
0.0
100
AcDbText
  0
TEXT
  5
699
330
59F
100
AcDbEntity
  8
TEXT
100
AcDbText
 10
1.402907065287466
 20
0.1259272405824445
 30
0.0
 40
0.0522247191011236
  1
6536 Main St. N.E. * P.O. Box 32008
 41
0.8388932496075353
 72
     5
 11
2.73183964955713
 21
0.1259272405824445
 31
0.0
100
AcDbText
  0
TEXT
  5
69A
330
59F
100
AcDbEntity
  8
TEXT
100
AcDbText
 10
1.402907065287466
 20
0.0326688136161524
 30
0.0
 40
0.0522247191011236
  1
Minneapolis, MN 55432-0008
 41
1.11444212721585
 72
     5
 11
2.73183964955713
 21
0.0326688136161524
 31
0.0
100
AcDbText
  0
LINE
  5
69B
330
59F
100
AcDbEntity
  8
TEXT
100
AcDbLine
 10
1.097818378504544
 20
0.2717202437267678
 30
0.0
 11
1.029503499955271
 21
0.2717202437267678
 31
0.0
  0
LINE
  5
69C
330
59F
100
AcDbEntity
  8
TEXT
100
AcDbLine
 10
1.033983387281771
 20
-0.0602169950293439
 30
0.0
 11
1.098361571600391
 21
-0.0602169950293439
 31
0.0
  0
LINE
  5
69D
330
59F
100
AcDbEntity
  8
TEXT
100
AcDbLine
 10
1.033983387281765
 20
0.1419793433024017
 30
0.0
 11
1.033983387281771
 21
-0.0602169950293439
 31
0.0
  0
LINE
  5
69E
330
59F
100
AcDbEntity
  8
TEXT
100
AcDbLine
 10
0.9324295307065488
 20
-0.0602169950293439
 30
0.0
 11
0.9324295307065435
 21
0.1170735104021245
 31
0.0
  0
LWPOLYLINE
  5
69F
330
59F
100
AcDbEntity
  8
TEXT
100
AcDbPolyline
 90
        2
 70
     0
 43
0.0
 10
0.8740743168712139
 20
-0.0167260500789057
 42
-0.2901071551932486
 10
0.8309983840035695
 20
-0.0602169950293439
 42
-5.328517124445184
  0
LWPOLYLINE
  5
6A0
330
59F
100
AcDbEntity
  8
TEXT
100
AcDbPolyline
 90
        4
 70
     1
 43
0.0
 10
0.8108759189336769
 20
0.0427469829546814
 10
0.7222156002738185
 20
0.0427469829546814
 42
0.9999999999999998
 10
0.7222156002738185
 20
0.0003484424508207
 10
0.8108759189336769
 20
0.0003484424508207
 42
1.0
  0
LWPOLYLINE
  5
6A1
330
59F
100
AcDbEntity
  8
TEXT
100
AcDbPolyline
 90
        2
 70
     0
 43
0.0
 10
0.6969809663721929
 20
-0.0602169950293439
 10
0.8309983840035695
 20
-0.0602169950293439
 42
0.9999999999999998
  0
LWPOLYLINE
  5
6A2
330
59F
100
AcDbEntity
  8
TEXT
100
AcDbPolyline
 90
        2
 70
     0
 43
0.0
 10
0.6539050335045573
 20
-0.0167260500789057
 42
0.2901071551932823
 10
0.6969809663721929
 20
-0.0602169950293439
 42
5.328517124445801
  0
LWPOLYLINE
  5
6A3
330
59F
100
AcDbEntity
  8
TEXT
100
AcDbPolyline
 90
        2
 70
     0
 43
0.0
 10
0.8740743168712139
 20
-0.0167260500789057
 10
0.8740743168712139
 20
-0.0602169950293439
  0
LWPOLYLINE
  5
6A4
330
59F
100
AcDbEntity
  8
TEXT
100
AcDbPolyline
 90
        2
 70
     0
 43
0.0
 10
0.8740743168712139
 20
-0.0602169950293439
 10
0.9324295307065479
 20
-0.0602169950293439
  0
LINE
  5
6A5
330
59F
100
AcDbEntity
  8
TEXT
100
AcDbLine
 10
0.8701346395661753
 20
0.1010440594057398
 30
0.0
 11
0.8263838683842736
 21
0.183294335401885
 31
0.0
  0
LINE
  5
6A6
330
59F
100
AcDbEntity
  8
TEXT
100
AcDbLine
 10
0.7621438023466558
 20
0.1419793433024017
 30
0.0
 11
0.6549375289593664
 21
0.1419793433024017
 31
0.0
  0
LINE
  5
6A7
330
59F
100
AcDbEntity
  8
TEXT
100
AcDbLine
 10
0.7156568878673939
 20
0.1047043698402694
 30
0.0
 11
0.7979448776507772
 21
0.1047043698402694
 31
0.0
  0
LINE
  5
6A8
330
59F
100
AcDbEntity
  8
TEXT
100
AcDbLine
 10
0.7911747006911343
 20
0.2062560379591671
 30
0.0
 11
0.6563427914740752
 21
0.2062560379591671
 31
0.0
  0
LINE
  5
6A9
330
59F
100
AcDbEntity
  8
TEXT
100
AcDbLine
 10
0.6549375289593664
 20
0.1419793433024017
 30
0.0
 11
0.6549375289593664
 21
0.0669269372281951
 31
0.0
  0
ARC
  5
6AA
330
59F
100
AcDbEntity
  8
TEXT
100
AcDbCircle
 10
0.715656887867393
 20
0.0370187886961508
 30
0.0
 40
0.0676855811441166
100
AcDbArc
 50
90.0
 51
153.7768192527749
  0
LINE
  5
6AB
330
59F
100
AcDbEntity
  8
TEXT
100
AcDbLine
 10
0.6563427914740752
 20
0.2062560379591671
 30
0.0
 11
0.6563427914740752
 21
0.1779334921895233
 31
0.0
  0
LWPOLYLINE
  5
6AC
330
59F
100
AcDbEntity
  8
TEXT
100
AcDbPolyline
 90
        2
 70
     0
 43
0.0
 10
0.6205611007609094
 20
0.2062560379591707
 42
-0.3277054968067132
 10
0.6563427914740743
 20
0.1779334921895268
 42
6.667889725900311
  0
ARC
  5
6AD
330
59F
100
AcDbEntity
  8
TEXT
100
AcDbCircle
 10
0.7621438023466549
 20
0.1136199683024044
 30
0.0
 40
0.028359375
100
AcDbArc
 50
25.78218179591245
 51
90.0
  0
LINE
  5
6AE
330
59F
100
AcDbEntity
  8
TEXT
100
AcDbLine
 10
0.7979448776507772
 20
0.1047043698402694
 30
0.0
 11
0.7876801172372128
 21
0.1259549094129637
 31
0.0
  0
ARC
  5
6AF
330
59F
100
AcDbEntity
  8
TEXT
100
AcDbCircle
 10
0.7891477609140658
 20
0.1646724708382647
 30
0.0
 40
0.0416329381542859
100
AcDbArc
 50
26.56974201007528
 51
87.20939649401342
  0
LINE
  5
6B0
330
59F
100
AcDbEntity
  8
TEXT
100
AcDbLine
 10
1.029503499955271
 20
0.2717202437267678
 30
0.0
 11
1.029503499955265
 21
0.2062560379591671
 31
0.0
  0
LINE
  5
6B1
330
59F
100
AcDbEntity
  8
TEXT
100
AcDbLine
 10
1.029503499955265
 20
0.2062560379591671
 30
0.0
 11
0.9620037823057492
 21
0.2062560379591671
 31
0.0
  0
LINE
  5
6B2
330
59F
100
AcDbEntity
  8
TEXT
100
AcDbLine
 10
0.957335405989208
 20
0.1419793433024017
 30
0.0
 11
1.033983387281765
 21
0.1419793433024017
 31
0.0
  0
LINE
  5
6B3
330
59F
100
AcDbEntity
  8
TEXT
100
AcDbLine
 10
0.9340315458656762
 20
0.1787083880982925
 30
0.0
 11
0.9340315458656762
 21
0.2062560379591671
 31
0.0
  0
ARC
  5
6B4
330
59F
100
AcDbEntity
  8
TEXT
100
AcDbCircle
 10
0.9652243629287848
 20
0.1750103106769023
 30
0.0
 40
0.0314112657011332
100
AcDbArc
 50
95.88484768694724
 51
173.2388340632136
  0
ARC
  5
6B5
330
59F
100
AcDbEntity
  8
TEXT
100
AcDbCircle
 10
0.9573354059892071
 20
0.1170734680197389
 30
0.0
 40
0.0249058752826653
100
AcDbArc
 50
89.99971217465335
 51
179.9999999999985
  0
LINE
  5
6B6
330
59F
100
AcDbEntity
  8
TEXT
100
AcDbLine
 10
0.8701346395661753
 20
0.2062560379591671
 30
0.0
 11
0.8701346395661753
 21
0.1010440594057398
 31
0.0
  0
LINE
  5
6B7
330
59F
100
AcDbEntity
  8
TEXT
100
AcDbLine
 10
0.9340315458656762
 20
0.2062560379591671
 30
0.0
 11
0.8701346395661753
 21
0.2062560379591671
 31
0.0
  0
LINE
  5
6B8
330
59F
100
AcDbEntity
  8
TEXT
100
AcDbLine
 10
1.098361571600391
 20
0.0713625734468364
 30
0.0
 11
1.174265104811856
 21
-0.0602169950293439
 31
0.0
  0
LINE
  5
6B9
330
59F
100
AcDbEntity
  8
TEXT
100
AcDbLine
 10
1.098361571600391
 20
-0.0602169950293439
 30
0.0
 11
1.098361571600391
 21
0.0713625734468364
 31
0.0
  0
LINE
  5
6BA
330
59F
100
AcDbEntity
  8
TEXT
100
AcDbLine
 10
1.250843477188062
 20
-0.0602169950293439
 30
0.0
 11
1.155351253824451
 21
0.0963627950181936
 31
0.0
  0
LINE
  5
6BB
330
59F
100
AcDbEntity
  8
TEXT
100
AcDbLine
 10
1.174265104811856
 20
-0.0602169950293439
 30
0.0
 11
1.250843477188062
 21
-0.0602169950293439
 31
0.0
  0
LINE
  5
6BC
330
59F
100
AcDbEntity
  8
TEXT
100
AcDbLine
 10
1.097818378504544
 20
0.130390711547629
 30
0.0
 11
1.097818378504544
 21
0.2717202437267678
 31
0.0
  0
LINE
  5
6BD
330
59F
100
AcDbEntity
  8
TEXT
100
AcDbLine
 10
1.219908369790156
 20
0.2062560379591671
 30
0.0
 11
1.14491653706053
 21
0.2062560379591671
 31
0.0
  0
LINE
  5
6BE
330
59F
100
AcDbEntity
  8
TEXT
100
AcDbLine
 10
1.155351253824451
 20
0.0963627950181936
 30
0.0
 11
1.219908369790156
 21
0.2062560379591671
 31
0.0
  0
LINE
  5
6BF
330
59F
100
AcDbEntity
  8
TEXT
100
AcDbLine
 10
1.144916537060528
 20
0.2062560379591671
 30
0.0
 11
1.097818378504544
 21
0.130390711547629
 31
0.0
  0
ENDSEC
  0
SECTION
  2
OBJECTS
  0
DICTIONARY
  5
593
330
0
100
AcDbDictionary
  3
ACAD_GROUP
350
594
  3
ACAD_LAYOUT
350
6C4
  3
ACAD_MLINESTYLE
350
595
  3
ACAD_PLOTSETTINGS
350
6C5
  3
ACAD_PLOTSTYLENAME
350
6C2
  3
ACDBHEADERROUNDTRIPXREC
350
6D0
  3
ACDBVARIABLEDICTIONARY
350
6CD
  0
DICTIONARY
  5
6F2
330
59F
100
AcDbDictionary
280
     1
  3
ACAD_LAYOUTSELFREF
360
6F3
  0
DICTIONARY
  5
6F0
330
59C
100
AcDbDictionary
280
     1
  3
ACAD_LAYOUTSELFREF
360
6F1
  0
DICTIONARY
  5
594
102
{ACAD_REACTORS
330
593
102
}
330
593
100
AcDbDictionary
  0
DICTIONARY
  5
6C4
102
{ACAD_REACTORS
330
593
102
}
330
593
100
AcDbDictionary
  0
DICTIONARY
  5
595
102
{ACAD_REACTORS
330
593
102
}
330
593
100
AcDbDictionary
  3
STANDARD
350
5A2
  0
DICTIONARY
  5
6C5
102
{ACAD_REACTORS
330
593
102
}
330
593
100
AcDbDictionary
  0
ACDBDICTIONARYWDFLT
  5
6C2
102
{ACAD_REACTORS
330
593
102
}
330
593
100
AcDbDictionary
281
     1
  3
Normal
350
6C3
100
AcDbDictionaryWithDefault
340
6C3
  0
DICTIONARY
  5
6D0
102
{ACAD_REACTORS
330
593
102
}
330
593
100
AcDbDictionary
  3
CEPSNTYPE
350
6DA
  3
FINGERPRINTGUID
350
6DB
  3
HYPERLINKBASE
350
6D3
  3
INSUNITS
350
6D9
  3
LAYOUTDICT
350
6D5
  3
LWETCUNION
350
6D8
  3
PLOTSETDICT
350
6D6
  3
PLOTSTYLNAMDICT
350
6D7
  3
PSVPSCALE
350
6DD
  3
PUCSBASE
350
6E0
  3
PUCSORGBACK
350
6E6
  3
PUCSORGBOTTOM
350
6E2
  3
PUCSORGFRONT
350
6E5
  3
PUCSORGLEFT
350
6E3
  3
PUCSORGRIGHT
350
6E4
  3
PUCSORGTOP
350
6E1
  3
PUCSORTHOREF
350
6DE
  3
PUCSORTHOVIEW
350
6DF
  3
STYLESHEET
350
6D4
  3
TSTACKALIGN
350
6D1
  3
TSTACKSIZE
350
6D2
  3
UCSBASE
350
6E9
  3
UCSORGBACK
350
6EF
  3
UCSORGBOTTOM
350
6EB
  3
UCSORGFRONT
350
6EE
  3
UCSORGLEFT
350
6EC
  3
UCSORGRIGHT
350
6ED
  3
UCSORGTOP
350
6EA
  3
UCSORTHOREF
350
6E7
  3
UCSORTHOVIEW
350
6E8
  3
VERSIONGUID
350
6DC
  0
DICTIONARY
  5
6CD
102
{ACAD_REACTORS
330
593
102
}
330
593
100
AcDbDictionary
  3
DIMASSOC
350
6CE
  0
XRECORD
  5
6F3
102
{ACAD_REACTORS
330
6F2
102
}
330
6F2
100
AcDbXrecord
340
59F
  0
XRECORD
  5
6F1
102
{ACAD_REACTORS
330
6F0
102
}
330
6F0
100
AcDbXrecord
340
59C
  0
MLINESTYLE
  5
5A2
102
{ACAD_REACTORS
330
595
102
}
330
595
100
AcDbMlineStyle
  2
STANDARD
 70
     0
  3

 62
     0
 51
90.0
 52
90.0
 71
     2
 49
0.5
 62
   256
  6
BYLAYER
 49
-0.5
 62
   256
  6
BYLAYER
  0
ACDBPLACEHOLDER
  5
6C3
102
{ACAD_REACTORS
330
6C2
102
}
330
6C2
100
AcDbPlaceHolder
280
     0
  0
XRECORD
  5
6DA
102
{ACAD_REACTORS
330
6D0
102
}
330
6D0
100
AcDbXrecord
 90
        0
  0
XRECORD
  5
6DB
102
{ACAD_REACTORS
330
6D0
102
}
330
6D0
100
AcDbXrecord
  1
{4177DAE0-8DBA-11D6-88E6-0090279574E7}
  0
XRECORD
  5
6D3
102
{ACAD_REACTORS
330
6D0
102
}
330
6D0
100
AcDbXrecord
  1

  0
XRECORD
  5
6D9
102
{ACAD_REACTORS
330
6D0
102
}
330
6D0
100
AcDbXrecord
 90
        0
  0
XRECORD
  5
6D5
102
{ACAD_REACTORS
330
6D0
102
}
330
6D0
100
AcDbXrecord
340
6C4
  0
XRECORD
  5
6D8
102
{ACAD_REACTORS
330
6D0
102
}
330
6D0
100
AcDbXrecord
 90
    14877
  0
XRECORD
  5
6D6
102
{ACAD_REACTORS
330
6D0
102
}
330
6D0
100
AcDbXrecord
340
6C5
  0
XRECORD
  5
6D7
102
{ACAD_REACTORS
330
6D0
102
}
330
6D0
100
AcDbXrecord
340
6C2
  0
XRECORD
  5
6DD
102
{ACAD_REACTORS
330
6D0
102
}
330
6D0
100
AcDbXrecord
 40
0.0
  0
XRECORD
  5
6E0
102
{ACAD_REACTORS
330
6D0
102
}
330
6D0
100
AcDbXrecord
340
0
  0
XRECORD
  5
6E6
102
{ACAD_REACTORS
330
6D0
102
}
330
6D0
100
AcDbXrecord
 10
0.0
 20
0.0
 30
0.0
  0
XRECORD
  5
6E2
102
{ACAD_REACTORS
330
6D0
102
}
330
6D0
100
AcDbXrecord
 10
0.0
 20
0.0
 30
0.0
  0
XRECORD
  5
6E5
102
{ACAD_REACTORS
330
6D0
102
}
330
6D0
100
AcDbXrecord
 10
0.0
 20
0.0
 30
0.0
  0
XRECORD
  5
6E3
102
{ACAD_REACTORS
330
6D0
102
}
330
6D0
100
AcDbXrecord
 10
0.0
 20
0.0
 30
0.0
  0
XRECORD
  5
6E4
102
{ACAD_REACTORS
330
6D0
102
}
330
6D0
100
AcDbXrecord
 10
0.0
 20
0.0
 30
0.0
  0
XRECORD
  5
6E1
102
{ACAD_REACTORS
330
6D0
102
}
330
6D0
100
AcDbXrecord
 10
0.0
 20
0.0
 30
0.0
  0
XRECORD
  5
6DE
102
{ACAD_REACTORS
330
6D0
102
}
330
6D0
100
AcDbXrecord
340
0
  0
XRECORD
  5
6DF
102
{ACAD_REACTORS
330
6D0
102
}
330
6D0
100
AcDbXrecord
 70
     0
  0
XRECORD
  5
6D4
102
{ACAD_REACTORS
330
6D0
102
}
330
6D0
100
AcDbXrecord
  1

  0
XRECORD
  5
6D1
102
{ACAD_REACTORS
330
6D0
102
}
330
6D0
100
AcDbXrecord
 90
        1
  0
XRECORD
  5
6D2
102
{ACAD_REACTORS
330
6D0
102
}
330
6D0
100
AcDbXrecord
 90
       70
  0
XRECORD
  5
6E9
102
{ACAD_REACTORS
330
6D0
102
}
330
6D0
100
AcDbXrecord
340
0
  0
XRECORD
  5
6EF
102
{ACAD_REACTORS
330
6D0
102
}
330
6D0
100
AcDbXrecord
 10
0.0
 20
0.0
 30
0.0
  0
XRECORD
  5
6EB
102
{ACAD_REACTORS
330
6D0
102
}
330
6D0
100
AcDbXrecord
 10
0.0
 20
0.0
 30
0.0
  0
XRECORD
  5
6EE
102
{ACAD_REACTORS
330
6D0
102
}
330
6D0
100
AcDbXrecord
 10
0.0
 20
0.0
 30
0.0
  0
XRECORD
  5
6EC
102
{ACAD_REACTORS
330
6D0
102
}
330
6D0
100
AcDbXrecord
 10
0.0
 20
0.0
 30
0.0
  0
XRECORD
  5
6ED
102
{ACAD_REACTORS
330
6D0
102
}
330
6D0
100
AcDbXrecord
 10
0.0
 20
0.0
 30
0.0
  0
XRECORD
  5
6EA
102
{ACAD_REACTORS
330
6D0
102
}
330
6D0
100
AcDbXrecord
 10
0.0
 20
0.0
 30
0.0
  0
XRECORD
  5
6E7
102
{ACAD_REACTORS
330
6D0
102
}
330
6D0
100
AcDbXrecord
340
0
  0
XRECORD
  5
6E8
102
{ACAD_REACTORS
330
6D0
102
}
330
6D0
100
AcDbXrecord
 70
     0
  0
XRECORD
  5
6DC
102
{ACAD_REACTORS
330
6D0
102
}
330
6D0
100
AcDbXrecord
  1
{4177DAE2-8DBA-11D6-88E6-0090279574E7}
  0
DICTIONARYVAR
  5
6CE
102
{ACAD_REACTORS
330
6CD
102
}
330
6CD
100
DictionaryVariables
280
     0
  1
1
  0
ENDSEC
  0
EOF
