  0
SECTION
  2
HEADER
  9
$ACADVER
  1
AC1014
  9
$ACADMAINTVER
 70
     9
  9
$DWGCODEPAGE
  3
ANSI_1252
  9
$INSBASE
 10
0.0
 20
0.0
 30
0.0
  9
$EXTMIN
 10
-0.6492315792271432
 20
0.3526063959174202
 30
0.0
  9
$EXTMAX
 10
2.835987742519984
 20
1.263750000000001
 30
0.0
  9
$LIMMIN
 10
0.0
 20
0.0
  9
$LIMMAX
 10
18.0
 20
12.0
  9
$ORTHOMODE
 70
     1
  9
$REGENMODE
 70
     1
  9
$FILLMODE
 70
     1
  9
$QTEXTMODE
 70
     0
  9
$MIRRTEXT
 70
     0
  9
$DRAGMODE
 70
     2
  9
$LTSCALE
 40
1.0
  9
$OSMODE
 70
    39
  9
$ATTMODE
 70
     1
  9
$TEXTSIZE
 40
0.125
  9
$TRACEWID
 40
0.05
  9
$TEXTSTYLE
  7
ROMANS
  9
$CLAYER
  8
0
  9
$CELTYPE
  6
BYLAYER
  9
$CECOLOR
 62
   256
  9
$CELTSCALE
 40
1.0
  9
$DELOBJ
 70
     1
  9
$DISPSILH
 70
     1
  9
$DIMSCALE
 40
1.0
  9
$DIMASZ
 40
0.125
  9
$DIMEXO
 40
0.125
  9
$DIMDLI
 40
0.375
  9
$DIMRND
 40
0.0
  9
$DIMDLE
 40
0.0
  9
$DIMEXE
 40
0.125
  9
$DIMTP
 40
0.0
  9
$DIMTM
 40
0.0
  9
$DIMTXT
 40
0.125
  9
$DIMCEN
 40
-0.125
  9
$DIMTSZ
 40
0.0
  9
$DIMTOL
 70
     0
  9
$DIMLIM
 70
     0
  9
$DIMTIH
 70
     1
  9
$DIMTOH
 70
     1
  9
$DIMSE1
 70
     0
  9
$DIMSE2
 70
     0
  9
$DIMTAD
 70
     0
  9
$DIMZIN
 70
     4
  9
$DIMBLK
  1

  9
$DIMASO
 70
     1
  9
$DIMSHO
 70
     1
  9
$DIMPOST
  1

  9
$DIMAPOST
  1

  9
$DIMALT
 70
     0
  9
$DIMALTD
 70
     2
  9
$DIMALTF
 40
25.4
  9
$DIMLFAC
 40
1.0
  9
$DIMTOFL
 70
     0
  9
$DIMTVP
 40
0.0
  9
$DIMTIX
 70
     1
  9
$DIMSOXD
 70
     0
  9
$DIMSAH
 70
     0
  9
$DIMBLK1
  1

  9
$DIMBLK2
  1

  9
$DIMSTYLE
  2
STANDARD
  9
$DIMCLRD
 70
     0
  9
$DIMCLRE
 70
     0
  9
$DIMCLRT
 70
     0
  9
$DIMTFAC
 40
1.0
  9
$DIMGAP
 40
0.09
  9
$DIMJUST
 70
     0
  9
$DIMSD1
 70
     0
  9
$DIMSD2
 70
     0
  9
$DIMTOLJ
 70
     1
  9
$DIMTZIN
 70
     4
  9
$DIMALTZ
 70
     0
  9
$DIMALTTZ
 70
     0
  9
$DIMFIT
 70
     3
  9
$DIMUPT
 70
     0
  9
$DIMUNIT
 70
     2
  9
$DIMDEC
 70
     3
  9
$DIMTDEC
 70
     3
  9
$DIMALTU
 70
     2
  9
$DIMALTTD
 70
     2
  9
$DIMTXSTY
  7
ROMANS
  9
$DIMAUNIT
 70
     0
  9
$LUNITS
 70
     2
  9
$LUPREC
 70
     3
  9
$SKETCHINC
 40
0.1
  9
$FILLETRAD
 40
0.03125
  9
$AUNITS
 70
     0
  9
$AUPREC
 70
     0
  9
$MENU
  1
acad
  9
$ELEVATION
 40
0.0
  9
$PELEVATION
 40
0.0
  9
$THICKNESS
 40
0.0
  9
$LIMCHECK
 70
     0
  9
$BLIPMODE
 70
     0
  9
$CHAMFERA
 40
0.0
  9
$CHAMFERB
 40
0.0
  9
$CHAMFERC
 40
0.0
  9
$CHAMFERD
 40
0.0
  9
$SKPOLY
 70
     0
  9
$TDCREATE
 40
2448999.690449652
  9
$TDUPDATE
 40
2452458.326499548
  9
$TDINDWG
 40
0.0003099421
  9
$TDUSRTIMER
 40
0.0003099421
  9
$USRTIMER
 70
     1
  9
$ANGBASE
 50
0.0
  9
$ANGDIR
 70
     0
  9
$PDMODE
 70
     0
  9
$PDSIZE
 40
0.0
  9
$PLINEWID
 40
0.0
  9
$COORDS
 70
     2
  9
$SPLFRAME
 70
     0
  9
$SPLINETYPE
 70
     6
  9
$SPLINESEGS
 70
     8
  9
$ATTDIA
 70
     0
  9
$ATTREQ
 70
     1
  9
$HANDLING
 70
 22529
  9
$HANDSEED
  5
11B3BD358AA0AF93
  9
$SURFTAB1
 70
     6
  9
$SURFTAB2
 70
     6
  9
$SURFTYPE
 70
     6
  9
$SURFU
 70
     6
  9
$SURFV
 70
     6
  9
$UCSNAME
  2

  9
$UCSORG
 10
0.0
 20
0.0
 30
0.0
  9
$UCSXDIR
 10
1.0
 20
0.0
 30
0.0
  9
$UCSYDIR
 10
0.0
 20
1.0
 30
0.0
  9
$PUCSNAME
  2

  9
$PUCSORG
 10
0.0
 20
0.0
 30
0.0
  9
$PUCSXDIR
 10
1.0
 20
0.0
 30
0.0
  9
$PUCSYDIR
 10
0.0
 20
1.0
 30
0.0
  9
$USERI1
 70
     0
  9
$USERI2
 70
     0
  9
$USERI3
 70
     0
  9
$USERI4
 70
     0
  9
$USERI5
 70
     0
  9
$USERR1
 40
0.0
  9
$USERR2
 40
0.0
  9
$USERR3
 40
0.0
  9
$USERR4
 40
0.0
  9
$USERR5
 40
0.0
  9
$WORLDVIEW
 70
     1
  9
$SHADEDGE
 70
     3
  9
$SHADEDIF
 70
    70
  9
$TILEMODE
 70
     1
  9
$MAXACTVP
 70
    16
  9
$PINSBASE
 10
0.0
 20
0.0
 30
0.0
  9
$PLIMCHECK
 70
     0
  9
$PEXTMIN
 10
1.000000000000000E+20
 20
1.000000000000000E+20
 30
1.000000000000000E+20
  9
$PEXTMAX
 10
-1.000000000000000E+20
 20
-1.000000000000000E+20
 30
-1.000000000000000E+20
  9
$PLIMMIN
 10
0.0
 20
0.0
  9
$PLIMMAX
 10
12.0
 20
9.0
  9
$UNITMODE
 70
     0
  9
$VISRETAIN
 70
     0
  9
$PLINEGEN
 70
     1
  9
$PSLTSCALE
 70
     0
  9
$TREEDEPTH
 70
  3020
  9
$PICKSTYLE
 70
     1
  9
$CMLSTYLE
  2
STANDARD
  9
$CMLJUST
 70
     0
  9
$CMLSCALE
 40
1.0
  9
$PROXYGRAPHICS
 70
     1
  9
$MEASUREMENT
 70
     0
  0
ENDSEC
  0
SECTION
  2
CLASSES
  0
CLASS
  1
LWPOLYLINE
  2
AcDbPolyline
  3
AutoCAD 2000
 90
        0
280
     0
281
     1
  0
CLASS
  1
ACDBDICTIONARYWDFLT
  2
AcDbDictionaryWithDefault
  3
AutoCAD 2000
 90
        0
280
     0
281
     0
  0
CLASS
  1
ACDBPLACEHOLDER
  2
AcDbPlaceHolder
  3
AutoCAD 2000
 90
        0
280
     0
281
     0
  0
CLASS
  1
LAYOUT
  2
AcDbLayout
  3
AutoCAD 2000
 90
        0
280
     0
281
     0
  0
CLASS
  1
DICTIONARYVAR
  2
AcDbDictionaryVar
  3
AutoCAD 2000
 90
        0
280
     0
281
     0
  0
CLASS
  1
LONG_TRANSACTION
  2
AcDbLongTransaction
  3
AutoCAD 2000
 90
        0
280
     0
281
     0
  0
CLASS
  1
LWPOLYLINE
  2
AcDbPolyline
  3
AutoCAD 2000
 90
        0
280
     0
281
     1
  0
CLASS
  1
HATCH
  2
AcDbHatch
  3
AutoCAD 2000
 90
        0
280
     0
281
     1
  0
CLASS
  1
XRECORD
  2
AcDbXrecord
  3
AutoCAD 2000
 90
        0
280
     0
281
     0
  0
ENDSEC
  0
SECTION
  2
TABLES
  0
TABLE
  2
VPORT
  5
11B3BD358AA0AF38
330
0
100
AcDbSymbolTable
 70
     2
  0
VPORT
  5
11B3BD358AA0AF6E
330
11B3BD358AA0AF38
100
AcDbSymbolTableRecord
100
AcDbViewportTableRecord
  2
*ACTIVE
 70
     0
 10
0.0
 20
0.0
 11
1.0
 21
1.0
 12
4.068753053573142
 22
0.8080444554891952
 13
0.0
 23
0.0
 14
0.015625
 24
0.015625
 15
0.0
 25
0.0
 16
0.0
 26
0.0
 36
1.0
 17
0.0
 27
0.0
 37
0.0
 40
2.282078694003312
 41
4.320930232558139
 42
50.0
 43
0.0
 44
0.0
 50
0.0
 51
0.0
 71
     0
 72
  2000
 73
     1
 74
     0
 75
     1
 76
     0
 77
     0
 78
     0
  0
ENDTAB
  0
TABLE
  2
LTYPE
  5
11B3BD358AA0AF35
330
0
100
AcDbSymbolTable
 70
     1
  0
LTYPE
  5
11B3BD358AA0AF42
330
11B3BD358AA0AF35
100
AcDbSymbolTableRecord
100
AcDbLinetypeTableRecord
  2
BYBLOCK
 70
     0
  3

 72
    65
 73
     0
 40
0.0
  0
LTYPE
  5
11B3BD358AA0AF43
330
11B3BD358AA0AF35
100
AcDbSymbolTableRecord
100
AcDbLinetypeTableRecord
  2
BYLAYER
 70
     0
  3

 72
    65
 73
     0
 40
0.0
  0
LTYPE
  5
11B3BD358AA0AF44
330
11B3BD358AA0AF35
100
AcDbSymbolTableRecord
100
AcDbLinetypeTableRecord
  2
CONTINUOUS
 70
     0
  3
Solid line
 72
    65
 73
     0
 40
0.0
  0
ENDTAB
  0
TABLE
  2
LAYER
  5
11B3BD358AA0AF32
330
0
100
AcDbSymbolTable
 70
     2
  0
LAYER
  5
11B3BD358AA0AF3F
330
11B3BD358AA0AF32
100
AcDbSymbolTableRecord
100
AcDbLayerTableRecord
  2
0
 70
     0
 62
     7
  6
CONTINUOUS
  0
LAYER
  5
11B3BD358AA0AF50
330
11B3BD358AA0AF32
100
AcDbSymbolTableRecord
100
AcDbLayerTableRecord
  2
TEXT
 70
     0
 62
     3
  6
CONTINUOUS
  0
ENDTAB
  0
TABLE
  2
STYLE
  5
11B3BD358AA0AF33
330
0
100
AcDbSymbolTable
 70
     3
  0
STYLE
  5
11B3BD358AA0AF40
330
11B3BD358AA0AF33
100
AcDbSymbolTableRecord
100
AcDbTextStyleTableRecord
  2
STANDARD
 70
     0
 40
0.0
 41
1.0
 50
0.0
 71
     0
 42
0.125
  3
txt
  4

  0
STYLE
  5
11B3BD358AA0AF4C
330
11B3BD358AA0AF33
100
AcDbSymbolTableRecord
100
AcDbTextStyleTableRecord
  2
ITALICC
 70
     0
 40
0.0
 41
1.0
 50
0.0
 71
     0
 42
0.125
  3
italicc
  4

  0
STYLE
  5
11B3BD358AA0AF5E
330
11B3BD358AA0AF33
100
AcDbSymbolTableRecord
100
AcDbTextStyleTableRecord
  2
ROMANS
 70
     0
 40
0.0
 41
1.0
 50
0.0
 71
     0
 42
0.125
  3
romans.shx
  4

  0
ENDTAB
  0
TABLE
  2
VIEW
  5
11B3BD358AA0AF36
330
0
100
AcDbSymbolTable
 70
     0
  0
ENDTAB
  0
TABLE
  2
UCS
  5
11B3BD358AA0AF37
330
0
100
AcDbSymbolTable
 70
     0
  0
ENDTAB
  0
TABLE
  2
APPID
  5
11B3BD358AA0AF39
330
0
100
AcDbSymbolTable
 70
     1
  0
APPID
  5
11B3BD358AA0AF41
330
11B3BD358AA0AF39
100
AcDbSymbolTableRecord
100
AcDbRegAppTableRecord
  2
ACAD
 70
     0
  0
ENDTAB
  0
TABLE
  2
DIMSTYLE
  5
11B3BD358AA0AF3A
330
0
100
AcDbSymbolTable
 70
     1
  0
DIMSTYLE
105
11B3BD358AA0AF56
330
11B3BD358AA0AF3A
100
AcDbSymbolTableRecord
100
AcDbDimStyleTableRecord
  2
STANDARD
 70
     0
  3

  4

  5

  6

  7

 40
1.0
 41
0.125
 42
0.125
 43
0.375
 44
0.125
 45
0.0
 46
0.0
 47
0.0
 48
0.0
140
0.125
141
-0.125
142
0.0
143
25.4
144
1.0
145
0.0
146
1.0
147
0.09
 71
     0
 72
     0
 73
     1
 74
     1
 75
     0
 76
     0
 77
     0
 78
     4
170
     0
171
     2
172
     0
173
     0
174
     1
175
     0
176
     0
177
     0
178
     0
270
     2
271
     3
272
     3
273
     2
274
     2
340
11B3BD358AA0AF5E
275
     0
280
     0
281
     0
282
     0
283
     1
284
     4
285
     0
286
     0
287
     3
288
     0
  0
ENDTAB
  0
TABLE
  2
BLOCK_RECORD
  5
11B3BD358AA0AF31
330
0
100
AcDbSymbolTable
 70
     0
  0
BLOCK_RECORD
  5
11B3BD358AA0AF48
102
{ACAD_XDICTIONARY
360
11B3BD358AA0AF91
102
}
330
11B3BD358AA0AF31
100
AcDbSymbolTableRecord
100
AcDbBlockTableRecord
  2
*MODEL_SPACE
  0
BLOCK_RECORD
  5
11B3BD358AA0AF45
102
{ACAD_XDICTIONARY
360
11B3BD358AA0AF8F
102
}
330
11B3BD358AA0AF31
100
AcDbSymbolTableRecord
100
AcDbBlockTableRecord
  2
*PAPER_SPACE
  0
ENDTAB
  0
ENDSEC
  0
SECTION
  2
BLOCKS
  0
BLOCK
  5
11B3BD358AA0AF54
330
11B3BD358AA0AF48
100
AcDbEntity
  8
0
100
AcDbBlockBegin
  2
*MODEL_SPACE
 70
     0
 10
0.0
 20
0.0
 30
0.0
  3
*MODEL_SPACE
  1

  0
ENDBLK
  5
11B3BD358AA0AF55
330
11B3BD358AA0AF48
100
AcDbEntity
  8
0
100
AcDbBlockEnd
  0
BLOCK
  5
11B3BD358AA0AF52
330
11B3BD358AA0AF45
100
AcDbEntity
 67
     1
  8
0
100
AcDbBlockBegin
  2
*PAPER_SPACE
 70
     0
 10
0.0
 20
0.0
 30
0.0
  3
*PAPER_SPACE
  1

  0
ENDBLK
  5
11B3BD358AA0AF53
330
11B3BD358AA0AF45
100
AcDbEntity
 67
     1
  8
0
100
AcDbBlockEnd
  0
ENDSEC
  0
SECTION
  2
ENTITIES
  0
TEXT
  5
1F786CD0F673082
330
11B3BD358AA0AF48
100
AcDbEntity
  8
TEXT
100
AcDbText
 10
0.3407738095238092
 20
0.8106250000000017
 30
0.0
 40
0.125
  1
PART #150019
  7
ITALICC
 72
     1
 11
1.09375
 21
0.8106250000000017
 31
0.0
100
AcDbText
  0
TEXT
  5
1F786CD0F673083
330
11B3BD358AA0AF48
100
AcDbEntity
  8
TEXT
100
AcDbText
 10
1.50705515825032
 20
0.3637023573276266
 30
0.0
 40
0.0522247191011236
  1
Phone  1-800-328-2495
 41
1.272321428571429
 72
     5
 11
2.835987742519984
 21
0.3637023573276266
 31
0.0
100
AcDbText
  0
TEXT
  5
1F786CD0F673084
330
11B3BD358AA0AF48
100
AcDbEntity
  8
TEXT
100
AcDbText
 10
1.50705515825032
 20
0.6434776382265031
 30
0.0
 40
0.0522247191011236
  1
Stylmark  Incorporated
 41
1.221428571428573
 72
     5
 11
2.835987742519984
 21
0.6434776382265031
 31
0.0
100
AcDbText
  0
TEXT
  5
1F786CD0F673085
330
11B3BD358AA0AF48
100
AcDbEntity
  8
TEXT
100
AcDbText
 10
1.50705515825032
 20
0.5502192112602109
 30
0.0
 40
0.0522247191011236
  1
6536 Main St. N.E. * P.O. Box 32008
 41
0.8388932496075366
 72
     5
 11
2.835987742519984
 21
0.5502192112602109
 31
0.0
100
AcDbText
  0
TEXT
  5
1F786CD0F673086
330
11B3BD358AA0AF48
100
AcDbEntity
  8
TEXT
100
AcDbText
 10
1.50705515825032
 20
0.4569607842939188
 30
0.0
 40
0.0522247191011236
  1
Minneapolis, MN 55432-0008
 41
1.11444212721585
 72
     5
 11
2.835987742519984
 21
0.4569607842939188
 31
0.0
100
AcDbText
  0
LWPOLYLINE
  5
1F786CD0F673087
330
11B3BD358AA0AF48
100
AcDbEntity
  8
TEXT
100
AcDbPolyline
 90
        3
 70
     0
 43
0.0006660908203125
 10
-0.6488985338169871
 20
0.4773471199650614
 10
-0.6488985338169871
 20
0.3641116805119338
 10
-0.5356630943638648
 20
0.3641116805119338
  0
LWPOLYLINE
  5
1F786CD0F67308C
330
11B3BD358AA0AF48
100
AcDbEntity
  8
TEXT
100
AcDbPolyline
 90
        3
 70
     0
 43
0.0006660908203125
 10
-0.6222549010044896
 20
0.4773471199650614
 10
-0.6222549010044896
 20
0.3907553133244348
 10
-0.5356630943638648
 20
0.3907553133244348
  0
LWPOLYLINE
  5
1F786CD0F673091
330
11B3BD358AA0AF48
100
AcDbEntity
  8
TEXT
100
AcDbPolyline
 90
        2
 70
     0
 43
0.0001332181640625
 10
-0.5756285435826128
 20
0.4873384822697467
 10
-0.6488985338169871
 20
0.4773471199650614
  0
LWPOLYLINE
  5
1F786CD0F673095
330
11B3BD358AA0AF48
100
AcDbEntity
  8
TEXT
100
AcDbPolyline
 90
        2
 70
     0
 43
0.0001332181640625
 10
-0.6222549010044896
 20
0.4773471199650614
 10
-0.5623067271763622
 20
0.4873384822697467
  0
LWPOLYLINE
  5
1F786CD0F673099
330
11B3BD358AA0AF48
100
AcDbEntity
  8
TEXT
100
AcDbPolyline
 90
        2
 70
     0
 43
0.0001332181640625
 10
-0.6222549010044896
 20
0.3907553133244348
 10
-0.5623067271763622
 20
0.4507034871525604
  0
LWPOLYLINE
  5
1F786CD0F67309D
330
11B3BD358AA0AF48
100
AcDbEntity
  8
TEXT
100
AcDbPolyline
 90
        3
 70
     0
 43
0.0006660908203125
 10
-0.5356630943638648
 20
0.6305480086369371
 10
-0.6488985338169871
 20
0.6305480086369371
 10
-0.6488985338169871
 20
0.5173125691838095
  0
LWPOLYLINE
  5
1F786CD0F6730A2
330
11B3BD358AA0AF48
100
AcDbEntity
  8
TEXT
100
AcDbPolyline
 90
        3
 70
     0
 43
0.0006660908203125
 10
-0.5356630943638648
 20
0.6039043758244361
 10
-0.6222549010044896
 20
0.6039043758244361
 10
-0.6222549010044896
 20
0.5173125691838095
  0
LWPOLYLINE
  5
1F786CD0F6730A7
330
11B3BD358AA0AF48
100
AcDbEntity
  8
TEXT
100
AcDbPolyline
 90
        2
 70
     0
 43
0.0001332181640625
 10
-0.6222549010044896
 20
0.6039043758244361
 10
-0.562306727176364
 20
0.5439562019963105
  0
LWPOLYLINE
  5
1F786CD0F6730AB
330
11B3BD358AA0AF48
100
AcDbEntity
  8
TEXT
100
AcDbPolyline
 90
        2
 70
     0
 43
0.0001332181640625
 10
-0.6222549010044896
 20
0.5173125691838095
 10
-0.562306727176364
 20
0.5073212068791207
  0
LWPOLYLINE
  5
1F786CD0F6730AF
330
11B3BD358AA0AF48
100
AcDbEntity
  8
TEXT
100
AcDbPolyline
 90
        2
 70
     0
 43
0.0001332181640625
 10
-0.6488985338169871
 20
0.5173125691838095
 10
-0.5756285435826128
 20
0.5073212068791207
  0
LWPOLYLINE
  5
1F786CD0F6730B3
330
11B3BD358AA0AF48
100
AcDbEntity
  8
TEXT
100
AcDbPolyline
 90
        2
 70
     0
 43
0.0006660908203125
 10
-0.6222549010044896
 20
0.4773471199650614
 10
-0.6488985338169871
 20
0.4773471199650614
  0
LWPOLYLINE
  5
1F786CD0F6730B7
330
11B3BD358AA0AF48
100
AcDbEntity
  8
TEXT
100
AcDbPolyline
 90
        2
 70
     0
 43
0.0006660908203125
 10
-0.6222549010044896
 20
0.5173125691838095
 10
-0.6488985338169871
 20
0.5173125691838095
  0
LINE
  5
1F786CD0F6730BB
330
11B3BD358AA0AF48
100
AcDbEntity
  8
TEXT
100
AcDbLine
 10
0.8662918953095104
 20
0.5662713139801681
 30
0.0
 11
0.7590856219222211
 21
0.5662713139801681
 31
0.0
  0
LINE
  5
1F786CD0F6730BC
330
11B3BD358AA0AF48
100
AcDbEntity
  8
TEXT
100
AcDbLine
 10
0.8953227936539889
 20
0.6305480086369335
 30
0.0
 11
0.7604908844369298
 21
0.6305480086369335
 31
0.0
  0
ARC
  5
1F786CD0F6730BD
330
11B3BD358AA0AF48
100
AcDbEntity
  8
TEXT
100
AcDbCircle
 10
0.8198049808302467
 20
0.4613107593739172
 30
0.0
 40
0.0676855811441166
100
AcDbArc
 50
90.0
 51
153.7768192527749
  0
LWPOLYLINE
  5
1F786CD0F6730BE
330
11B3BD358AA0AF48
100
AcDbEntity
  8
TEXT
100
AcDbPolyline
 90
        2
 70
     0
 43
0.0
 10
0.7580531264674111
 20
0.4075659205988607
 42
0.2901071551932823
 10
0.8011290593350466
 20
0.3640749756484225
 42
5.328517124445801
  0
ARC
  5
1F786CD0F6730C2
330
11B3BD358AA0AF48
100
AcDbEntity
  8
TEXT
100
AcDbCircle
 10
0.114673603158761
 20
0.4238673669864724
 30
0.0
 40
0.0601160179737537
100
AcDbArc
 50
180.0000000000003
 51
264.0521544866073
  0
LINE
  5
1F786CD0F6730C3
330
11B3BD358AA0AF48
100
AcDbEntity
  8
TEXT
100
AcDbLine
 10
0.1181889587843088
 20
0.6649359262310717
 30
0.0
 11
0.0581463539403018
 21
0.6649359262310717
 31
0.0
  0
ARC
  5
1F786CD0F6730C4
330
11B3BD358AA0AF48
100
AcDbEntity
  8
TEXT
100
AcDbCircle
 10
-0.1175853989582096
 20
0.5484605491904318
 30
0.0
 40
0.0820874594465043
100
AcDbArc
 50
90.0
 51
270.0
  0
LWPOLYLINE
  5
1F786CD0F6730C5
330
11B3BD358AA0AF48
100
AcDbEntity
  8
TEXT
100
AcDbPolyline
 90
        2
 70
     0
 43
0.0001332181640625
 10
-0.5256717320591742
 20
0.5572780184025575
 10
-0.5356630943638648
 20
0.6305480086369371
  0
LWPOLYLINE
  5
1F786CD0F6730C9
330
11B3BD358AA0AF48
100
AcDbEntity
  8
TEXT
100
AcDbPolyline
 90
        2
 70
     0
 43
0.0001332181640625
 10
-0.5356630943638648
 20
0.6039043758244361
 10
-0.5256717320591742
 20
0.5439562019963105
  0
LWPOLYLINE
  5
1F786CD0F6730CD
330
11B3BD358AA0AF48
100
AcDbEntity
  8
TEXT
100
AcDbPolyline
 90
        3
 70
     0
 43
0.0006660908203125
 10
-0.3824622056919873
 20
0.5173125691838095
 10
-0.3824622056919873
 20
0.6305480086369371
 10
-0.4956976451451132
 20
0.6305480086369371
  0
LWPOLYLINE
  5
1F786CD0F6730D2
330
11B3BD358AA0AF48
100
AcDbEntity
  8
TEXT
100
AcDbPolyline
 90
        3
 70
     0
 43
0.0006660908203125
 10
-0.4091058385044884
 20
0.5173125691838095
 10
-0.4091058385044884
 20
0.6039043758244361
 10
-0.4956976451451132
 20
0.6039043758244361
  0
LWPOLYLINE
  5
1F786CD0F6730D7
330
11B3BD358AA0AF48
100
AcDbEntity
  8
TEXT
100
AcDbPolyline
 90
        2
 70
     0
 43
0.0001332181640625
 10
-0.4091058385044884
 20
0.6039043758244361
 10
-0.4690540123326122
 20
0.5439562019963105
  0
LWPOLYLINE
  5
1F786CD0F6730DB
330
11B3BD358AA0AF48
100
AcDbEntity
  8
TEXT
100
AcDbPolyline
 90
        2
 70
     0
 43
0.0001332181640625
 10
-0.4956976451451132
 20
0.6039043758244361
 10
-0.505689007449802
 20
0.5439562019963105
  0
LWPOLYLINE
  5
1F786CD0F6730DF
330
11B3BD358AA0AF48
100
AcDbEntity
  8
TEXT
100
AcDbPolyline
 90
        2
 70
     0
 43
0.0001332181640625
 10
-0.4956976451451132
 20
0.6305480086369371
 10
-0.505689007449802
 20
0.5572780184025575
  0
LWPOLYLINE
  5
1F786CD0F6730E3
330
11B3BD358AA0AF48
100
AcDbEntity
  8
TEXT
100
AcDbPolyline
 90
        2
 70
     0
 43
0.0001332181640625
 10
-0.4557321959263634
 20
0.5073212068791207
 10
-0.3824622056919873
 20
0.5173125691838095
  0
LWPOLYLINE
  5
1F786CD0F6730E7
330
11B3BD358AA0AF48
100
AcDbEntity
  8
TEXT
100
AcDbPolyline
 90
        2
 70
     0
 43
0.0001332181640625
 10
-0.4091058385044884
 20
0.5173125691838095
 10
-0.4690540123326122
 20
0.5073212068791207
  0
LWPOLYLINE
  5
1F786CD0F6730EB
330
11B3BD358AA0AF48
100
AcDbEntity
  8
TEXT
100
AcDbPolyline
 90
        2
 70
     0
 43
0.0001332181640625
 10
-0.3824622056919873
 20
0.4773471199650614
 10
-0.4557321959263634
 20
0.4873384822697467
  0
LWPOLYLINE
  5
1F786CD0F6730EF
330
11B3BD358AA0AF48
100
AcDbEntity
  8
TEXT
100
AcDbPolyline
 90
        2
 70
     0
 43
0.0001332181640625
 10
-0.4091058385044884
 20
0.4773471199650614
 10
-0.4690540123326122
 20
0.4873384822697467
  0
LWPOLYLINE
  5
1F786CD0F6730F3
330
11B3BD358AA0AF48
100
AcDbEntity
  8
TEXT
100
AcDbPolyline
 90
        2
 70
     0
 43
0.0001332181640625
 10
-0.4091058385044884
 20
0.3907553133244348
 10
-0.4690540123326122
 20
0.4507034871525604
  0
LWPOLYLINE
  5
1F786CD0F6730F7
330
11B3BD358AA0AF48
100
AcDbEntity
  8
TEXT
100
AcDbPolyline
 90
        3
 70
     0
 43
0.0006660908203125
 10
-0.4956976451451132
 20
0.3907553133244348
 10
-0.4091058385044884
 20
0.3907553133244348
 10
-0.4091058385044884
 20
0.4773471199650614
  0
LWPOLYLINE
  5
1F786CD0F6730FC
330
11B3BD358AA0AF48
100
AcDbEntity
  8
TEXT
100
AcDbPolyline
 90
        3
 70
     0
 43
0.0006660908203125
 10
-0.4956976451451132
 20
0.3641116805119338
 10
-0.3824622056919873
 20
0.3641116805119338
 10
-0.3824622056919873
 20
0.4773471199650614
  0
LWPOLYLINE
  5
1F786CD0F673101
330
11B3BD358AA0AF48
100
AcDbEntity
  8
TEXT
100
AcDbPolyline
 90
        5
 70
     0
 43
0.0001332181640625
 10
-0.5256717320591742
 20
0.4373816707463099
 10
-0.5256717320591742
 20
0.4507034871525604
 10
-0.5623067271763622
 20
0.4507034871525604
 10
-0.5623067271763622
 20
0.4873384822697467
 10
-0.5756285435826128
 20
0.4873384822697467
  0
LWPOLYLINE
  5
1F786CD0F673108
330
11B3BD358AA0AF48
100
AcDbEntity
  8
TEXT
100
AcDbPolyline
 90
        2
 70
     0
 43
0.0006660908203125
 10
-0.5356630943638648
 20
0.3907553133244348
 10
-0.5356630943638648
 20
0.3641116805119338
  0
LWPOLYLINE
  5
1F786CD0F67310C
330
11B3BD358AA0AF48
100
AcDbEntity
  8
TEXT
100
AcDbPolyline
 90
        2
 70
     0
 43
0.0001332181640625
 10
-0.5356630943638648
 20
0.3907553133244348
 10
-0.5256717320591742
 20
0.4507034871525604
  0
LWPOLYLINE
  5
1F786CD0F673110
330
11B3BD358AA0AF48
100
AcDbEntity
  8
TEXT
100
AcDbPolyline
 90
        2
 70
     0
 43
0.0001332181640625
 10
-0.5356630943638648
 20
0.3641116805119338
 10
-0.5256717320591742
 20
0.4373816707463099
  0
LWPOLYLINE
  5
1F786CD0F673114
330
11B3BD358AA0AF48
100
AcDbEntity
  8
TEXT
100
AcDbPolyline
 90
        5
 70
     0
 43
0.0001332181640625
 10
-0.5756285435826128
 20
0.5073212068791207
 10
-0.562306727176364
 20
0.5073212068791207
 10
-0.562306727176364
 20
0.5439562019963105
 10
-0.5256717320591742
 20
0.5439562019963105
 10
-0.5256717320591742
 20
0.5572780184025575
  0
LWPOLYLINE
  5
1F786CD0F67311B
330
11B3BD358AA0AF48
100
AcDbEntity
  8
TEXT
100
AcDbPolyline
 90
        5
 70
     0
 43
0.0001332181640625
 10
-0.505689007449802
 20
0.5572780184025575
 10
-0.505689007449802
 20
0.5439562019963105
 10
-0.4690540123326122
 20
0.5439562019963105
 10
-0.4690540123326122
 20
0.5073212068791207
 10
-0.4557321959263634
 20
0.5073212068791207
  0
LWPOLYLINE
  5
1F786CD0F673122
330
11B3BD358AA0AF48
100
AcDbEntity
  8
TEXT
100
AcDbPolyline
 90
        2
 70
     0
 43
0.0001332181640625
 10
-0.4956976451451132
 20
0.3907553133244348
 10
-0.505689007449802
 20
0.4507034871525604
  0
LWPOLYLINE
  5
1F786CD0F673126
330
11B3BD358AA0AF48
100
AcDbEntity
  8
TEXT
100
AcDbPolyline
 90
        2
 70
     0
 43
0.0001332181640625
 10
-0.505689007449802
 20
0.4373816707463099
 10
-0.4956976451451132
 20
0.3641116805119338
  0
LWPOLYLINE
  5
1F786CD0F67312A
330
11B3BD358AA0AF48
100
AcDbEntity
  8
TEXT
100
AcDbPolyline
 90
        2
 70
     0
 43
0.0006660908203125
 10
-0.4956976451451132
 20
0.3907553133244348
 10
-0.4956976451451132
 20
0.3641116805119338
  0
LWPOLYLINE
  5
1F786CD0F67312E
330
11B3BD358AA0AF48
100
AcDbEntity
  8
TEXT
100
AcDbPolyline
 90
        5
 70
     0
 43
0.0001332181640625
 10
-0.4557321959263634
 20
0.4873384822697467
 10
-0.4690540123326122
 20
0.4873384822697467
 10
-0.4690540123326122
 20
0.4507034871525604
 10
-0.505689007449802
 20
0.4507034871525604
 10
-0.505689007449802
 20
0.4373816707463099
  0
LWPOLYLINE
  5
1F786CD0F673135
330
11B3BD358AA0AF48
100
AcDbEntity
  8
TEXT
100
AcDbPolyline
 90
        2
 70
     0
 43
0.0006660908203125
 10
-0.4091058385044884
 20
0.5173125691838095
 10
-0.3824622056919873
 20
0.5173125691838095
  0
LWPOLYLINE
  5
1F786CD0F673139
330
11B3BD358AA0AF48
100
AcDbEntity
  8
TEXT
100
AcDbPolyline
 90
        2
 70
     0
 43
0.0006660908203125
 10
-0.4091058385044884
 20
0.4773471199650614
 10
-0.3824622056919873
 20
0.4773471199650614
  0
LINE
  5
1F786CD0F67313D
330
11B3BD358AA0AF48
100
AcDbEntity
  8
TEXT
100
AcDbLine
 10
-0.1123480688439624
 20
0.5662713139801681
 30
0.0
 11
0.0545575851850089
 21
0.5662713139801681
 31
0.0
  0
LINE
  5
1F786CD0F67313E
330
11B3BD358AA0AF48
100
AcDbEntity
  8
TEXT
100
AcDbLine
 10
-0.0467479325996614
 20
0.5304665923695402
 30
0.0
 11
-0.1123480688439624
 21
0.5304665923695402
 31
0.0
  0
LINE
  5
1F786CD0F67313F
330
11B3BD358AA0AF48
100
AcDbEntity
  8
TEXT
100
AcDbLine
 10
-0.199672858404714
 20
0.3640749756484225
 30
0.0
 11
-0.0467479325996614
 21
0.3640749756484225
 31
0.0
  0
LINE
  5
1F786CD0F673140
330
11B3BD358AA0AF48
100
AcDbEntity
  8
TEXT
100
AcDbLine
 10
-0.0418075586933817
 20
0.4324319819818619
 30
0.0
 11
-0.1996728584047158
 21
0.4324319819818619
 31
0.0
  0
LINE
  5
1F786CD0F673141
330
11B3BD358AA0AF48
100
AcDbEntity
  8
TEXT
100
AcDbLine
 10
-0.1175853989582105
 20
0.4663730897439265
 30
0.0
 11
-0.0418075586933817
 21
0.4663730897439265
 31
0.0
  0
ARC
  5
1F786CD0F673142
330
11B3BD358AA0AF48
100
AcDbEntity
  8
TEXT
100
AcDbCircle
 10
-0.1123480688439615
 20
0.5483689531748559
 30
0.0
 40
0.017902360805315
100
AcDbArc
 50
90.0
 51
270.0
  0
LINE
  5
1F786CD0F673143
330
11B3BD358AA0AF48
100
AcDbEntity
  8
TEXT
100
AcDbLine
 10
-0.1996728584047158
 20
0.4324319819818619
 30
0.0
 11
-0.199672858404714
 21
0.3640749756484225
 31
0.0
  0
LINE
  5
1F786CD0F673144
330
11B3BD358AA0AF48
100
AcDbEntity
  8
TEXT
100
AcDbLine
 10
0.0545575851850089
 20
0.5662713139801681
 30
0.0
 11
0.0545575851850089
 21
0.4238673669864724
 31
0.0
  0
ARC
  5
1F786CD0F673145
330
11B3BD358AA0AF48
100
AcDbEntity
  8
TEXT
100
AcDbCircle
 10
-0.0467479325996605
 20
0.4472707840089796
 30
0.0
 40
0.0831958083605586
100
AcDbArc
 50
270.0
 51
90.0
  0
ARC
  5
1F786CD0F673146
330
11B3BD358AA0AF48
100
AcDbEntity
  8
TEXT
100
AcDbCircle
 10
-0.0418075586933808
 20
0.449402535862896
 30
0.0
 40
0.0169705538810321
100
AcDbArc
 50
270.0
 51
90.0
  0
LWPOLYLINE
  5
1F786CD0F673147
330
11B3BD358AA0AF48
100
AcDbEntity
  8
TEXT
100
AcDbPolyline
 90
        2
 70
     0
 43
0.0006660908203125
 10
-0.5356630943638648
 20
0.6039043758244361
 10
-0.5356630943638648
 20
0.6305480086369371
  0
LWPOLYLINE
  5
1F786CD0F67314B
330
11B3BD358AA0AF48
100
AcDbEntity
  8
TEXT
100
AcDbPolyline
 90
        2
 70
     0
 43
0.0006660908203125
 10
-0.4956976451451132
 20
0.6039043758244361
 10
-0.4956976451451132
 20
0.6305480086369371
  0
LINE
  5
1F786CD0F67314F
330
11B3BD358AA0AF48
100
AcDbEntity
  8
TEXT
100
AcDbLine
 10
0.0581463539403018
 20
0.6305480086369335
 30
0.0
 11
-0.1175853989582105
 21
0.6305480086369335
 31
0.0
  0
LINE
  5
1F786CD0F673150
330
11B3BD358AA0AF48
100
AcDbEntity
  8
TEXT
100
AcDbLine
 10
0.0581463539403018
 20
0.6649359262310717
 30
0.0
 11
0.0581463539403018
 21
0.6305480086369335
 31
0.0
  0
LINE
  5
1F786CD0F673151
330
11B3BD358AA0AF48
100
AcDbEntity
  8
TEXT
100
AcDbLine
 10
0.248618245960154
 20
0.529676012523813
 30
0.0
 11
0.1899879249282161
 21
0.6305480086369335
 31
0.0
  0
LINE
  5
1F786CD0F673152
330
11B3BD358AA0AF48
100
AcDbEntity
  8
TEXT
100
AcDbLine
 10
0.3073668087660195
 20
0.6305480086369335
 30
0.0
 11
0.248618245960154
 21
0.529676012523813
 31
0.0
  0
LINE
  5
1F786CD0F673153
330
11B3BD358AA0AF48
100
AcDbEntity
  8
TEXT
100
AcDbLine
 10
0.4042974341257608
 20
0.4464628137514218
 30
0.0
 11
0.4042974341257608
 21
0.6985594863757441
 31
0.0
  0
LINE
  5
1F786CD0F673154
330
11B3BD358AA0AF48
100
AcDbEntity
  8
TEXT
100
AcDbLine
 10
0.436609288263421
 20
0.6305480086369335
 30
0.0
 11
0.436609288263421
 21
0.4296838019045253
 31
0.0
  0
LINE
  5
1F786CD0F673155
330
11B3BD358AA0AF48
100
AcDbEntity
  8
TEXT
100
AcDbLine
 10
0.436609288263421
 20
0.4296838019045253
 30
0.0
 11
0.4196156513788197
 21
0.4296838019045253
 31
0.0
  0
LINE
  5
1F786CD0F673156
330
11B3BD358AA0AF48
100
AcDbEntity
  8
TEXT
100
AcDbLine
 10
0.4054370076219556
 20
0.3640749756484225
 30
0.0
 11
0.5034403413213902
 21
0.3640749756484225
 31
0.0
  0
LINE
  5
1F786CD0F673157
330
11B3BD358AA0AF48
100
AcDbEntity
  8
TEXT
100
AcDbLine
 10
0.2390180089631997
 20
0.3840334817534354
 30
0.0
 11
0.3363177150566443
 21
0.5483836926887036
 31
0.0
  0
ARC
  5
1F786CD0F673158
330
11B3BD358AA0AF48
100
AcDbEntity
  8
TEXT
100
AcDbCircle
 10
0.2049744490509857
 20
0.4036226979221183
 30
0.0
 40
0.0392772371940762
100
AcDbArc
 50
270.1604552698595
 51
330.0831797321295
  0
LINE
  5
1F786CD0F673159
330
11B3BD358AA0AF48
100
AcDbEntity
  8
TEXT
100
AcDbLine
 10
0.1084441926651145
 20
0.3640749756484225
 30
0.0
 11
0.2050844437401089
 21
0.3643456147467048
 31
0.0
  0
LWPOLYLINE
  5
1F786CD0F67315A
330
11B3BD358AA0AF48
100
AcDbEntity
  8
TEXT
100
AcDbPolyline
 90
        6
 70
     1
 43
0.0
 10
0.1509679962402641
 20
0.5662713139801681
 10
0.120651402020056
 20
0.5662713139801681
 10
0.120651402020056
 20
0.4431603159252738
 42
0.407328721240804
 10
0.1321950531815323
 20
0.4313414012488877
 10
0.1928167522262631
 20
0.4313414012488877
 10
0.2102820926335811
 20
0.4641536302923668
  0
LINE
  5
1F786CD0F673162
330
11B3BD358AA0AF48
100
AcDbEntity
  8
TEXT
100
AcDbLine
 10
0.3363177150566443
 20
0.5483836926887036
 30
0.0
 11
0.3363177150566443
 21
0.4156263178633473
 31
0.0
  0
ARC
  5
1F786CD0F673163
330
11B3BD358AA0AF48
100
AcDbEntity
  8
TEXT
100
AcDbCircle
 10
0.4196156513788179
 20
0.4450656081479507
 30
0.0
 40
0.0153818062434269
100
AcDbArc
 50
174.7883570302258
 51
270.0
  0
LWPOLYLINE
  5
1F786CD0F673164
330
11B3BD358AA0AF48
100
AcDbEntity
  8
TEXT
100
AcDbPolyline
 90
        2
 70
     0
 43
0.0
 10
0.3363177150566425
 20
0.4156263178633508
 42
0.3318488747599744
 10
0.4054370076219556
 20
0.3640749756484225
 42
-6.868794160588311
  0
LINE
  5
1F786CD0F673168
330
11B3BD358AA0AF48
100
AcDbEntity
  8
TEXT
100
AcDbLine
 10
0.5608294103106513
 20
0.3640749756484225
 30
0.0
 11
0.6278874570924913
 21
0.3640749756484225
 31
0.0
  0
LINE
  5
1F786CD0F673169
330
11B3BD358AA0AF48
100
AcDbEntity
  8
TEXT
100
AcDbLine
 10
0.5608294103106513
 20
0.5587175248140582
 30
0.0
 11
0.5608294103106513
 21
0.3640749756484225
 31
0.0
  0
LINE
  5
1F786CD0F67316A
330
11B3BD358AA0AF48
100
AcDbEntity
  8
TEXT
100
AcDbLine
 10
0.5034403413213902
 20
0.5662713139801681
 30
0.0
 11
0.5532756211445378
 21
0.5662713139801681
 31
0.0
  0
LINE
  5
1F786CD0F67316B
330
11B3BD358AA0AF48
100
AcDbEntity
  8
TEXT
100
AcDbLine
 10
0.5034403413213902
 20
0.3640749756484225
 30
0.0
 11
0.5034403413213902
 21
0.5662713139801681
 31
0.0
  0
LWPOLYLINE
  5
1F786CD0F67316C
330
11B3BD358AA0AF48
100
AcDbEntity
  8
TEXT
100
AcDbPolyline
 90
        2
 70
     0
 43
0.0
 10
0.553275621144536
 20
0.5662713139801681
 42
-0.4142135623731017
 10
0.5608294103106495
 20
0.5587175248140582
 42
-0.9999999999999998
  0
LINE
  5
1F786CD0F673170
330
11B3BD358AA0AF48
100
AcDbEntity
  8
TEXT
100
AcDbLine
 10
0.7590856219222211
 20
0.5662713139801681
 30
0.0
 11
0.7590856219222211
 21
0.4912189079059615
 31
0.0
  0
LINE
  5
1F786CD0F673171
330
11B3BD358AA0AF48
100
AcDbEntity
  8
TEXT
100
AcDbLine
 10
0.6278874570924913
 20
0.5662713139801681
 30
0.0
 11
0.6820210540134415
 21
0.5662713139801681
 31
0.0
  0
LINE
  5
1F786CD0F673172
330
11B3BD358AA0AF48
100
AcDbEntity
  8
TEXT
100
AcDbLine
 10
0.6278874570924913
 20
0.3640749756484225
 30
0.0
 11
0.6278874570924913
 21
0.5662713139801681
 31
0.0
  0
LWPOLYLINE
  5
1F786CD0F673173
330
11B3BD358AA0AF48
100
AcDbEntity
  8
TEXT
100
AcDbPolyline
 90
        2
 70
     0
 43
0.0
 10
0.6820210540134397
 20
0.5662713139801681
 42
-0.4142135623731017
 10
0.6895748431795532
 20
0.5587175248140582
 42
-0.9999999999999998
  0
LWPOLYLINE
  5
1F786CD0F673177
330
11B3BD358AA0AF48
100
AcDbEntity
  8
TEXT
100
AcDbPolyline
 90
        4
 70
     0
 43
0.0
 10
0.6895748431795532
 20
0.5587175248140582
 10
0.6895748431795532
 20
0.3640749756484225
 10
0.7580531264674111
 20
0.3640749756484225
 10
0.7580531264674111
 20
0.4075659205988607
 42
-1.714843617202739
  0
LINE
  5
1F786CD0F67317D
330
11B3BD358AA0AF48
100
AcDbEntity
  8
TEXT
100
AcDbLine
 10
0.1181889587843088
 20
0.6305480086369335
 30
0.0
 11
0.1181889587843088
 21
0.6649359262310717
 31
0.0
  0
LINE
  5
1F786CD0F67317E
330
11B3BD358AA0AF48
100
AcDbEntity
  8
TEXT
100
AcDbLine
 10
0.1899879249282161
 20
0.6305480086369335
 30
0.0
 11
0.1181889587843088
 21
0.6305480086369335
 31
0.0
  0
LINE
  5
1F786CD0F67317F
330
11B3BD358AA0AF48
100
AcDbEntity
  8
TEXT
100
AcDbLine
 10
0.3374887215593958
 20
0.6305480086369335
 30
0.0
 11
0.3073668087660195
 21
0.6305480086369335
 31
0.0
  0
LINE
  5
1F786CD0F673180
330
11B3BD358AA0AF48
100
AcDbEntity
  8
TEXT
100
AcDbLine
 10
0.3374887215593958
 20
0.6985594863757441
 30
0.0
 11
0.3374887215593958
 21
0.6305480086369335
 31
0.0
  0
LINE
  5
1F786CD0F673181
330
11B3BD358AA0AF48
100
AcDbEntity
  8
TEXT
100
AcDbLine
 10
0.4042974341257608
 20
0.6985594863757441
 30
0.0
 11
0.3374887215593958
 21
0.6985594863757441
 31
0.0
  0
LWPOLYLINE
  5
1F786CD0F673182
330
11B3BD358AA0AF48
100
AcDbEntity
  8
TEXT
100
AcDbPolyline
 90
        3
 70
     0
 43
0.0
 10
0.7247091937237631
 20
0.6305480086369371
 10
0.6064090349077187
 20
0.6305480086369371
 10
0.6064090349077187
 20
0.6033805118760412
 42
-1.960274751411753
  0
LINE
  5
1F786CD0F673187
330
11B3BD358AA0AF48
100
AcDbEntity
  8
TEXT
100
AcDbLine
 10
0.5706273441945573
 20
0.6305480086369335
 30
0.0
 11
0.436609288263421
 21
0.6305480086369335
 31
0.0
  0
LWPOLYLINE
  5
1F786CD0F673188
330
11B3BD358AA0AF48
100
AcDbEntity
  8
TEXT
100
AcDbPolyline
 90
        2
 70
     0
 43
0.0
 10
0.5706273441945573
 20
0.6305480086369371
 42
-0.3328679258950098
 10
0.6064090349077187
 20
0.6033805118760412
 42
6.772930709997214
  0
LINE
  5
1F786CD0F67318C
330
11B3BD358AA0AF48
100
AcDbEntity
  8
TEXT
100
AcDbLine
 10
0.7604908844369298
 20
0.6305480086369335
 30
0.0
 11
0.7604908844369298
 21
0.6022254628672897
 31
0.0
  0
LWPOLYLINE
  5
1F786CD0F67318D
330
11B3BD358AA0AF48
100
AcDbEntity
  8
TEXT
100
AcDbPolyline
 90
        2
 70
     0
 43
0.0
 10
0.7247091937237631
 20
0.6305480086369371
 42
-0.3277054968067132
 10
0.7604908844369281
 20
0.6022254628672932
 42
6.667889725900311
  0
LINE
  5
1F786CD0F673191
330
11B3BD358AA0AF48
100
AcDbEntity
  8
TEXT
100
AcDbLine
 10
0.9742827325290299
 20
0.5253360300835062
 30
0.0
 11
0.9305319613471283
 21
0.6075863060796514
 31
0.0
  0
LINE
  5
1F786CD0F673192
330
11B3BD358AA0AF48
100
AcDbEntity
  8
TEXT
100
AcDbLine
 10
0.9742827325290299
 20
0.6305480086369335
 30
0.0
 11
0.9742827325290299
 21
0.5253360300835062
 31
0.0
  0
LINE
  5
1F786CD0F673193
330
11B3BD358AA0AF48
100
AcDbEntity
  8
TEXT
100
AcDbLine
 10
1.201966471467398
 20
0.5546826822253954
 30
0.0
 11
1.201966471467398
 21
0.6960122144045342
 31
0.0
  0
LINE
  5
1F786CD0F673194
330
11B3BD358AA0AF48
100
AcDbEntity
  8
TEXT
100
AcDbLine
 10
1.249064630023383
 20
0.6305480086369335
 30
0.0
 11
1.201966471467398
 21
0.5546826822253954
 31
0.0
  0
LINE
  5
1F786CD0F673195
330
11B3BD358AA0AF48
100
AcDbEntity
  8
TEXT
100
AcDbLine
 10
1.259499346787306
 20
0.52065476569596
 30
0.0
 11
1.324056462753011
 21
0.6305480086369335
 31
0.0
  0
LINE
  5
1F786CD0F673196
330
11B3BD358AA0AF48
100
AcDbEntity
  8
TEXT
100
AcDbLine
 10
1.138131480244625
 20
0.3640749756484225
 30
0.0
 11
1.202509664563246
 21
0.3640749756484225
 31
0.0
  0
LWPOLYLINE
  5
1F786CD0F673197
330
11B3BD358AA0AF48
100
AcDbEntity
  8
TEXT
100
AcDbPolyline
 90
        2
 70
     0
 43
0.0
 10
0.9782224098340677
 20
0.4075659205988607
 42
-0.2901071551932486
 10
0.9351464769664232
 20
0.3640749756484225
 42
-5.328517124445184
  0
ARC
  5
1F786CD0F67319B
330
11B3BD358AA0AF48
100
AcDbEntity
  8
TEXT
100
AcDbCircle
 10
0.8662918953095086
 20
0.5379119389801708
 30
0.0
 40
0.028359375
100
AcDbArc
 50
25.78218179591245
 51
90.0
  0
LINE
  5
1F786CD0F67319C
330
11B3BD358AA0AF48
100
AcDbEntity
  8
TEXT
100
AcDbLine
 10
0.9020929706136318
 20
0.5289963405180358
 30
0.0
 11
0.8918282102000674
 21
0.5502468800907301
 31
0.0
  0
LINE
  5
1F786CD0F67319D
330
11B3BD358AA0AF48
100
AcDbEntity
  8
TEXT
100
AcDbLine
 10
0.8198049808302485
 20
0.5289963405180358
 30
0.0
 11
0.9020929706136318
 21
0.5289963405180358
 31
0.0
  0
LWPOLYLINE
  5
1F786CD0F67319E
330
11B3BD358AA0AF48
100
AcDbEntity
  8
TEXT
100
AcDbPolyline
 90
        4
 70
     1
 43
0.0
 10
0.9150240118965307
 20
0.4670389536324478
 10
0.8263636932366722
 20
0.4670389536324478
 42
0.9999999999999998
 10
0.8263636932366722
 20
0.4246404131285871
 10
0.9150240118965307
 20
0.4246404131285871
 42
1.0
  0
LWPOLYLINE
  5
1F786CD0F6731A4
330
11B3BD358AA0AF48
100
AcDbEntity
  8
TEXT
100
AcDbPolyline
 90
        2
 70
     0
 43
0.0
 10
0.8011290593350466
 20
0.3640749756484225
 10
0.9351464769664232
 20
0.3640749756484225
 42
0.9999999999999998
  0
LINE
  5
1F786CD0F6731A8
330
11B3BD358AA0AF48
100
AcDbEntity
  8
TEXT
100
AcDbLine
 10
1.061483498952062
 20
0.5662713139801681
 30
0.0
 11
1.13813148024462
 21
0.5662713139801681
 31
0.0
  0
LINE
  5
1F786CD0F6731A9
330
11B3BD358AA0AF48
100
AcDbEntity
  8
TEXT
100
AcDbLine
 10
1.13813148024462
 20
0.5662713139801681
 30
0.0
 11
1.138131480244625
 21
0.3640749756484225
 31
0.0
  0
ARC
  5
1F786CD0F6731AA
330
11B3BD358AA0AF48
100
AcDbEntity
  8
TEXT
100
AcDbCircle
 10
1.06148349895206
 20
0.5413654386975053
 30
0.0
 40
0.0249058752826653
100
AcDbArc
 50
89.99971217465335
 51
179.9999999999985
  0
LINE
  5
1F786CD0F6731AB
330
11B3BD358AA0AF48
100
AcDbEntity
  8
TEXT
100
AcDbLine
 10
1.036577623669403
 20
0.3640749756484225
 30
0.0
 11
1.036577623669398
 21
0.5413654810798909
 31
0.0
  0
LWPOLYLINE
  5
1F786CD0F6731AC
330
11B3BD358AA0AF48
100
AcDbEntity
  8
TEXT
100
AcDbPolyline
 90
        2
 70
     0
 43
0.0
 10
0.9782224098340677
 20
0.3640749756484225
 10
1.036577623669401
 20
0.3640749756484225
  0
LWPOLYLINE
  5
1F786CD0F6731B0
330
11B3BD358AA0AF48
100
AcDbEntity
  8
TEXT
100
AcDbPolyline
 90
        2
 70
     0
 43
0.0
 10
0.9782224098340677
 20
0.4075659205988607
 10
0.9782224098340677
 20
0.3640749756484225
  0
LINE
  5
1F786CD0F6731B4
330
11B3BD358AA0AF48
100
AcDbEntity
  8
TEXT
100
AcDbLine
 10
1.354991570150916
 20
0.3640749756484225
 30
0.0
 11
1.259499346787306
 21
0.52065476569596
 31
0.0
  0
LINE
  5
1F786CD0F6731B5
330
11B3BD358AA0AF48
100
AcDbEntity
  8
TEXT
100
AcDbLine
 10
1.27841319777471
 20
0.3640749756484225
 30
0.0
 11
1.354991570150916
 21
0.3640749756484225
 31
0.0
  0
LINE
  5
1F786CD0F6731B6
330
11B3BD358AA0AF48
100
AcDbEntity
  8
TEXT
100
AcDbLine
 10
1.202509664563246
 20
0.4956545441246028
 30
0.0
 11
1.27841319777471
 21
0.3640749756484225
 31
0.0
  0
LINE
  5
1F786CD0F6731B7
330
11B3BD358AA0AF48
100
AcDbEntity
  8
TEXT
100
AcDbLine
 10
1.202509664563246
 20
0.3640749756484225
 30
0.0
 11
1.202509664563246
 21
0.4956545441246028
 31
0.0
  0
LINE
  5
1F786CD0F6731B8
330
11B3BD358AA0AF48
100
AcDbEntity
  8
TEXT
100
AcDbLine
 10
1.201966471467398
 20
0.6960122144045342
 30
0.0
 11
1.133651592918125
 21
0.6960122144045342
 31
0.0
  0
ARC
  5
1F786CD0F6731B9
330
11B3BD358AA0AF48
100
AcDbEntity
  8
TEXT
100
AcDbCircle
 10
0.8932958538769195
 20
0.5889644415160312
 30
0.0
 40
0.0416329381542859
100
AcDbArc
 50
26.56974201007528
 51
87.20939649401342
  0
LINE
  5
1F786CD0F6731BA
330
11B3BD358AA0AF48
100
AcDbEntity
  8
TEXT
100
AcDbLine
 10
1.03817963882853
 20
0.6305480086369335
 30
0.0
 11
0.9742827325290299
 21
0.6305480086369335
 31
0.0
  0
LINE
  5
1F786CD0F6731BB
330
11B3BD358AA0AF48
100
AcDbEntity
  8
TEXT
100
AcDbLine
 10
1.03817963882853
 20
0.6030003587760589
 30
0.0
 11
1.03817963882853
 21
0.6305480086369335
 31
0.0
  0
ARC
  5
1F786CD0F6731BC
330
11B3BD358AA0AF48
100
AcDbEntity
  8
TEXT
100
AcDbCircle
 10
1.069372455891638
 20
0.5993022813546687
 30
0.0
 40
0.0314112657011332
100
AcDbArc
 50
95.88484768694724
 51
173.2388340632136
  0
LINE
  5
1F786CD0F6731BD
330
11B3BD358AA0AF48
100
AcDbEntity
  8
TEXT
100
AcDbLine
 10
1.13365159291812
 20
0.6305480086369335
 30
0.0
 11
1.066151875268603
 21
0.6305480086369335
 31
0.0
  0
LINE
  5
1F786CD0F6731BE
330
11B3BD358AA0AF48
100
AcDbEntity
  8
TEXT
100
AcDbLine
 10
1.133651592918125
 20
0.6960122144045342
 30
0.0
 11
1.13365159291812
 21
0.6305480086369335
 31
0.0
  0
LINE
  5
1F786CD0F6731BF
330
11B3BD358AA0AF48
100
AcDbEntity
  8
TEXT
100
AcDbLine
 10
1.324056462753011
 20
0.6305480086369335
 30
0.0
 11
1.249064630023385
 21
0.6305480086369335
 31
0.0
  0
LWPOLYLINE
  5
11B3BD358AA0AF23
330
11B3BD358AA0AF48
100
AcDbEntity
  8
0
100
AcDbPolyline
 90
       12
 70
     1
 43
0.0
 10
0.9112499999999998
 20
1.20175
 10
0.9712499999999998
 20
1.20175
 10
0.9712499999999998
 20
1.263750000000001
 10
1.21625
 20
1.263750000000001
 10
1.21625
 20
1.20175
 10
1.27625
 20
1.20175
 10
1.27625
 20
1.141750000000001
 10
1.15625
 20
1.141750000000001
 10
1.15625
 20
1.216875000000001
 10
1.03125
 20
1.216875000000001
 10
1.03125
 20
1.141750000000001
 10
0.9112499999999998
 20
1.141750000000001
  0
ENDSEC
  0
SECTION
  2
OBJECTS
  0
DICTIONARY
  5
11B3BD358AA0AF3C
330
0
100
AcDbDictionary
  3
ACAD_GROUP
350
11B3BD358AA0AF3D
  3
ACAD_LAYOUT
350
11B3BD358AA0AF64
  3
ACAD_MLINESTYLE
350
11B3BD358AA0AF3E
  3
ACAD_PLOTSETTINGS
350
11B3BD358AA0AF65
  3
ACAD_PLOTSTYLENAME
350
11B3BD358AA0AF62
  3
ACDBHEADERROUNDTRIPXREC
350
11B3BD358AA0AF6F
  3
ACDBVARIABLEDICTIONARY
350
11B3BD358AA0AF6C
  0
DICTIONARY
  5
11B3BD358AA0AF91
330
11B3BD358AA0AF48
100
AcDbDictionary
280
     1
  3
ACAD_LAYOUTSELFREF
360
11B3BD358AA0AF92
  0
DICTIONARY
  5
11B3BD358AA0AF8F
330
11B3BD358AA0AF45
100
AcDbDictionary
280
     1
  3
ACAD_LAYOUTSELFREF
360
11B3BD358AA0AF90
  0
DICTIONARY
  5
11B3BD358AA0AF3D
102
{ACAD_REACTORS
330
11B3BD358AA0AF3C
102
}
330
11B3BD358AA0AF3C
100
AcDbDictionary
  0
DICTIONARY
  5
11B3BD358AA0AF64
102
{ACAD_REACTORS
330
11B3BD358AA0AF3C
102
}
330
11B3BD358AA0AF3C
100
AcDbDictionary
  0
DICTIONARY
  5
11B3BD358AA0AF3E
102
{ACAD_REACTORS
330
11B3BD358AA0AF3C
102
}
330
11B3BD358AA0AF3C
100
AcDbDictionary
  3
STANDARD
350
11B3BD358AA0AF4B
  0
DICTIONARY
  5
11B3BD358AA0AF65
102
{ACAD_REACTORS
330
11B3BD358AA0AF3C
102
}
330
11B3BD358AA0AF3C
100
AcDbDictionary
  0
ACDBDICTIONARYWDFLT
  5
11B3BD358AA0AF62
102
{ACAD_REACTORS
330
11B3BD358AA0AF3C
102
}
330
11B3BD358AA0AF3C
100
AcDbDictionary
281
     1
  3
Normal
350
11B3BD358AA0AF63
100
AcDbDictionaryWithDefault
340
11B3BD358AA0AF63
  0
DICTIONARY
  5
11B3BD358AA0AF6F
102
{ACAD_REACTORS
330
11B3BD358AA0AF3C
102
}
330
11B3BD358AA0AF3C
100
AcDbDictionary
  3
CEPSNTYPE
350
11B3BD358AA0AF79
  3
FINGERPRINTGUID
350
11B3BD358AA0AF7A
  3
HYPERLINKBASE
350
11B3BD358AA0AF72
  3
INSUNITS
350
11B3BD358AA0AF78
  3
LAYOUTDICT
350
11B3BD358AA0AF74
  3
LWETCUNION
350
11B3BD358AA0AF77
  3
PLOTSETDICT
350
11B3BD358AA0AF75
  3
PLOTSTYLNAMDICT
350
11B3BD358AA0AF76
  3
PSVPSCALE
350
11B3BD358AA0AF7C
  3
PUCSBASE
350
11B3BD358AA0AF7F
  3
PUCSORGBACK
350
11B3BD358AA0AF85
  3
PUCSORGBOTTOM
350
11B3BD358AA0AF81
  3
PUCSORGFRONT
350
11B3BD358AA0AF84
  3
PUCSORGLEFT
350
11B3BD358AA0AF82
  3
PUCSORGRIGHT
350
11B3BD358AA0AF83
  3
PUCSORGTOP
350
11B3BD358AA0AF80
  3
PUCSORTHOREF
350
11B3BD358AA0AF7D
  3
PUCSORTHOVIEW
350
11B3BD358AA0AF7E
  3
STYLESHEET
350
11B3BD358AA0AF73
  3
TSTACKALIGN
350
11B3BD358AA0AF70
  3
TSTACKSIZE
350
11B3BD358AA0AF71
  3
UCSBASE
350
11B3BD358AA0AF88
  3
UCSORGBACK
350
11B3BD358AA0AF8E
  3
UCSORGBOTTOM
350
11B3BD358AA0AF8A
  3
UCSORGFRONT
350
11B3BD358AA0AF8D
  3
UCSORGLEFT
350
11B3BD358AA0AF8B
  3
UCSORGRIGHT
350
11B3BD358AA0AF8C
  3
UCSORGTOP
350
11B3BD358AA0AF89
  3
UCSORTHOREF
350
11B3BD358AA0AF86
  3
UCSORTHOVIEW
350
11B3BD358AA0AF87
  3
VERSIONGUID
350
11B3BD358AA0AF7B
  0
DICTIONARY
  5
11B3BD358AA0AF6C
102
{ACAD_REACTORS
330
11B3BD358AA0AF3C
102
}
330
11B3BD358AA0AF3C
100
AcDbDictionary
  3
DIMASSOC
350
11B3BD358AA0AF6D
  0
XRECORD
  5
11B3BD358AA0AF92
102
{ACAD_REACTORS
330
11B3BD358AA0AF91
102
}
330
11B3BD358AA0AF91
100
AcDbXrecord
340
11B3BD358AA0AF48
  0
XRECORD
  5
11B3BD358AA0AF90
102
{ACAD_REACTORS
330
11B3BD358AA0AF8F
102
}
330
11B3BD358AA0AF8F
100
AcDbXrecord
340
11B3BD358AA0AF45
  0
MLINESTYLE
  5
11B3BD358AA0AF4B
102
{ACAD_REACTORS
330
11B3BD358AA0AF3E
102
}
330
11B3BD358AA0AF3E
100
AcDbMlineStyle
  2
STANDARD
 70
     0
  3

 62
     0
 51
90.0
 52
90.0
 71
     2
 49
0.5
 62
   256
  6
BYLAYER
 49
-0.5
 62
   256
  6
BYLAYER
  0
ACDBPLACEHOLDER
  5
11B3BD358AA0AF63
102
{ACAD_REACTORS
330
11B3BD358AA0AF62
102
}
330
11B3BD358AA0AF62
100
AcDbPlaceHolder
280
     0
  0
XRECORD
  5
11B3BD358AA0AF79
102
{ACAD_REACTORS
330
11B3BD358AA0AF6F
102
}
330
11B3BD358AA0AF6F
100
AcDbXrecord
 90
        0
  0
XRECORD
  5
11B3BD358AA0AF7A
102
{ACAD_REACTORS
330
11B3BD358AA0AF6F
102
}
330
11B3BD358AA0AF6F
100
AcDbXrecord
  1
{3B8F0F40-8DBA-11D6-88E6-0090279574E7}
  0
XRECORD
  5
11B3BD358AA0AF72
102
{ACAD_REACTORS
330
11B3BD358AA0AF6F
102
}
330
11B3BD358AA0AF6F
100
AcDbXrecord
  1

  0
XRECORD
  5
11B3BD358AA0AF78
102
{ACAD_REACTORS
330
11B3BD358AA0AF6F
102
}
330
11B3BD358AA0AF6F
100
AcDbXrecord
 90
        0
  0
XRECORD
  5
11B3BD358AA0AF74
102
{ACAD_REACTORS
330
11B3BD358AA0AF6F
102
}
330
11B3BD358AA0AF6F
100
AcDbXrecord
340
11B3BD358AA0AF64
  0
XRECORD
  5
11B3BD358AA0AF77
102
{ACAD_REACTORS
330
11B3BD358AA0AF6F
102
}
330
11B3BD358AA0AF6F
100
AcDbXrecord
 90
    14877
  0
XRECORD
  5
11B3BD358AA0AF75
102
{ACAD_REACTORS
330
11B3BD358AA0AF6F
102
}
330
11B3BD358AA0AF6F
100
AcDbXrecord
340
11B3BD358AA0AF65
  0
XRECORD
  5
11B3BD358AA0AF76
102
{ACAD_REACTORS
330
11B3BD358AA0AF6F
102
}
330
11B3BD358AA0AF6F
100
AcDbXrecord
340
11B3BD358AA0AF62
  0
XRECORD
  5
11B3BD358AA0AF7C
102
{ACAD_REACTORS
330
11B3BD358AA0AF6F
102
}
330
11B3BD358AA0AF6F
100
AcDbXrecord
 40
0.0
  0
XRECORD
  5
11B3BD358AA0AF7F
102
{ACAD_REACTORS
330
11B3BD358AA0AF6F
102
}
330
11B3BD358AA0AF6F
100
AcDbXrecord
340
0
  0
XRECORD
  5
11B3BD358AA0AF85
102
{ACAD_REACTORS
330
11B3BD358AA0AF6F
102
}
330
11B3BD358AA0AF6F
100
AcDbXrecord
 10
0.0
 20
0.0
 30
0.0
  0
XRECORD
  5
11B3BD358AA0AF81
102
{ACAD_REACTORS
330
11B3BD358AA0AF6F
102
}
330
11B3BD358AA0AF6F
100
AcDbXrecord
 10
0.0
 20
0.0
 30
0.0
  0
XRECORD
  5
11B3BD358AA0AF84
102
{ACAD_REACTORS
330
11B3BD358AA0AF6F
102
}
330
11B3BD358AA0AF6F
100
AcDbXrecord
 10
0.0
 20
0.0
 30
0.0
  0
XRECORD
  5
11B3BD358AA0AF82
102
{ACAD_REACTORS
330
11B3BD358AA0AF6F
102
}
330
11B3BD358AA0AF6F
100
AcDbXrecord
 10
0.0
 20
0.0
 30
0.0
  0
XRECORD
  5
11B3BD358AA0AF83
102
{ACAD_REACTORS
330
11B3BD358AA0AF6F
102
}
330
11B3BD358AA0AF6F
100
AcDbXrecord
 10
0.0
 20
0.0
 30
0.0
  0
XRECORD
  5
11B3BD358AA0AF80
102
{ACAD_REACTORS
330
11B3BD358AA0AF6F
102
}
330
11B3BD358AA0AF6F
100
AcDbXrecord
 10
0.0
 20
0.0
 30
0.0
  0
XRECORD
  5
11B3BD358AA0AF7D
102
{ACAD_REACTORS
330
11B3BD358AA0AF6F
102
}
330
11B3BD358AA0AF6F
100
AcDbXrecord
340
0
  0
XRECORD
  5
11B3BD358AA0AF7E
102
{ACAD_REACTORS
330
11B3BD358AA0AF6F
102
}
330
11B3BD358AA0AF6F
100
AcDbXrecord
 70
     0
  0
XRECORD
  5
11B3BD358AA0AF73
102
{ACAD_REACTORS
330
11B3BD358AA0AF6F
102
}
330
11B3BD358AA0AF6F
100
AcDbXrecord
  1

  0
XRECORD
  5
11B3BD358AA0AF70
102
{ACAD_REACTORS
330
11B3BD358AA0AF6F
102
}
330
11B3BD358AA0AF6F
100
AcDbXrecord
 90
        1
  0
XRECORD
  5
11B3BD358AA0AF71
102
{ACAD_REACTORS
330
11B3BD358AA0AF6F
102
}
330
11B3BD358AA0AF6F
100
AcDbXrecord
 90
       70
  0
XRECORD
  5
11B3BD358AA0AF88
102
{ACAD_REACTORS
330
11B3BD358AA0AF6F
102
}
330
11B3BD358AA0AF6F
100
AcDbXrecord
340
0
  0
XRECORD
  5
11B3BD358AA0AF8E
102
{ACAD_REACTORS
330
11B3BD358AA0AF6F
102
}
330
11B3BD358AA0AF6F
100
AcDbXrecord
 10
0.0
 20
0.0
 30
0.0
  0
XRECORD
  5
11B3BD358AA0AF8A
102
{ACAD_REACTORS
330
11B3BD358AA0AF6F
102
}
330
11B3BD358AA0AF6F
100
AcDbXrecord
 10
0.0
 20
0.0
 30
0.0
  0
XRECORD
  5
11B3BD358AA0AF8D
102
{ACAD_REACTORS
330
11B3BD358AA0AF6F
102
}
330
11B3BD358AA0AF6F
100
AcDbXrecord
 10
0.0
 20
0.0
 30
0.0
  0
XRECORD
  5
11B3BD358AA0AF8B
102
{ACAD_REACTORS
330
11B3BD358AA0AF6F
102
}
330
11B3BD358AA0AF6F
100
AcDbXrecord
 10
0.0
 20
0.0
 30
0.0
  0
XRECORD
  5
11B3BD358AA0AF8C
102
{ACAD_REACTORS
330
11B3BD358AA0AF6F
102
}
330
11B3BD358AA0AF6F
100
AcDbXrecord
 10
0.0
 20
0.0
 30
0.0
  0
XRECORD
  5
11B3BD358AA0AF89
102
{ACAD_REACTORS
330
11B3BD358AA0AF6F
102
}
330
11B3BD358AA0AF6F
100
AcDbXrecord
 10
0.0
 20
0.0
 30
0.0
  0
XRECORD
  5
11B3BD358AA0AF86
102
{ACAD_REACTORS
330
11B3BD358AA0AF6F
102
}
330
11B3BD358AA0AF6F
100
AcDbXrecord
340
0
  0
XRECORD
  5
11B3BD358AA0AF87
102
{ACAD_REACTORS
330
11B3BD358AA0AF6F
102
}
330
11B3BD358AA0AF6F
100
AcDbXrecord
 70
     0
  0
XRECORD
  5
11B3BD358AA0AF7B
102
{ACAD_REACTORS
330
11B3BD358AA0AF6F
102
}
330
11B3BD358AA0AF6F
100
AcDbXrecord
  1
{3B8F0F42-8DBA-11D6-88E6-0090279574E7}
  0
DICTIONARYVAR
  5
11B3BD358AA0AF6D
102
{ACAD_REACTORS
330
11B3BD358AA0AF6C
102
}
330
11B3BD358AA0AF6C
100
DictionaryVariables
280
     0
  1
1
  0
ENDSEC
  0
EOF
