  0
SECTION
  2
HEADER
  9
$ACADVER
  1
AC1014
  9
$ACADMAINTVER
 70
     9
  9
$DWGCODEPAGE
  3
ANSI_1252
  9
$INSBASE
 10
0.0
 20
0.0
 30
0.0
  9
$EXTMIN
 10
-0.4950446898608594
 20
-0.0375590076097614
 30
0.0
  9
$EXTMAX
 10
2.990174631886269
 20
1.715837083881815
 30
0.0
  9
$LIMMIN
 10
0.0
 20
0.0
  9
$LIMMAX
 10
8.5
 20
11.0
  9
$ORTHOMODE
 70
     0
  9
$REGENMODE
 70
     1
  9
$FILLMODE
 70
     1
  9
$QTEXTMODE
 70
     0
  9
$MIRRTEXT
 70
     0
  9
$DRAGMODE
 70
     2
  9
$LTSCALE
 40
1.0
  9
$OSMODE
 70
    39
  9
$ATTMODE
 70
     1
  9
$TEXTSIZE
 40
0.125
  9
$TRACEWID
 40
0.05
  9
$TEXTSTYLE
  7
ROMANS
  9
$CLAYER
  8
TEXT
  9
$CELTYPE
  6
BYLAYER
  9
$CECOLOR
 62
   256
  9
$CELTSCALE
 40
1.0
  9
$DELOBJ
 70
     1
  9
$DISPSILH
 70
     1
  9
$DIMSCALE
 40
1.0
  9
$DIMASZ
 40
0.125
  9
$DIMEXO
 40
0.125
  9
$DIMDLI
 40
0.375
  9
$DIMRND
 40
0.0
  9
$DIMDLE
 40
0.0
  9
$DIMEXE
 40
0.125
  9
$DIMTP
 40
0.01
  9
$DIMTM
 40
0.0
  9
$DIMTXT
 40
0.125
  9
$DIMCEN
 40
-0.125
  9
$DIMTSZ
 40
0.0
  9
$DIMTOL
 70
     0
  9
$DIMLIM
 70
     0
  9
$DIMTIH
 70
     1
  9
$DIMTOH
 70
     1
  9
$DIMSE1
 70
     0
  9
$DIMSE2
 70
     1
  9
$DIMTAD
 70
     0
  9
$DIMZIN
 70
     4
  9
$DIMBLK
  1

  9
$DIMASO
 70
     1
  9
$DIMSHO
 70
     1
  9
$DIMPOST
  1

  9
$DIMAPOST
  1

  9
$DIMALT
 70
     0
  9
$DIMALTD
 70
     2
  9
$DIMALTF
 40
25.4
  9
$DIMLFAC
 40
0.5
  9
$DIMTOFL
 70
     0
  9
$DIMTVP
 40
0.0
  9
$DIMTIX
 70
     0
  9
$DIMSOXD
 70
     0
  9
$DIMSAH
 70
     0
  9
$DIMBLK1
  1

  9
$DIMBLK2
  1

  9
$DIMSTYLE
  2
STANDARD
  9
$DIMCLRD
 70
     0
  9
$DIMCLRE
 70
     0
  9
$DIMCLRT
 70
     0
  9
$DIMTFAC
 40
1.0
  9
$DIMGAP
 40
0.09
  9
$DIMJUST
 70
     0
  9
$DIMSD1
 70
     0
  9
$DIMSD2
 70
     0
  9
$DIMTOLJ
 70
     1
  9
$DIMTZIN
 70
     0
  9
$DIMALTZ
 70
     0
  9
$DIMALTTZ
 70
     0
  9
$DIMFIT
 70
     3
  9
$DIMUPT
 70
     0
  9
$DIMUNIT
 70
     2
  9
$DIMDEC
 70
     3
  9
$DIMTDEC
 70
     4
  9
$DIMALTU
 70
     2
  9
$DIMALTTD
 70
     2
  9
$DIMTXSTY
  7
ROMANS
  9
$DIMAUNIT
 70
     0
  9
$LUNITS
 70
     2
  9
$LUPREC
 70
     3
  9
$SKETCHINC
 40
0.1
  9
$FILLETRAD
 40
0.0
  9
$AUNITS
 70
     0
  9
$AUPREC
 70
     0
  9
$MENU
  1
ACAD
  9
$ELEVATION
 40
0.0
  9
$PELEVATION
 40
0.0
  9
$THICKNESS
 40
0.0
  9
$LIMCHECK
 70
     0
  9
$BLIPMODE
 70
     0
  9
$CHAMFERA
 40
0.0
  9
$CHAMFERB
 40
0.0
  9
$CHAMFERC
 40
0.0
  9
$CHAMFERD
 40
0.0
  9
$SKPOLY
 70
     0
  9
$TDCREATE
 40
2448477.415815161
  9
$TDUPDATE
 40
2452458.326161215
  9
$TDINDWG
 40
0.0076831019
  9
$TDUSRTIMER
 40
0.0076831019
  9
$USRTIMER
 70
     1
  9
$ANGBASE
 50
0.0
  9
$ANGDIR
 70
     0
  9
$PDMODE
 70
     0
  9
$PDSIZE
 40
0.0
  9
$PLINEWID
 40
0.0
  9
$COORDS
 70
     2
  9
$SPLFRAME
 70
     0
  9
$SPLINETYPE
 70
     6
  9
$SPLINESEGS
 70
     8
  9
$ATTDIA
 70
     0
  9
$ATTREQ
 70
     1
  9
$HANDLING
 70
 22529
  9
$HANDSEED
  5
3A7
  9
$SURFTAB1
 70
     6
  9
$SURFTAB2
 70
     6
  9
$SURFTYPE
 70
     6
  9
$SURFU
 70
     6
  9
$SURFV
 70
     6
  9
$UCSNAME
  2

  9
$UCSORG
 10
0.0
 20
0.0
 30
0.0
  9
$UCSXDIR
 10
1.0
 20
0.0
 30
0.0
  9
$UCSYDIR
 10
0.0
 20
1.0
 30
0.0
  9
$PUCSNAME
  2

  9
$PUCSORG
 10
0.0
 20
0.0
 30
0.0
  9
$PUCSXDIR
 10
1.0
 20
0.0
 30
0.0
  9
$PUCSYDIR
 10
0.0
 20
1.0
 30
0.0
  9
$USERI1
 70
     0
  9
$USERI2
 70
     0
  9
$USERI3
 70
     0
  9
$USERI4
 70
     0
  9
$USERI5
 70
     0
  9
$USERR1
 40
0.0
  9
$USERR2
 40
0.0
  9
$USERR3
 40
0.0
  9
$USERR4
 40
0.0
  9
$USERR5
 40
0.0
  9
$WORLDVIEW
 70
     1
  9
$SHADEDGE
 70
     3
  9
$SHADEDIF
 70
    70
  9
$TILEMODE
 70
     1
  9
$MAXACTVP
 70
    16
  9
$PINSBASE
 10
0.0
 20
0.0
 30
0.0
  9
$PLIMCHECK
 70
     0
  9
$PEXTMIN
 10
1.000000000000000E+20
 20
1.000000000000000E+20
 30
1.000000000000000E+20
  9
$PEXTMAX
 10
-1.000000000000000E+20
 20
-1.000000000000000E+20
 30
-1.000000000000000E+20
  9
$PLIMMIN
 10
0.0
 20
0.0
  9
$PLIMMAX
 10
12.0
 20
9.0
  9
$UNITMODE
 70
     0
  9
$VISRETAIN
 70
     0
  9
$PLINEGEN
 70
     1
  9
$PSLTSCALE
 70
     0
  9
$TREEDEPTH
 70
  3020
  9
$PICKSTYLE
 70
     1
  9
$CMLSTYLE
  2
STANDARD
  9
$CMLJUST
 70
     0
  9
$CMLSCALE
 40
1.0
  9
$PROXYGRAPHICS
 70
     1
  9
$MEASUREMENT
 70
     0
  0
ENDSEC
  0
SECTION
  2
CLASSES
  0
CLASS
  1
LWPOLYLINE
  2
AcDbPolyline
  3
AutoCAD 2000
 90
        0
280
     0
281
     1
  0
CLASS
  1
ACDBDICTIONARYWDFLT
  2
AcDbDictionaryWithDefault
  3
AutoCAD 2000
 90
        0
280
     0
281
     0
  0
CLASS
  1
ACDBPLACEHOLDER
  2
AcDbPlaceHolder
  3
AutoCAD 2000
 90
        0
280
     0
281
     0
  0
CLASS
  1
LAYOUT
  2
AcDbLayout
  3
AutoCAD 2000
 90
        0
280
     0
281
     0
  0
CLASS
  1
DICTIONARYVAR
  2
AcDbDictionaryVar
  3
AutoCAD 2000
 90
        0
280
     0
281
     0
  0
CLASS
  1
LONG_TRANSACTION
  2
AcDbLongTransaction
  3
AutoCAD 2000
 90
        0
280
     0
281
     0
  0
CLASS
  1
LWPOLYLINE
  2
AcDbPolyline
  3
AutoCAD 2000
 90
        0
280
     0
281
     1
  0
CLASS
  1
HATCH
  2
AcDbHatch
  3
AutoCAD 2000
 90
        0
280
     0
281
     1
  0
CLASS
  1
XRECORD
  2
AcDbXrecord
  3
AutoCAD 2000
 90
        0
280
     0
281
     0
  0
ENDSEC
  0
SECTION
  2
TABLES
  0
TABLE
  2
VPORT
  5
8
330
0
100
AcDbSymbolTable
 70
     2
  0
VPORT
  5
382
330
8
100
AcDbSymbolTableRecord
100
AcDbViewportTableRecord
  2
*ACTIVE
 70
     0
 10
0.0
 20
0.0
 11
1.0
 21
1.0
 12
4.169741675228355
 22
0.8391234218781722
 13
0.0
 23
0.0
 14
0.25
 24
0.25
 15
0.0
 25
0.0
 16
0.0
 26
0.0
 36
1.0
 17
0.0
 27
0.0
 37
0.0
 40
2.163783105556754
 41
4.320930232558139
 42
50.0
 43
0.0
 44
0.0
 50
0.0
 51
0.0
 71
     0
 72
  2000
 73
     1
 74
     1
 75
     0
 76
     0
 77
     0
 78
     0
  0
ENDTAB
  0
TABLE
  2
LTYPE
  5
5
330
0
100
AcDbSymbolTable
 70
     1
  0
LTYPE
  5
12
330
5
100
AcDbSymbolTableRecord
100
AcDbLinetypeTableRecord
  2
BYBLOCK
 70
     0
  3

 72
    65
 73
     0
 40
0.0
  0
LTYPE
  5
13
330
5
100
AcDbSymbolTableRecord
100
AcDbLinetypeTableRecord
  2
BYLAYER
 70
     0
  3

 72
    65
 73
     0
 40
0.0
  0
LTYPE
  5
14
330
5
100
AcDbSymbolTableRecord
100
AcDbLinetypeTableRecord
  2
CONTINUOUS
 70
     0
  3
Solid line
 72
    65
 73
     0
 40
0.0
  0
ENDTAB
  0
TABLE
  2
LAYER
  5
2
330
0
100
AcDbSymbolTable
 70
     2
  0
LAYER
  5
F
330
2
100
AcDbSymbolTableRecord
100
AcDbLayerTableRecord
  2
0
 70
     0
 62
     7
  6
CONTINUOUS
  0
LAYER
  5
2B
330
2
100
AcDbSymbolTableRecord
100
AcDbLayerTableRecord
  2
TEXT
 70
     0
 62
     3
  6
CONTINUOUS
  0
ENDTAB
  0
TABLE
  2
STYLE
  5
3
330
0
100
AcDbSymbolTable
 70
     3
  0
STYLE
  5
10
330
3
100
AcDbSymbolTableRecord
100
AcDbTextStyleTableRecord
  2
STANDARD
 70
     0
 40
0.0
 41
1.0
 50
0.0
 71
     0
 42
0.125
  3
txt
  4

  0
STYLE
  5
26F
330
3
100
AcDbSymbolTableRecord
100
AcDbTextStyleTableRecord
  2
ITALICC
 70
     0
 40
0.0
 41
1.0
 50
0.0
 71
     0
 42
0.125
  3
italicc
  4

  0
STYLE
  5
37E
330
3
100
AcDbSymbolTableRecord
100
AcDbTextStyleTableRecord
  2
ROMANS
 70
     0
 40
0.0
 41
1.0
 50
0.0
 71
     0
 42
0.125
  3
romans.shx
  4

  0
ENDTAB
  0
TABLE
  2
VIEW
  5
6
330
0
100
AcDbSymbolTable
 70
     0
  0
ENDTAB
  0
TABLE
  2
UCS
  5
7
330
0
100
AcDbSymbolTable
 70
     0
  0
ENDTAB
  0
TABLE
  2
APPID
  5
9
330
0
100
AcDbSymbolTable
 70
     1
  0
APPID
  5
11
330
9
100
AcDbSymbolTableRecord
100
AcDbRegAppTableRecord
  2
ACAD
 70
     0
  0
ENDTAB
  0
TABLE
  2
DIMSTYLE
  5
A
330
0
100
AcDbSymbolTable
 70
     1
  0
DIMSTYLE
105
267
330
A
100
AcDbSymbolTableRecord
100
AcDbDimStyleTableRecord
  2
STANDARD
 70
     0
  3

  4

  5

  6

  7

 40
1.0
 41
0.18
 42
0.0625
 43
0.38
 44
0.18
 45
0.0
 46
0.0
 47
0.0
 48
0.0
140
0.18
141
0.09
142
0.0
143
25.4
144
1.0
145
0.0
146
1.0
147
0.09
 71
     0
 72
     0
 73
     1
 74
     1
 75
     0
 76
     0
 77
     0
 78
     0
170
     0
171
     2
172
     0
173
     0
174
     0
175
     0
176
     0
177
     0
178
     0
270
     2
271
     4
272
     4
273
     2
274
     2
340
10
275
     0
280
     0
281
     0
282
     0
283
     1
284
     0
285
     0
286
     0
287
     3
288
     0
  0
ENDTAB
  0
TABLE
  2
BLOCK_RECORD
  5
1
330
0
100
AcDbSymbolTable
 70
     0
  0
BLOCK_RECORD
  5
18
102
{ACAD_XDICTIONARY
360
3A5
102
}
330
1
100
AcDbSymbolTableRecord
100
AcDbBlockTableRecord
  2
*MODEL_SPACE
  0
BLOCK_RECORD
  5
15
102
{ACAD_XDICTIONARY
360
3A3
102
}
330
1
100
AcDbSymbolTableRecord
100
AcDbBlockTableRecord
  2
*PAPER_SPACE
  0
ENDTAB
  0
ENDSEC
  0
SECTION
  2
BLOCKS
  0
BLOCK
  5
35
330
18
100
AcDbEntity
  8
0
100
AcDbBlockBegin
  2
*MODEL_SPACE
 70
     0
 10
0.0
 20
0.0
 30
0.0
  3
*MODEL_SPACE
  1

  0
ENDBLK
  5
36
330
18
100
AcDbEntity
  8
0
100
AcDbBlockEnd
  0
BLOCK
  5
33
330
15
100
AcDbEntity
 67
     1
  8
0
100
AcDbBlockBegin
  2
*PAPER_SPACE
 70
     0
 10
0.0
 20
0.0
 30
0.0
  3
*PAPER_SPACE
  1

  0
ENDBLK
  5
34
330
15
100
AcDbEntity
 67
     1
  8
0
100
AcDbBlockEnd
  0
ENDSEC
  0
SECTION
  2
ENTITIES
  0
LWPOLYLINE
  5
23C
330
18
100
AcDbEntity
  8
0
100
AcDbPolyline
 90
        6
 70
     1
 43
0.0
 10
0.9722449575714795
 20
0.8408370838818193
 42
0.4142135623730951
 10
1.097244957571479
 20
0.7158370838818194
 10
1.347244957571479
 20
0.7158370838818194
 42
0.4142135623730951
 10
1.472244957571479
 20
0.8408370838818193
 10
1.472244957571479
 20
1.715837083881815
 10
0.9722449575714795
 20
1.715837083881815
  0
LWPOLYLINE
  5
244
330
18
100
AcDbEntity
  8
0
100
AcDbPolyline
 90
       26
 70
     1
 43
0.0
 10
1.182244957571477
 20
1.635837083881817
 10
1.182244957571477
 20
1.550837083881815
 10
1.052244957571479
 20
1.550837083881815
 10
1.052244957571479
 20
1.133254734572522
 10
1.182244957571477
 20
1.133254734572522
 10
1.182244957571477
 20
1.053254734572522
 10
1.052244957571478
 20
1.053254734572522
 10
1.052244957571479
 20
0.9732547345725226
 10
1.182244957571477
 20
0.9732547345725226
 10
1.182244957571477
 20
0.8932547345725225
 10
1.052244957571478
 20
0.8932547345725243
 10
1.052244957571479
 20
0.8408370838818193
 42
0.4142135623731059
 10
1.097244957571479
 20
0.7958370838818177
 10
1.347244957571479
 20
0.7958370838818177
 42
0.4142135623730951
 10
1.392244957571479
 20
0.8408370838818193
 10
1.392244957571477
 20
0.8932547345725225
 10
1.262244957571478
 20
0.8932547345725225
 10
1.262244957571478
 20
0.9732547345725226
 10
1.392244957571477
 20
0.9732547345725244
 10
1.392244957571479
 20
1.053254734572522
 10
1.262244957571477
 20
1.053254734572522
 10
1.262244957571478
 20
1.133254734572522
 10
1.392244957571479
 20
1.133254734572521
 10
1.392244957571479
 20
1.550837083881815
 10
1.262244957571478
 20
1.550837083881815
 10
1.262244957571478
 20
1.635837083881817
  0
TEXT
  5
2F4
330
18
100
AcDbEntity
  8
TEXT
100
AcDbText
 10
0.4949606988900931
 20
0.4204595964728202
 30
0.0
 40
0.125
  1
PART #150016
  7
ITALICC
 72
     1
 11
1.247936889366283
 21
0.4204595964728202
 31
0.0
100
AcDbText
  0
LWPOLYLINE
  5
2F5
330
18
100
AcDbEntity
  8
TEXT
100
AcDbPolyline
 90
        3
 70
     0
 43
0.0
 10
0.8788960830900478
 20
0.2403826051097555
 10
0.7605959242740035
 20
0.2403826051097555
 10
0.7605959242740035
 20
0.2132151083488596
 42
-1.960274751411753
  0
LWPOLYLINE
  5
2F6
330
18
100
AcDbEntity
  8
TEXT
100
AcDbPolyline
 90
        4
 70
     0
 43
0.0
 10
0.8437617325458379
 20
0.1685521212868766
 10
0.8437617325458379
 20
-0.026090427878759
 10
0.9122400158336958
 20
-0.026090427878759
 10
0.9122400158336958
 20
0.0174005170716791
 42
-1.714843617202739
  0
LWPOLYLINE
  5
2F7
330
18
100
AcDbEntity
  8
TEXT
100
AcDbPolyline
 90
        2
 70
     0
 43
0.0001332181640625
 10
-0.2549189491382044
 20
0.0005899097972533
 10
-0.3148671229663282
 20
0.0605380836253788
  0
LWPOLYLINE
  5
2F8
330
18
100
AcDbEntity
  8
TEXT
100
AcDbPolyline
 90
        3
 70
     0
 43
0.0006660908203125
 10
-0.3415107557788293
 20
0.0005899097972533
 10
-0.2549189491382044
 20
0.0005899097972533
 10
-0.2549189491382044
 20
0.0871817164378799
  0
LWPOLYLINE
  5
2F9
330
18
100
AcDbEntity
  8
TEXT
100
AcDbPolyline
 90
        3
 70
     0
 43
0.0006660908203125
 10
-0.3415107557788293
 20
-0.0260537230152478
 10
-0.2282753163257034
 20
-0.0260537230152478
 10
-0.2282753163257034
 20
0.0871817164378799
  0
LWPOLYLINE
  5
2FA
330
18
100
AcDbEntity
  8
TEXT
100
AcDbPolyline
 90
        2
 70
     0
 43
0.0001332181640625
 10
-0.2282753163257034
 20
0.0871817164378799
 10
-0.3015453065600795
 20
0.0971730787425651
  0
LWPOLYLINE
  5
2FB
330
18
100
AcDbEntity
  8
TEXT
100
AcDbPolyline
 90
        2
 70
     0
 43
0.0001332181640625
 10
-0.2549189491382044
 20
0.0871817164378799
 10
-0.3148671229663282
 20
0.0971730787425651
  0
LWPOLYLINE
  5
2FC
330
18
100
AcDbEntity
  8
TEXT
100
AcDbPolyline
 90
        2
 70
     0
 43
0.0001332181640625
 10
-0.4680680116382057
 20
0.0005899097972533
 10
-0.4081198378100784
 20
0.0605380836253788
  0
LWPOLYLINE
  5
2FD
330
18
100
AcDbEntity
  8
TEXT
100
AcDbPolyline
 90
        2
 70
     0
 43
0.0001332181640625
 10
-0.4680680116382057
 20
0.0871817164378799
 10
-0.4081198378100784
 20
0.0971730787425651
  0
LWPOLYLINE
  5
2FE
330
18
100
AcDbEntity
  8
TEXT
100
AcDbPolyline
 90
        3
 70
     0
 43
0.0006660908203125
 10
-0.4947116444507032
 20
0.0871817164378799
 10
-0.4947116444507032
 20
-0.0260537230152478
 10
-0.3814762049975808
 20
-0.0260537230152478
  0
LWPOLYLINE
  5
2FF
330
18
100
AcDbEntity
  8
TEXT
100
AcDbPolyline
 90
        3
 70
     0
 43
0.0006660908203125
 10
-0.4680680116382057
 20
0.0871817164378799
 10
-0.4680680116382057
 20
0.0005899097972533
 10
-0.3814762049975808
 20
0.0005899097972533
  0
LWPOLYLINE
  5
300
330
18
100
AcDbEntity
  8
TEXT
100
AcDbPolyline
 90
        5
 70
     0
 43
0.0001332181640625
 10
-0.3714848426928903
 20
0.0472162672191283
 10
-0.3714848426928903
 20
0.0605380836253788
 10
-0.4081198378100784
 20
0.0605380836253788
 10
-0.4081198378100784
 20
0.0971730787425651
 10
-0.4214416542163289
 20
0.0971730787425651
  0
LWPOLYLINE
  5
301
330
18
100
AcDbEntity
  8
TEXT
100
AcDbPolyline
 90
        2
 70
     0
 43
0.0006660908203125
 10
-0.4680680116382057
 20
0.0871817164378799
 10
-0.4947116444507032
 20
0.0871817164378799
  0
LWPOLYLINE
  5
302
330
18
100
AcDbEntity
  8
TEXT
100
AcDbPolyline
 90
        2
 70
     0
 43
0.0001332181640625
 10
-0.4214416542163289
 20
0.0971730787425651
 10
-0.4947116444507032
 20
0.0871817164378799
  0
LWPOLYLINE
  5
303
330
18
100
AcDbEntity
  8
TEXT
100
AcDbPolyline
 90
        2
 70
     0
 43
0.0006660908203125
 10
-0.3814762049975808
 20
0.0005899097972533
 10
-0.3814762049975808
 20
-0.0260537230152478
  0
LWPOLYLINE
  5
304
330
18
100
AcDbEntity
  8
TEXT
100
AcDbPolyline
 90
        2
 70
     0
 43
0.0001332181640625
 10
-0.3814762049975808
 20
0.0005899097972533
 10
-0.3714848426928903
 20
0.0605380836253788
  0
LWPOLYLINE
  5
305
330
18
100
AcDbEntity
  8
TEXT
100
AcDbPolyline
 90
        2
 70
     0
 43
0.0001332181640625
 10
-0.3814762049975808
 20
-0.0260537230152478
 10
-0.3714848426928903
 20
0.0472162672191283
  0
LWPOLYLINE
  5
306
330
18
100
AcDbEntity
  8
TEXT
100
AcDbPolyline
 90
        2
 70
     0
 43
0.0001332181640625
 10
-0.3415107557788293
 20
0.0005899097972533
 10
-0.3515021180835181
 20
0.0605380836253788
  0
LWPOLYLINE
  5
307
330
18
100
AcDbEntity
  8
TEXT
100
AcDbPolyline
 90
        2
 70
     0
 43
0.0001332181640625
 10
-0.3515021180835181
 20
0.0472162672191283
 10
-0.3415107557788293
 20
-0.0260537230152478
  0
LWPOLYLINE
  5
308
330
18
100
AcDbEntity
  8
TEXT
100
AcDbPolyline
 90
        2
 70
     0
 43
0.0006660908203125
 10
-0.3415107557788293
 20
0.0005899097972533
 10
-0.3415107557788293
 20
-0.0260537230152478
  0
LWPOLYLINE
  5
309
330
18
100
AcDbEntity
  8
TEXT
100
AcDbPolyline
 90
        5
 70
     0
 43
0.0001332181640625
 10
-0.3015453065600795
 20
0.0971730787425651
 10
-0.3148671229663282
 20
0.0971730787425651
 10
-0.3148671229663282
 20
0.0605380836253788
 10
-0.3515021180835181
 20
0.0605380836253788
 10
-0.3515021180835181
 20
0.0472162672191283
  0
LWPOLYLINE
  5
30A
330
18
100
AcDbEntity
  8
TEXT
100
AcDbPolyline
 90
        2
 70
     0
 43
0.0006660908203125
 10
-0.2549189491382044
 20
0.0871817164378799
 10
-0.2282753163257034
 20
0.0871817164378799
  0
LWPOLYLINE
  5
30B
330
18
100
AcDbEntity
  8
TEXT
100
AcDbPolyline
 90
        3
 70
     0
 43
0.0006660908203125
 10
-0.2282753163257034
 20
0.1271471656566279
 10
-0.2282753163257034
 20
0.2403826051097555
 10
-0.3415107557788293
 20
0.2403826051097555
  0
LWPOLYLINE
  5
30C
330
18
100
AcDbEntity
  8
TEXT
100
AcDbPolyline
 90
        3
 70
     0
 43
0.0006660908203125
 10
-0.2549189491382044
 20
0.1271471656566279
 10
-0.2549189491382044
 20
0.2137389722972545
 10
-0.3415107557788293
 20
0.2137389722972545
  0
LWPOLYLINE
  5
30D
330
18
100
AcDbEntity
  8
TEXT
100
AcDbPolyline
 90
        2
 70
     0
 43
0.0001332181640625
 10
-0.3015453065600795
 20
0.1171558033519391
 10
-0.2282753163257034
 20
0.1271471656566279
  0
LWPOLYLINE
  5
30E
330
18
100
AcDbEntity
  8
TEXT
100
AcDbPolyline
 90
        2
 70
     0
 43
0.0001332181640625
 10
-0.2549189491382044
 20
0.1271471656566279
 10
-0.3148671229663282
 20
0.1171558033519391
  0
LWPOLYLINE
  5
30F
330
18
100
AcDbEntity
  8
TEXT
100
AcDbPolyline
 90
        2
 70
     0
 43
0.0001332181640625
 10
-0.2549189491382044
 20
0.2137389722972545
 10
-0.3148671229663282
 20
0.1537907984691289
  0
LWPOLYLINE
  5
310
330
18
100
AcDbEntity
  8
TEXT
100
AcDbPolyline
 90
        2
 70
     0
 43
0.0001332181640625
 10
-0.4680680116382057
 20
0.2137389722972545
 10
-0.4081198378100801
 20
0.1537907984691289
  0
LWPOLYLINE
  5
311
330
18
100
AcDbEntity
  8
TEXT
100
AcDbPolyline
 90
        2
 70
     0
 43
0.0001332181640625
 10
-0.4680680116382057
 20
0.1271471656566279
 10
-0.4081198378100801
 20
0.1171558033519391
  0
LWPOLYLINE
  5
312
330
18
100
AcDbEntity
  8
TEXT
100
AcDbPolyline
 90
        3
 70
     0
 43
0.0006660908203125
 10
-0.3814762049975808
 20
0.2403826051097555
 10
-0.4947116444507032
 20
0.2403826051097555
 10
-0.4947116444507032
 20
0.1271471656566279
  0
LWPOLYLINE
  5
313
330
18
100
AcDbEntity
  8
TEXT
100
AcDbPolyline
 90
        3
 70
     0
 43
0.0006660908203125
 10
-0.3814762049975808
 20
0.2137389722972545
 10
-0.4680680116382057
 20
0.2137389722972545
 10
-0.4680680116382057
 20
0.1271471656566279
  0
LWPOLYLINE
  5
314
330
18
100
AcDbEntity
  8
TEXT
100
AcDbPolyline
 90
        5
 70
     0
 43
0.0001332181640625
 10
-0.4214416542163289
 20
0.1171558033519391
 10
-0.4081198378100801
 20
0.1171558033519391
 10
-0.4081198378100801
 20
0.1537907984691289
 10
-0.3714848426928903
 20
0.1537907984691289
 10
-0.3714848426928903
 20
0.1671126148753759
  0
LWPOLYLINE
  5
315
330
18
100
AcDbEntity
  8
TEXT
100
AcDbPolyline
 90
        2
 70
     0
 43
0.0001332181640625
 10
-0.4947116444507032
 20
0.1271471656566279
 10
-0.4214416542163289
 20
0.1171558033519391
  0
LWPOLYLINE
  5
316
330
18
100
AcDbEntity
  8
TEXT
100
AcDbPolyline
 90
        2
 70
     0
 43
0.0006660908203125
 10
-0.4680680116382057
 20
0.1271471656566279
 10
-0.4947116444507032
 20
0.1271471656566279
  0
LWPOLYLINE
  5
317
330
18
100
AcDbEntity
  8
TEXT
100
AcDbPolyline
 90
        2
 70
     0
 43
0.0006660908203125
 10
-0.3814762049975808
 20
0.2137389722972545
 10
-0.3814762049975808
 20
0.2403826051097555
  0
LWPOLYLINE
  5
318
330
18
100
AcDbEntity
  8
TEXT
100
AcDbPolyline
 90
        2
 70
     0
 43
0.0001332181640625
 10
-0.3714848426928903
 20
0.1671126148753759
 10
-0.3814762049975808
 20
0.2403826051097555
  0
LWPOLYLINE
  5
319
330
18
100
AcDbEntity
  8
TEXT
100
AcDbPolyline
 90
        2
 70
     0
 43
0.0001332181640625
 10
-0.3814762049975808
 20
0.2137389722972545
 10
-0.3714848426928903
 20
0.1537907984691289
  0
LWPOLYLINE
  5
31A
330
18
100
AcDbEntity
  8
TEXT
100
AcDbPolyline
 90
        5
 70
     0
 43
0.0001332181640625
 10
-0.3515021180835181
 20
0.1671126148753759
 10
-0.3515021180835181
 20
0.1537907984691289
 10
-0.3148671229663282
 20
0.1537907984691289
 10
-0.3148671229663282
 20
0.1171558033519391
 10
-0.3015453065600795
 20
0.1171558033519391
  0
LWPOLYLINE
  5
31B
330
18
100
AcDbEntity
  8
TEXT
100
AcDbPolyline
 90
        2
 70
     0
 43
0.0006660908203125
 10
-0.3415107557788293
 20
0.2137389722972545
 10
-0.3415107557788293
 20
0.2403826051097555
  0
LWPOLYLINE
  5
31C
330
18
100
AcDbEntity
  8
TEXT
100
AcDbPolyline
 90
        2
 70
     0
 43
0.0001332181640625
 10
-0.3415107557788293
 20
0.2137389722972545
 10
-0.3515021180835181
 20
0.1537907984691289
  0
LWPOLYLINE
  5
31D
330
18
100
AcDbEntity
  8
TEXT
100
AcDbPolyline
 90
        2
 70
     0
 43
0.0001332181640625
 10
-0.3415107557788293
 20
0.2403826051097555
 10
-0.3515021180835181
 20
0.1671126148753759
  0
LWPOLYLINE
  5
31E
330
18
100
AcDbEntity
  8
TEXT
100
AcDbPolyline
 90
        2
 70
     0
 43
0.0006660908203125
 10
-0.2549189491382044
 20
0.1271471656566279
 10
-0.2282753163257034
 20
0.1271471656566279
  0
LINE
  5
31F
330
18
100
AcDbEntity
  8
TEXT
100
AcDbLine
 10
0.3932048983294836
 20
-0.0061319217737461
 30
0.0
 11
0.4905046044229282
 21
0.158218289161522
 31
0.0
  0
LINE
  5
320
330
18
100
AcDbEntity
  8
TEXT
100
AcDbLine
 10
0.402805135326438
 20
0.1395106089966314
 30
0.0
 11
0.3441748142945
 21
0.240382605109752
 31
0.0
  0
LINE
  5
321
330
18
100
AcDbEntity
  8
TEXT
100
AcDbLine
 10
0.2087444745512927
 20
0.1761059104529865
 30
0.0
 11
0.2087444745512927
 21
0.0337019634592908
 31
0.0
  0
LWPOLYLINE
  5
322
330
18
100
AcDbEntity
  8
TEXT
100
AcDbPolyline
 90
        6
 70
     1
 43
0.0
 10
0.305154885606548
 20
0.1761059104529865
 10
0.2748382913863399
 20
0.1761059104529865
 10
0.2748382913863399
 20
0.0529949123980922
 42
0.407328721240804
 10
0.2863819425478162
 20
0.0411759977217061
 10
0.347003641592547
 20
0.0411759977217061
 10
0.364468981999865
 20
0.0739882267651853
  0
ARC
  5
323
330
18
100
AcDbEntity
  8
TEXT
100
AcDbCircle
 10
0.0366014904080743
 20
0.1582951456632502
 30
0.0
 40
0.0820874594465043
100
AcDbArc
 50
90.0
 51
270.0
  0
ARC
  5
324
330
18
100
AcDbEntity
  8
TEXT
100
AcDbCircle
 10
0.1074389567666234
 20
0.057105380481798
 30
0.0
 40
0.0831958083605586
100
AcDbArc
 50
270.0
 51
90.0
  0
LINE
  5
325
330
18
100
AcDbEntity
  8
TEXT
100
AcDbLine
 10
0.0366014904080743
 20
0.0762076862167449
 30
0.0
 11
0.1123793306729031
 21
0.0762076862167449
 31
0.0
  0
LINE
  5
326
330
18
100
AcDbEntity
  8
TEXT
100
AcDbLine
 10
-0.0454859690384293
 20
-0.026090427878759
 30
0.0
 11
0.1074389567666234
 21
-0.026090427878759
 31
0.0
  0
LINE
  5
327
330
18
100
AcDbEntity
  8
TEXT
100
AcDbLine
 10
0.1123793306729031
 20
0.0422665784546803
 30
0.0
 11
-0.0454859690384311
 21
0.0422665784546803
 31
0.0
  0
LINE
  5
328
330
18
100
AcDbEntity
  8
TEXT
100
AcDbLine
 10
-0.0454859690384311
 20
0.0422665784546803
 30
0.0
 11
-0.0454859690384293
 21
-0.026090427878759
 31
0.0
  0
ARC
  5
329
330
18
100
AcDbEntity
  8
TEXT
100
AcDbCircle
 10
0.1123793306729031
 20
0.0592371323357144
 30
0.0
 40
0.0169705538810321
100
AcDbArc
 50
270.0
 51
90.0
  0
LINE
  5
32A
330
18
100
AcDbEntity
  8
TEXT
100
AcDbLine
 10
0.2626310820313984
 20
-0.026090427878759
 30
0.0
 11
0.3592713331063928
 21
-0.0258197887804768
 31
0.0
  0
ARC
  5
32B
330
18
100
AcDbEntity
  8
TEXT
100
AcDbCircle
 10
0.2688604925250448
 20
0.0337019634592908
 30
0.0
 40
0.0601160179737537
100
AcDbArc
 50
180.0000000000003
 51
264.0521544866073
  0
ARC
  5
32C
330
18
100
AcDbEntity
  8
TEXT
100
AcDbCircle
 10
0.3591613384172696
 20
0.0134572943949367
 30
0.0
 40
0.0392772371940762
100
AcDbArc
 50
270.1604552698595
 51
330.0831797321295
  0
LINE
  5
32D
330
18
100
AcDbEntity
  8
TEXT
100
AcDbLine
 10
0.0418388205223224
 20
0.1761059104529865
 30
0.0
 11
0.2087444745512927
 21
0.1761059104529865
 31
0.0
  0
LINE
  5
32E
330
18
100
AcDbEntity
  8
TEXT
100
AcDbLine
 10
0.2123332433065856
 20
0.240382605109752
 30
0.0
 11
0.0366014904080743
 21
0.240382605109752
 31
0.0
  0
LINE
  5
32F
330
18
100
AcDbEntity
  8
TEXT
100
AcDbLine
 10
0.1074389567666234
 20
0.1403011888423586
 30
0.0
 11
0.0418388205223224
 21
0.1403011888423586
 31
0.0
  0
ARC
  5
330
330
18
100
AcDbEntity
  8
TEXT
100
AcDbCircle
 10
0.0418388205223224
 20
0.1582035496476744
 30
0.0
 40
0.017902360805315
100
AcDbArc
 50
90.0
 51
270.0
  0
LINE
  5
331
330
18
100
AcDbEntity
  8
TEXT
100
AcDbLine
 10
0.3441748142945
 20
0.240382605109752
 30
0.0
 11
0.2723758481505927
 21
0.240382605109752
 31
0.0
  0
LINE
  5
332
330
18
100
AcDbEntity
  8
TEXT
100
AcDbLine
 10
0.2723758481505927
 20
0.240382605109752
 30
0.0
 11
0.2723758481505927
 21
0.2747705227038901
 31
0.0
  0
LINE
  5
333
330
18
100
AcDbEntity
  8
TEXT
100
AcDbLine
 10
0.2123332433065856
 20
0.2747705227038901
 30
0.0
 11
0.2123332433065856
 21
0.240382605109752
 31
0.0
  0
LINE
  5
334
330
18
100
AcDbEntity
  8
TEXT
100
AcDbLine
 10
0.2723758481505927
 20
0.2747705227038901
 30
0.0
 11
0.2123332433065856
 21
0.2747705227038901
 31
0.0
  0
LINE
  5
335
330
18
100
AcDbEntity
  8
TEXT
100
AcDbLine
 10
0.7820743464587752
 20
-0.026090427878759
 30
0.0
 11
0.7820743464587752
 21
0.1761059104529865
 31
0.0
  0
LINE
  5
336
330
18
100
AcDbEntity
  8
TEXT
100
AcDbLine
 10
0.7150162996769352
 20
0.1685521212868766
 30
0.0
 11
0.7150162996769352
 21
-0.026090427878759
 31
0.0
  0
LINE
  5
337
330
18
100
AcDbEntity
  8
TEXT
100
AcDbLine
 10
0.5584843234920447
 20
0.0562974102242402
 30
0.0
 11
0.5584843234920447
 21
0.3083940828485625
 31
0.0
  0
LINE
  5
338
330
18
100
AcDbEntity
  8
TEXT
100
AcDbLine
 10
0.5907961776297049
 20
0.240382605109752
 30
0.0
 11
0.5907961776297049
 21
0.0395183983773437
 31
0.0
  0
LINE
  5
339
330
18
100
AcDbEntity
  8
TEXT
100
AcDbLine
 10
0.6576272306876741
 20
-0.026090427878759
 30
0.0
 11
0.6576272306876741
 21
0.1761059104529865
 31
0.0
  0
LINE
  5
33A
330
18
100
AcDbEntity
  8
TEXT
100
AcDbLine
 10
0.4905046044229282
 20
0.158218289161522
 30
0.0
 11
0.4905046044229282
 21
0.0254609143361657
 31
0.0
  0
LINE
  5
33B
330
18
100
AcDbEntity
  8
TEXT
100
AcDbLine
 10
0.5596238969882395
 20
-0.026090427878759
 30
0.0
 11
0.6576272306876741
 21
-0.026090427878759
 31
0.0
  0
LWPOLYLINE
  5
33C
330
18
100
AcDbEntity
  8
TEXT
100
AcDbPolyline
 90
        2
 70
     0
 43
0.0
 10
0.4905046044229274
 20
0.0254609143361693
 42
0.3318488747599744
 10
0.5596238969882404
 20
-0.026090427878759
 42
-6.868794160588311
  0
ARC
  5
33D
330
18
100
AcDbEntity
  8
TEXT
100
AcDbCircle
 10
0.5738025407451027
 20
0.0549002046207692
 30
0.0
 40
0.0153818062434269
100
AcDbArc
 50
174.7883570302258
 51
270.0
  0
LINE
  5
33E
330
18
100
AcDbEntity
  8
TEXT
100
AcDbLine
 10
0.5907961776297049
 20
0.0395183983773437
 30
0.0
 11
0.5738025407451035
 21
0.0395183983773437
 31
0.0
  0
LINE
  5
33F
330
18
100
AcDbEntity
  8
TEXT
100
AcDbLine
 10
0.7150162996769352
 20
-0.026090427878759
 30
0.0
 11
0.7820743464587752
 21
-0.026090427878759
 31
0.0
  0
LINE
  5
340
330
18
100
AcDbEntity
  8
TEXT
100
AcDbLine
 10
0.7248142335608412
 20
0.240382605109752
 30
0.0
 11
0.5907961776297049
 21
0.240382605109752
 31
0.0
  0
LINE
  5
341
330
18
100
AcDbEntity
  8
TEXT
100
AcDbLine
 10
0.4916756109256797
 20
0.3083940828485625
 30
0.0
 11
0.4916756109256797
 21
0.240382605109752
 31
0.0
  0
LINE
  5
342
330
18
100
AcDbEntity
  8
TEXT
100
AcDbLine
 10
0.4916756109256797
 20
0.240382605109752
 30
0.0
 11
0.4615536981323034
 21
0.240382605109752
 31
0.0
  0
LINE
  5
343
330
18
100
AcDbEntity
  8
TEXT
100
AcDbLine
 10
0.4615536981323034
 20
0.240382605109752
 30
0.0
 11
0.402805135326438
 21
0.1395106089966314
 31
0.0
  0
LINE
  5
344
330
18
100
AcDbEntity
  8
TEXT
100
AcDbLine
 10
0.5584843234920447
 20
0.3083940828485625
 30
0.0
 11
0.4916756109256797
 21
0.3083940828485625
 31
0.0
  0
LWPOLYLINE
  5
345
330
18
100
AcDbEntity
  8
TEXT
100
AcDbPolyline
 90
        2
 70
     0
 43
0.0
 10
0.7248142335608421
 20
0.2403826051097555
 42
-0.3328679258950098
 10
0.7605959242740035
 20
0.2132151083488596
 42
6.772930709997214
  0
LINE
  5
346
330
18
100
AcDbEntity
  8
TEXT
100
AcDbLine
 10
0.6576272306876741
 20
0.1761059104529865
 30
0.0
 11
0.7074625105108217
 21
0.1761059104529865
 31
0.0
  0
LWPOLYLINE
  5
347
330
18
100
AcDbEntity
  8
TEXT
100
AcDbPolyline
 90
        2
 70
     0
 43
0.0
 10
0.7074625105108208
 20
0.1761059104529865
 42
-0.4142135623731017
 10
0.7150162996769343
 20
0.1685521212868766
 42
-0.9999999999999998
  0
LWPOLYLINE
  5
348
330
18
100
AcDbEntity
  8
TEXT
100
AcDbPolyline
 90
        2
 70
     0
 43
0.0
 10
0.8362079433797244
 20
0.1761059104529865
 42
-0.4142135623731017
 10
0.8437617325458379
 20
0.1685521212868766
 42
-0.9999999999999998
  0
LINE
  5
349
330
18
100
AcDbEntity
  8
TEXT
100
AcDbLine
 10
0.7820743464587752
 20
0.1761059104529865
 30
0.0
 11
0.8362079433797253
 21
0.1761059104529865
 31
0.0
  0
TEXT
  5
34A
330
18
100
AcDbEntity
  8
TEXT
100
AcDbText
 10
1.661242047616605
 20
-0.026463046199555
 30
0.0
 40
0.0522247191011236
  1
Phone  1-800-328-2495
 41
1.272321428571429
 72
     5
 11
2.990174631886269
 21
-0.026463046199555
 31
0.0
100
AcDbText
  0
TEXT
  5
34B
330
18
100
AcDbEntity
  8
TEXT
100
AcDbText
 10
1.661242047616605
 20
0.2533122346993215
 30
0.0
 40
0.0522247191011236
  1
Stylmark  Incorporated
 41
1.221428571428571
 72
     5
 11
2.990174631886269
 21
0.2533122346993215
 31
0.0
100
AcDbText
  0
TEXT
  5
34C
330
18
100
AcDbEntity
  8
TEXT
100
AcDbText
 10
1.661242047616605
 20
0.1600538077330293
 30
0.0
 40
0.0522247191011236
  1
6536 Main St. N.E. * P.O. Box 32008
 41
0.8388932496075353
 72
     5
 11
2.990174631886269
 21
0.1600538077330293
 31
0.0
100
AcDbText
  0
TEXT
  5
34D
330
18
100
AcDbEntity
  8
TEXT
100
AcDbText
 10
1.661242047616605
 20
0.0667953807667372
 30
0.0
 40
0.0522247191011236
  1
Minneapolis, MN 55432-0008
 41
1.11444212721585
 72
     5
 11
2.990174631886269
 21
0.0667953807667372
 31
0.0
100
AcDbText
  0
LINE
  5
34E
330
18
100
AcDbEntity
  8
TEXT
100
AcDbLine
 10
1.356153360833682
 20
0.3058468108773527
 30
0.0
 11
1.287838482284409
 21
0.3058468108773527
 31
0.0
  0
LINE
  5
34F
330
18
100
AcDbEntity
  8
TEXT
100
AcDbLine
 10
1.292318369610909
 20
-0.026090427878759
 30
0.0
 11
1.35669655392953
 21
-0.026090427878759
 31
0.0
  0
LINE
  5
350
330
18
100
AcDbEntity
  8
TEXT
100
AcDbLine
 10
1.292318369610904
 20
0.1761059104529865
 30
0.0
 11
1.292318369610909
 21
-0.026090427878759
 31
0.0
  0
LINE
  5
351
330
18
100
AcDbEntity
  8
TEXT
100
AcDbLine
 10
1.190764513035687
 20
-0.026090427878759
 30
0.0
 11
1.190764513035682
 21
0.1512000775527094
 31
0.0
  0
LWPOLYLINE
  5
352
330
18
100
AcDbEntity
  8
TEXT
100
AcDbPolyline
 90
        2
 70
     0
 43
0.0
 10
1.132409299200352
 20
0.0174005170716791
 42
-0.2901071551932486
 10
1.089333366332708
 20
-0.026090427878759
 42
-5.328517124445184
  0
LWPOLYLINE
  5
353
330
18
100
AcDbEntity
  8
TEXT
100
AcDbPolyline
 90
        4
 70
     1
 43
0.0
 10
1.069210901262815
 20
0.0768735501052662
 10
0.980550582602957
 20
0.0768735501052662
 42
0.9999999999999998
 10
0.980550582602957
 20
0.0344750096014055
 10
1.069210901262815
 20
0.0344750096014055
 42
1.0
  0
LWPOLYLINE
  5
354
330
18
100
AcDbEntity
  8
TEXT
100
AcDbPolyline
 90
        2
 70
     0
 43
0.0
 10
0.9553159487013314
 20
-0.026090427878759
 10
1.089333366332708
 20
-0.026090427878759
 42
0.9999999999999998
  0
LWPOLYLINE
  5
355
330
18
100
AcDbEntity
  8
TEXT
100
AcDbPolyline
 90
        2
 70
     0
 43
0.0
 10
0.9122400158336958
 20
0.0174005170716791
 42
0.2901071551932823
 10
0.9553159487013314
 20
-0.026090427878759
 42
5.328517124445801
  0
LWPOLYLINE
  5
356
330
18
100
AcDbEntity
  8
TEXT
100
AcDbPolyline
 90
        2
 70
     0
 43
0.0
 10
1.132409299200352
 20
0.0174005170716791
 10
1.132409299200352
 20
-0.026090427878759
  0
LWPOLYLINE
  5
357
330
18
100
AcDbEntity
  8
TEXT
100
AcDbPolyline
 90
        2
 70
     0
 43
0.0
 10
1.132409299200352
 20
-0.026090427878759
 10
1.190764513035686
 20
-0.026090427878759
  0
LINE
  5
358
330
18
100
AcDbEntity
  8
TEXT
100
AcDbLine
 10
1.128469621895313
 20
0.1351706265563246
 30
0.0
 11
1.084718850713412
 21
0.2174209025524698
 31
0.0
  0
LINE
  5
359
330
18
100
AcDbEntity
  8
TEXT
100
AcDbLine
 10
1.020478784675794
 20
0.1761059104529865
 30
0.0
 11
0.9132725112885049
 21
0.1761059104529865
 31
0.0
  0
LINE
  5
35A
330
18
100
AcDbEntity
  8
TEXT
100
AcDbLine
 10
0.9739918701965324
 20
0.1388309369908542
 30
0.0
 11
1.056279859979915
 21
0.1388309369908542
 31
0.0
  0
LINE
  5
35B
330
18
100
AcDbEntity
  8
TEXT
100
AcDbLine
 10
1.049509683020272
 20
0.240382605109752
 30
0.0
 11
0.9146777738032136
 21
0.240382605109752
 31
0.0
  0
LINE
  5
35C
330
18
100
AcDbEntity
  8
TEXT
100
AcDbLine
 10
0.9132725112885049
 20
0.1761059104529865
 30
0.0
 11
0.9132725112885049
 21
0.1010535043787799
 31
0.0
  0
ARC
  5
35D
330
18
100
AcDbEntity
  8
TEXT
100
AcDbCircle
 10
0.9739918701965315
 20
0.0711453558467357
 30
0.0
 40
0.0676855811441166
100
AcDbArc
 50
90.0
 51
153.7768192527749
  0
LINE
  5
35E
330
18
100
AcDbEntity
  8
TEXT
100
AcDbLine
 10
0.9146777738032136
 20
0.240382605109752
 30
0.0
 11
0.9146777738032136
 21
0.2120600593401081
 31
0.0
  0
LWPOLYLINE
  5
35F
330
18
100
AcDbEntity
  8
TEXT
100
AcDbPolyline
 90
        2
 70
     0
 43
0.0
 10
0.8788960830900478
 20
0.2403826051097555
 42
-0.3277054968067132
 10
0.9146777738032128
 20
0.2120600593401116
 42
6.667889725900311
  0
ARC
  5
360
330
18
100
AcDbEntity
  8
TEXT
100
AcDbCircle
 10
1.020478784675793
 20
0.1477465354529892
 30
0.0
 40
0.028359375
100
AcDbArc
 50
25.78218179591245
 51
90.0
  0
LINE
  5
361
330
18
100
AcDbEntity
  8
TEXT
100
AcDbLine
 10
1.056279859979915
 20
0.1388309369908542
 30
0.0
 11
1.046015099566351
 21
0.1600814765635485
 31
0.0
  0
ARC
  5
362
330
18
100
AcDbEntity
  8
TEXT
100
AcDbCircle
 10
1.047482743243204
 20
0.1987990379888496
 30
0.0
 40
0.0416329381542859
100
AcDbArc
 50
26.56974201007528
 51
87.20939649401342
  0
LINE
  5
363
330
18
100
AcDbEntity
  8
TEXT
100
AcDbLine
 10
1.287838482284409
 20
0.3058468108773527
 30
0.0
 11
1.287838482284404
 21
0.240382605109752
 31
0.0
  0
LINE
  5
364
330
18
100
AcDbEntity
  8
TEXT
100
AcDbLine
 10
1.287838482284404
 20
0.240382605109752
 30
0.0
 11
1.220338764634887
 21
0.240382605109752
 31
0.0
  0
LINE
  5
365
330
18
100
AcDbEntity
  8
TEXT
100
AcDbLine
 10
1.215670388318346
 20
0.1761059104529865
 30
0.0
 11
1.292318369610904
 21
0.1761059104529865
 31
0.0
  0
LINE
  5
366
330
18
100
AcDbEntity
  8
TEXT
100
AcDbLine
 10
1.192366528194814
 20
0.2128349552488773
 30
0.0
 11
1.192366528194814
 21
0.240382605109752
 31
0.0
  0
ARC
  5
367
330
18
100
AcDbEntity
  8
TEXT
100
AcDbCircle
 10
1.223559345257923
 20
0.2091368778274871
 30
0.0
 40
0.0314112657011332
100
AcDbArc
 50
95.88484768694724
 51
173.2388340632136
  0
ARC
  5
368
330
18
100
AcDbEntity
  8
TEXT
100
AcDbCircle
 10
1.215670388318345
 20
0.1512000351703238
 30
0.0
 40
0.0249058752826653
100
AcDbArc
 50
89.99971217465335
 51
179.9999999999985
  0
LINE
  5
369
330
18
100
AcDbEntity
  8
TEXT
100
AcDbLine
 10
1.128469621895313
 20
0.240382605109752
 30
0.0
 11
1.128469621895313
 21
0.1351706265563246
 31
0.0
  0
LINE
  5
36A
330
18
100
AcDbEntity
  8
TEXT
100
AcDbLine
 10
1.192366528194814
 20
0.240382605109752
 30
0.0
 11
1.128469621895313
 21
0.240382605109752
 31
0.0
  0
LINE
  5
36B
330
18
100
AcDbEntity
  8
TEXT
100
AcDbLine
 10
1.35669655392953
 20
0.1054891405974212
 30
0.0
 11
1.432600087140994
 21
-0.026090427878759
 31
0.0
  0
LINE
  5
36C
330
18
100
AcDbEntity
  8
TEXT
100
AcDbLine
 10
1.35669655392953
 20
-0.026090427878759
 30
0.0
 11
1.35669655392953
 21
0.1054891405974212
 31
0.0
  0
LINE
  5
36D
330
18
100
AcDbEntity
  8
TEXT
100
AcDbLine
 10
1.5091784595172
 20
-0.026090427878759
 30
0.0
 11
1.41368623615359
 21
0.1304893621687784
 31
0.0
  0
LINE
  5
36E
330
18
100
AcDbEntity
  8
TEXT
100
AcDbLine
 10
1.432600087140994
 20
-0.026090427878759
 30
0.0
 11
1.5091784595172
 21
-0.026090427878759
 31
0.0
  0
LINE
  5
36F
330
18
100
AcDbEntity
  8
TEXT
100
AcDbLine
 10
1.356153360833682
 20
0.1645172786982139
 30
0.0
 11
1.356153360833682
 21
0.3058468108773527
 31
0.0
  0
LINE
  5
370
330
18
100
AcDbEntity
  8
TEXT
100
AcDbLine
 10
1.478243352119295
 20
0.240382605109752
 30
0.0
 11
1.403251519389669
 21
0.240382605109752
 31
0.0
  0
LINE
  5
371
330
18
100
AcDbEntity
  8
TEXT
100
AcDbLine
 10
1.41368623615359
 20
0.1304893621687784
 30
0.0
 11
1.478243352119295
 21
0.240382605109752
 31
0.0
  0
LINE
  5
372
330
18
100
AcDbEntity
  8
TEXT
100
AcDbLine
 10
1.403251519389667
 20
0.240382605109752
 30
0.0
 11
1.356153360833682
 21
0.1645172786982139
 31
0.0
  0
ENDSEC
  0
SECTION
  2
OBJECTS
  0
DICTIONARY
  5
C
330
0
100
AcDbDictionary
  3
ACAD_GROUP
350
D
  3
ACAD_LAYOUT
350
377
  3
ACAD_MLINESTYLE
350
E
  3
ACAD_PLOTSETTINGS
350
378
  3
ACAD_PLOTSTYLENAME
350
375
  3
ACDBHEADERROUNDTRIPXREC
350
383
  3
ACDBVARIABLEDICTIONARY
350
380
  0
DICTIONARY
  5
3A5
330
18
100
AcDbDictionary
280
     1
  3
ACAD_LAYOUTSELFREF
360
3A6
  0
DICTIONARY
  5
3A3
330
15
100
AcDbDictionary
280
     1
  3
ACAD_LAYOUTSELFREF
360
3A4
  0
DICTIONARY
  5
D
102
{ACAD_REACTORS
330
C
102
}
330
C
100
AcDbDictionary
  0
DICTIONARY
  5
377
102
{ACAD_REACTORS
330
C
102
}
330
C
100
AcDbDictionary
  0
DICTIONARY
  5
E
102
{ACAD_REACTORS
330
C
102
}
330
C
100
AcDbDictionary
  3
STANDARD
350
1B
  0
DICTIONARY
  5
378
102
{ACAD_REACTORS
330
C
102
}
330
C
100
AcDbDictionary
  0
ACDBDICTIONARYWDFLT
  5
375
102
{ACAD_REACTORS
330
C
102
}
330
C
100
AcDbDictionary
281
     1
  3
Normal
350
376
100
AcDbDictionaryWithDefault
340
376
  0
DICTIONARY
  5
383
102
{ACAD_REACTORS
330
C
102
}
330
C
100
AcDbDictionary
  3
CEPSNTYPE
350
38D
  3
FINGERPRINTGUID
350
38E
  3
HYPERLINKBASE
350
386
  3
INSUNITS
350
38C
  3
LAYOUTDICT
350
388
  3
LWETCUNION
350
38B
  3
PLOTSETDICT
350
389
  3
PLOTSTYLNAMDICT
350
38A
  3
PSVPSCALE
350
390
  3
PUCSBASE
350
393
  3
PUCSORGBACK
350
399
  3
PUCSORGBOTTOM
350
395
  3
PUCSORGFRONT
350
398
  3
PUCSORGLEFT
350
396
  3
PUCSORGRIGHT
350
397
  3
PUCSORGTOP
350
394
  3
PUCSORTHOREF
350
391
  3
PUCSORTHOVIEW
350
392
  3
STYLESHEET
350
387
  3
TSTACKALIGN
350
384
  3
TSTACKSIZE
350
385
  3
UCSBASE
350
39C
  3
UCSORGBACK
350
3A2
  3
UCSORGBOTTOM
350
39E
  3
UCSORGFRONT
350
3A1
  3
UCSORGLEFT
350
39F
  3
UCSORGRIGHT
350
3A0
  3
UCSORGTOP
350
39D
  3
UCSORTHOREF
350
39A
  3
UCSORTHOVIEW
350
39B
  3
VERSIONGUID
350
38F
  0
DICTIONARY
  5
380
102
{ACAD_REACTORS
330
C
102
}
330
C
100
AcDbDictionary
  3
DIMASSOC
350
381
  0
XRECORD
  5
3A6
102
{ACAD_REACTORS
330
3A5
102
}
330
3A5
100
AcDbXrecord
340
18
  0
XRECORD
  5
3A4
102
{ACAD_REACTORS
330
3A3
102
}
330
3A3
100
AcDbXrecord
340
15
  0
MLINESTYLE
  5
1B
102
{ACAD_REACTORS
330
E
102
}
330
E
100
AcDbMlineStyle
  2
STANDARD
 70
     0
  3

 62
     0
 51
90.0
 52
90.0
 71
     2
 49
0.5
 62
   256
  6
BYLAYER
 49
-0.5
 62
   256
  6
BYLAYER
  0
ACDBPLACEHOLDER
  5
376
102
{ACAD_REACTORS
330
375
102
}
330
375
100
AcDbPlaceHolder
280
     0
  0
XRECORD
  5
38D
102
{ACAD_REACTORS
330
383
102
}
330
383
100
AcDbXrecord
 90
        0
  0
XRECORD
  5
38E
102
{ACAD_REACTORS
330
383
102
}
330
383
100
AcDbXrecord
  1
{2AA60510-8DBA-11D6-88E6-0090279574E7}
  0
XRECORD
  5
386
102
{ACAD_REACTORS
330
383
102
}
330
383
100
AcDbXrecord
  1

  0
XRECORD
  5
38C
102
{ACAD_REACTORS
330
383
102
}
330
383
100
AcDbXrecord
 90
        0
  0
XRECORD
  5
388
102
{ACAD_REACTORS
330
383
102
}
330
383
100
AcDbXrecord
340
377
  0
XRECORD
  5
38B
102
{ACAD_REACTORS
330
383
102
}
330
383
100
AcDbXrecord
 90
    14877
  0
XRECORD
  5
389
102
{ACAD_REACTORS
330
383
102
}
330
383
100
AcDbXrecord
340
378
  0
XRECORD
  5
38A
102
{ACAD_REACTORS
330
383
102
}
330
383
100
AcDbXrecord
340
375
  0
XRECORD
  5
390
102
{ACAD_REACTORS
330
383
102
}
330
383
100
AcDbXrecord
 40
0.0
  0
XRECORD
  5
393
102
{ACAD_REACTORS
330
383
102
}
330
383
100
AcDbXrecord
340
0
  0
XRECORD
  5
399
102
{ACAD_REACTORS
330
383
102
}
330
383
100
AcDbXrecord
 10
0.0
 20
0.0
 30
0.0
  0
XRECORD
  5
395
102
{ACAD_REACTORS
330
383
102
}
330
383
100
AcDbXrecord
 10
0.0
 20
0.0
 30
0.0
  0
XRECORD
  5
398
102
{ACAD_REACTORS
330
383
102
}
330
383
100
AcDbXrecord
 10
0.0
 20
0.0
 30
0.0
  0
XRECORD
  5
396
102
{ACAD_REACTORS
330
383
102
}
330
383
100
AcDbXrecord
 10
0.0
 20
0.0
 30
0.0
  0
XRECORD
  5
397
102
{ACAD_REACTORS
330
383
102
}
330
383
100
AcDbXrecord
 10
0.0
 20
0.0
 30
0.0
  0
XRECORD
  5
394
102
{ACAD_REACTORS
330
383
102
}
330
383
100
AcDbXrecord
 10
0.0
 20
0.0
 30
0.0
  0
XRECORD
  5
391
102
{ACAD_REACTORS
330
383
102
}
330
383
100
AcDbXrecord
340
0
  0
XRECORD
  5
392
102
{ACAD_REACTORS
330
383
102
}
330
383
100
AcDbXrecord
 70
     0
  0
XRECORD
  5
387
102
{ACAD_REACTORS
330
383
102
}
330
383
100
AcDbXrecord
  1

  0
XRECORD
  5
384
102
{ACAD_REACTORS
330
383
102
}
330
383
100
AcDbXrecord
 90
        1
  0
XRECORD
  5
385
102
{ACAD_REACTORS
330
383
102
}
330
383
100
AcDbXrecord
 90
       70
  0
XRECORD
  5
39C
102
{ACAD_REACTORS
330
383
102
}
330
383
100
AcDbXrecord
340
0
  0
XRECORD
  5
3A2
102
{ACAD_REACTORS
330
383
102
}
330
383
100
AcDbXrecord
 10
0.0
 20
0.0
 30
0.0
  0
XRECORD
  5
39E
102
{ACAD_REACTORS
330
383
102
}
330
383
100
AcDbXrecord
 10
0.0
 20
0.0
 30
0.0
  0
XRECORD
  5
3A1
102
{ACAD_REACTORS
330
383
102
}
330
383
100
AcDbXrecord
 10
0.0
 20
0.0
 30
0.0
  0
XRECORD
  5
39F
102
{ACAD_REACTORS
330
383
102
}
330
383
100
AcDbXrecord
 10
0.0
 20
0.0
 30
0.0
  0
XRECORD
  5
3A0
102
{ACAD_REACTORS
330
383
102
}
330
383
100
AcDbXrecord
 10
0.0
 20
0.0
 30
0.0
  0
XRECORD
  5
39D
102
{ACAD_REACTORS
330
383
102
}
330
383
100
AcDbXrecord
 10
0.0
 20
0.0
 30
0.0
  0
XRECORD
  5
39A
102
{ACAD_REACTORS
330
383
102
}
330
383
100
AcDbXrecord
340
0
  0
XRECORD
  5
39B
102
{ACAD_REACTORS
330
383
102
}
330
383
100
AcDbXrecord
 70
     0
  0
XRECORD
  5
38F
102
{ACAD_REACTORS
330
383
102
}
330
383
100
AcDbXrecord
  1
{2AA60512-8DBA-11D6-88E6-0090279574E7}
  0
DICTIONARYVAR
  5
381
102
{ACAD_REACTORS
330
380
102
}
330
380
100
DictionaryVariables
280
     0
  1
1
  0
ENDSEC
  0
EOF
