  0
SECTION
  2
HEADER
  9
$ACADVER
  1
AC1014
  9
$ACADMAINTVER
 70
     9
  9
$DWGCODEPAGE
  3
ANSI_1252
  9
$INSBASE
 10
0.0
 20
0.0
 30
0.0
  9
$EXTMIN
 10
-0.8893787618944106
 20
-0.1440106349368439
 30
0.0
  9
$EXTMAX
 10
2.595840559852717
 20
1.090249999999999
 30
0.0
  9
$LIMMIN
 10
0.0
 20
0.0
  9
$LIMMAX
 10
8.5
 20
11.0
  9
$ORTHOMODE
 70
     1
  9
$REGENMODE
 70
     1
  9
$FILLMODE
 70
     1
  9
$QTEXTMODE
 70
     0
  9
$MIRRTEXT
 70
     0
  9
$DRAGMODE
 70
     2
  9
$LTSCALE
 40
1.0
  9
$OSMODE
 70
    39
  9
$ATTMODE
 70
     1
  9
$TEXTSIZE
 40
0.125
  9
$TRACEWID
 40
0.05
  9
$TEXTSTYLE
  7
ROMANS
  9
$CLAYER
  8
0
  9
$CELTYPE
  6
BYLAYER
  9
$CECOLOR
 62
   256
  9
$CELTSCALE
 40
1.0
  9
$DELOBJ
 70
     1
  9
$DISPSILH
 70
     1
  9
$DIMSCALE
 40
1.0
  9
$DIMASZ
 40
0.125
  9
$DIMEXO
 40
0.125
  9
$DIMDLI
 40
0.375
  9
$DIMRND
 40
0.0
  9
$DIMDLE
 40
0.0
  9
$DIMEXE
 40
0.125
  9
$DIMTP
 40
0.0
  9
$DIMTM
 40
0.005
  9
$DIMTXT
 40
0.125
  9
$DIMCEN
 40
-0.125
  9
$DIMTSZ
 40
0.0
  9
$DIMTOL
 70
     0
  9
$DIMLIM
 70
     0
  9
$DIMTIH
 70
     1
  9
$DIMTOH
 70
     1
  9
$DIMSE1
 70
     0
  9
$DIMSE2
 70
     0
  9
$DIMTAD
 70
     0
  9
$DIMZIN
 70
     4
  9
$DIMBLK
  1

  9
$DIMASO
 70
     1
  9
$DIMSHO
 70
     1
  9
$DIMPOST
  1

  9
$DIMAPOST
  1

  9
$DIMALT
 70
     0
  9
$DIMALTD
 70
     2
  9
$DIMALTF
 40
25.4
  9
$DIMLFAC
 40
0.125
  9
$DIMTOFL
 70
     0
  9
$DIMTVP
 40
0.0
  9
$DIMTIX
 70
     1
  9
$DIMSOXD
 70
     0
  9
$DIMSAH
 70
     0
  9
$DIMBLK1
  1

  9
$DIMBLK2
  1

  9
$DIMSTYLE
  2
STANDARD
  9
$DIMCLRD
 70
     0
  9
$DIMCLRE
 70
     0
  9
$DIMCLRT
 70
     0
  9
$DIMTFAC
 40
1.0
  9
$DIMGAP
 40
0.09
  9
$DIMJUST
 70
     0
  9
$DIMSD1
 70
     0
  9
$DIMSD2
 70
     0
  9
$DIMTOLJ
 70
     1
  9
$DIMTZIN
 70
     0
  9
$DIMALTZ
 70
     0
  9
$DIMALTTZ
 70
     0
  9
$DIMFIT
 70
     3
  9
$DIMUPT
 70
     0
  9
$DIMUNIT
 70
     2
  9
$DIMDEC
 70
     3
  9
$DIMTDEC
 70
     4
  9
$DIMALTU
 70
     2
  9
$DIMALTTD
 70
     2
  9
$DIMTXSTY
  7
ROMANS
  9
$DIMAUNIT
 70
     0
  9
$LUNITS
 70
     2
  9
$LUPREC
 70
     3
  9
$SKETCHINC
 40
0.1
  9
$FILLETRAD
 40
0.0
  9
$AUNITS
 70
     0
  9
$AUPREC
 70
     0
  9
$MENU
  1
ACAD
  9
$ELEVATION
 40
0.0
  9
$PELEVATION
 40
0.0
  9
$THICKNESS
 40
0.0
  9
$LIMCHECK
 70
     0
  9
$BLIPMODE
 70
     0
  9
$CHAMFERA
 40
0.0
  9
$CHAMFERB
 40
0.0
  9
$CHAMFERC
 40
0.0
  9
$CHAMFERD
 40
0.0
  9
$SKPOLY
 70
     0
  9
$TDCREATE
 40
2448379.685203124
  9
$TDUPDATE
 40
2452458.325589676
  9
$TDINDWG
 40
0.0141114005
  9
$TDUSRTIMER
 40
0.0141114005
  9
$USRTIMER
 70
     1
  9
$ANGBASE
 50
0.0
  9
$ANGDIR
 70
     0
  9
$PDMODE
 70
     0
  9
$PDSIZE
 40
0.0
  9
$PLINEWID
 40
0.0
  9
$COORDS
 70
     2
  9
$SPLFRAME
 70
     0
  9
$SPLINETYPE
 70
     6
  9
$SPLINESEGS
 70
     8
  9
$ATTDIA
 70
     0
  9
$ATTREQ
 70
     1
  9
$HANDLING
 70
 22529
  9
$HANDSEED
  5
42B
  9
$SURFTAB1
 70
     6
  9
$SURFTAB2
 70
     6
  9
$SURFTYPE
 70
     6
  9
$SURFU
 70
     6
  9
$SURFV
 70
     6
  9
$UCSNAME
  2

  9
$UCSORG
 10
0.0
 20
0.0
 30
0.0
  9
$UCSXDIR
 10
1.0
 20
0.0
 30
0.0
  9
$UCSYDIR
 10
0.0
 20
1.0
 30
0.0
  9
$PUCSNAME
  2

  9
$PUCSORG
 10
0.0
 20
0.0
 30
0.0
  9
$PUCSXDIR
 10
1.0
 20
0.0
 30
0.0
  9
$PUCSYDIR
 10
0.0
 20
1.0
 30
0.0
  9
$USERI1
 70
     0
  9
$USERI2
 70
     0
  9
$USERI3
 70
     0
  9
$USERI4
 70
     0
  9
$USERI5
 70
     0
  9
$USERR1
 40
0.0
  9
$USERR2
 40
0.0
  9
$USERR3
 40
0.0
  9
$USERR4
 40
0.0
  9
$USERR5
 40
0.0
  9
$WORLDVIEW
 70
     1
  9
$SHADEDGE
 70
     3
  9
$SHADEDIF
 70
    70
  9
$TILEMODE
 70
     1
  9
$MAXACTVP
 70
    16
  9
$PINSBASE
 10
0.0
 20
0.0
 30
0.0
  9
$PLIMCHECK
 70
     0
  9
$PEXTMIN
 10
1.000000000000000E+20
 20
1.000000000000000E+20
 30
1.000000000000000E+20
  9
$PEXTMAX
 10
-1.000000000000000E+20
 20
-1.000000000000000E+20
 30
-1.000000000000000E+20
  9
$PLIMMIN
 10
0.0
 20
0.0
  9
$PLIMMAX
 10
12.0
 20
9.0
  9
$UNITMODE
 70
     0
  9
$VISRETAIN
 70
     0
  9
$PLINEGEN
 70
     1
  9
$PSLTSCALE
 70
     0
  9
$TREEDEPTH
 70
  3020
  9
$PICKSTYLE
 70
     1
  9
$CMLSTYLE
  2
STANDARD
  9
$CMLJUST
 70
     0
  9
$CMLSCALE
 40
1.0
  9
$PROXYGRAPHICS
 70
     1
  9
$MEASUREMENT
 70
     0
  0
ENDSEC
  0
SECTION
  2
CLASSES
  0
CLASS
  1
LWPOLYLINE
  2
AcDbPolyline
  3
AutoCAD 2000
 90
        0
280
     0
281
     1
  0
CLASS
  1
ACDBDICTIONARYWDFLT
  2
AcDbDictionaryWithDefault
  3
AutoCAD 2000
 90
        0
280
     0
281
     0
  0
CLASS
  1
ACDBPLACEHOLDER
  2
AcDbPlaceHolder
  3
AutoCAD 2000
 90
        0
280
     0
281
     0
  0
CLASS
  1
LAYOUT
  2
AcDbLayout
  3
AutoCAD 2000
 90
        0
280
     0
281
     0
  0
CLASS
  1
DICTIONARYVAR
  2
AcDbDictionaryVar
  3
AutoCAD 2000
 90
        0
280
     0
281
     0
  0
CLASS
  1
LONG_TRANSACTION
  2
AcDbLongTransaction
  3
AutoCAD 2000
 90
        0
280
     0
281
     0
  0
CLASS
  1
LWPOLYLINE
  2
AcDbPolyline
  3
AutoCAD 2000
 90
        0
280
     0
281
     1
  0
CLASS
  1
HATCH
  2
AcDbHatch
  3
AutoCAD 2000
 90
        0
280
     0
281
     1
  0
CLASS
  1
XRECORD
  2
AcDbXrecord
  3
AutoCAD 2000
 90
        0
280
     0
281
     0
  0
ENDSEC
  0
SECTION
  2
TABLES
  0
TABLE
  2
VPORT
  5
8
330
0
100
AcDbSymbolTable
 70
     2
  0
VPORT
  5
406
330
8
100
AcDbSymbolTableRecord
100
AcDbViewportTableRecord
  2
*ACTIVE
 70
     0
 10
0.0
 20
0.0
 11
1.0
 21
1.0
 12
4.292871897334637
 22
0.7665125125561634
 13
0.0
 23
0.0
 14
0.015625
 24
0.015625
 15
0.0
 25
0.0
 16
0.0
 26
0.0
 36
1.0
 17
0.0
 27
0.0
 37
0.0
 40
2.379071520907181
 41
4.320930232558139
 42
50.0
 43
0.0
 44
0.0
 50
0.0
 51
0.0
 71
     0
 72
  2000
 73
     1
 74
     1
 75
     0
 76
     0
 77
     0
 78
     0
  0
ENDTAB
  0
TABLE
  2
LTYPE
  5
5
330
0
100
AcDbSymbolTable
 70
     1
  0
LTYPE
  5
12
330
5
100
AcDbSymbolTableRecord
100
AcDbLinetypeTableRecord
  2
BYBLOCK
 70
     0
  3

 72
    65
 73
     0
 40
0.0
  0
LTYPE
  5
13
330
5
100
AcDbSymbolTableRecord
100
AcDbLinetypeTableRecord
  2
BYLAYER
 70
     0
  3

 72
    65
 73
     0
 40
0.0
  0
LTYPE
  5
14
330
5
100
AcDbSymbolTableRecord
100
AcDbLinetypeTableRecord
  2
CONTINUOUS
 70
     0
  3
Solid line
 72
    65
 73
     0
 40
0.0
  0
ENDTAB
  0
TABLE
  2
LAYER
  5
2
330
0
100
AcDbSymbolTable
 70
     2
  0
LAYER
  5
F
330
2
100
AcDbSymbolTableRecord
100
AcDbLayerTableRecord
  2
0
 70
     0
 62
     7
  6
CONTINUOUS
  0
LAYER
  5
23
330
2
100
AcDbSymbolTableRecord
100
AcDbLayerTableRecord
  2
TEXT
 70
     0
 62
     3
  6
CONTINUOUS
  0
ENDTAB
  0
TABLE
  2
STYLE
  5
3
330
0
100
AcDbSymbolTable
 70
     3
  0
STYLE
  5
10
330
3
100
AcDbSymbolTableRecord
100
AcDbTextStyleTableRecord
  2
STANDARD
 70
     0
 40
0.0
 41
1.0
 50
0.0
 71
     0
 42
0.0625
  3
txt
  4

  0
STYLE
  5
2F3
330
3
100
AcDbSymbolTableRecord
100
AcDbTextStyleTableRecord
  2
ITALICC
 70
     0
 40
0.0
 41
1.0
 50
0.0
 71
     0
 42
0.125
  3
italicc
  4

  0
STYLE
  5
402
330
3
100
AcDbSymbolTableRecord
100
AcDbTextStyleTableRecord
  2
ROMANS
 70
     0
 40
0.0
 41
1.0
 50
0.0
 71
     0
 42
0.125
  3
romans.shx
  4

  0
ENDTAB
  0
TABLE
  2
VIEW
  5
6
330
0
100
AcDbSymbolTable
 70
     0
  0
ENDTAB
  0
TABLE
  2
UCS
  5
7
330
0
100
AcDbSymbolTable
 70
     0
  0
ENDTAB
  0
TABLE
  2
APPID
  5
9
330
0
100
AcDbSymbolTable
 70
     1
  0
APPID
  5
11
330
9
100
AcDbSymbolTableRecord
100
AcDbRegAppTableRecord
  2
ACAD
 70
     0
  0
ENDTAB
  0
TABLE
  2
DIMSTYLE
  5
A
330
0
100
AcDbSymbolTable
 70
     1
  0
DIMSTYLE
105
2EB
330
A
100
AcDbSymbolTableRecord
100
AcDbDimStyleTableRecord
  2
STANDARD
 70
     0
  3

  4

  5

  6

  7

 40
1.0
 41
0.18
 42
0.0625
 43
0.38
 44
0.18
 45
0.0
 46
0.0
 47
0.0
 48
0.0
140
0.18
141
0.09
142
0.0
143
25.4
144
1.0
145
0.0
146
1.0
147
0.09
 71
     0
 72
     0
 73
     1
 74
     1
 75
     0
 76
     0
 77
     0
 78
     0
170
     0
171
     2
172
     0
173
     0
174
     0
175
     0
176
     0
177
     0
178
     0
270
     2
271
     4
272
     4
273
     2
274
     2
340
10
275
     0
280
     0
281
     0
282
     0
283
     1
284
     0
285
     0
286
     0
287
     3
288
     0
  0
ENDTAB
  0
TABLE
  2
BLOCK_RECORD
  5
1
330
0
100
AcDbSymbolTable
 70
     0
  0
BLOCK_RECORD
  5
18
102
{ACAD_XDICTIONARY
360
429
102
}
330
1
100
AcDbSymbolTableRecord
100
AcDbBlockTableRecord
  2
*MODEL_SPACE
  0
BLOCK_RECORD
  5
15
102
{ACAD_XDICTIONARY
360
427
102
}
330
1
100
AcDbSymbolTableRecord
100
AcDbBlockTableRecord
  2
*PAPER_SPACE
  0
ENDTAB
  0
ENDSEC
  0
SECTION
  2
BLOCKS
  0
BLOCK
  5
29
330
18
100
AcDbEntity
  8
0
100
AcDbBlockBegin
  2
*MODEL_SPACE
 70
     0
 10
0.0
 20
0.0
 30
0.0
  3
*MODEL_SPACE
  1

  0
ENDBLK
  5
2A
330
18
100
AcDbEntity
  8
0
100
AcDbBlockEnd
  0
BLOCK
  5
27
330
15
100
AcDbEntity
 67
     1
  8
0
100
AcDbBlockBegin
  2
*PAPER_SPACE
 70
     0
 10
0.0
 20
0.0
 30
0.0
  3
*PAPER_SPACE
  1

  0
ENDBLK
  5
28
330
15
100
AcDbEntity
 67
     1
  8
0
100
AcDbBlockEnd
  0
ENDSEC
  0
SECTION
  2
ENTITIES
  0
LWPOLYLINE
  5
23A
330
18
100
AcDbEntity
  8
0
100
AcDbPolyline
 90
       74
 70
     1
 43
0.0
 10
1.132874999999999
 20
0.8577500000000002
 10
1.122875
 20
0.8477500000000009
 10
1.122875
 20
0.8027499999999996
 10
1.132874999999999
 20
0.7927499999999999
 10
1.122875
 20
0.7827500000000001
 10
1.122875
 20
0.73025
 10
1.166176270189222
 20
0.7552500000000045
 42
-0.5257538613509963
 10
1.073875
 20
0.6730923233502246
 10
1.098875
 20
0.7163935935394468
 10
1.098875
 20
0.7442525773880714
 10
1.070875
 20
0.7927499999999999
 10
1.098875
 20
0.7927499999999999
 10
1.098875
 20
0.8092525773880716
 10
1.070875
 20
0.8577499999999997
 10
1.098874999999999
 20
0.8577500000000002
 10
1.098875
 20
0.8742525773880711
 10
1.070875
 20
0.9227499999999992
 10
1.098874999999999
 20
0.9227499999999992
 10
1.098875
 20
0.9392525773880711
 10
1.070875
 20
0.9877499999999997
 10
1.098875
 20
0.9877499999999992
 10
1.098875
 20
1.040249999999999
 10
0.820875
 20
1.04025
 10
0.820875
 20
0.9877499999999992
 10
0.8488749999999999
 20
0.9877499999999997
 10
0.820875
 20
0.9392525773880711
 10
0.8208750000000005
 20
0.9227499999999992
 10
0.8488749999999996
 20
0.9227499999999992
 10
0.8208749999999998
 20
0.8742525773880711
 10
0.8208750000000005
 20
0.8577500000000002
 10
0.8488749999999992
 20
0.8577499999999997
 10
0.8208749999999994
 20
0.8092525773880716
 10
0.820875
 20
0.7927499999999999
 10
0.8488749999999996
 20
0.7927499999999999
 10
0.8208749999999994
 20
0.7442525773880714
 10
0.8208749999999994
 20
0.7163935935394468
 10
0.8458749999999994
 20
0.6730923233502246
 42
-0.5257538613509963
 10
0.753573729810778
 20
0.7552500000000045
 10
0.796875
 20
0.73025
 10
0.796875
 20
0.7827500000000001
 10
0.7868750000000003
 20
0.7927499999999999
 10
0.796875
 20
0.8027499999999996
 10
0.796875
 20
0.8477500000000009
 10
0.7868750000000003
 20
0.8577500000000002
 10
0.796875
 20
0.86775
 10
0.796875
 20
0.9127499999999994
 10
0.7868750000000003
 20
0.9227499999999992
 10
0.7968750000000005
 20
0.9327499999999995
 10
0.796875
 20
0.9777499999999989
 10
0.7868750000000003
 20
0.9877499999999987
 10
0.796875
 20
0.9977499999999984
 10
0.796875
 20
1.04025
 42
-0.4142135623730951
 10
0.836875
 20
1.08025
 10
0.8561250000000008
 20
1.08025
 10
0.8661250000000002
 20
1.090249999999999
 10
0.8761250000000003
 20
1.080249999999999
 10
0.9186250000000004
 20
1.080249999999999
 10
0.9286250000000002
 20
1.090249999999999
 10
0.9386250000000003
 20
1.080249999999999
 10
0.9811249999999995
 20
1.080249999999999
 10
0.9911249999999999
 20
1.090249999999999
 10
1.001124999999999
 20
1.080249999999999
 10
1.043624999999999
 20
1.080249999999999
 10
1.053624999999999
 20
1.090249999999999
 10
1.063624999999999
 20
1.080249999999999
 10
1.082875
 20
1.08025
 42
-0.4142135623730951
 10
1.122875
 20
1.04025
 10
1.122875
 20
0.9977499999999984
 10
1.132874999999999
 20
0.9877499999999987
 10
1.122875
 20
0.9777499999999989
 10
1.122874999999999
 20
0.9327499999999995
 10
1.132874999999999
 20
0.9227499999999992
 10
1.122875
 20
0.9127499999999994
 10
1.122875
 20
0.86775
  0
TEXT
  5
378
330
18
100
AcDbEntity
  8
TEXT
100
AcDbText
 10
0.0976504363803516
 20
0.3140079691457376
 30
0.0
 40
0.125
  1
PART #130007
  7
ITALICC
 72
     1
 11
0.8536028173327325
 21
0.3140079691457376
 31
0.0
100
AcDbText
  0
LWPOLYLINE
  5
379
330
18
100
AcDbEntity
  8
TEXT
100
AcDbPolyline
 90
        3
 70
     0
 43
0.0
 10
0.4845620110564966
 20
0.1339309777826729
 10
0.3662618522404522
 20
0.1339309777826729
 10
0.3662618522404522
 20
0.106763481021777
 42
-1.960274751411753
  0
LWPOLYLINE
  5
37A
330
18
100
AcDbEntity
  8
TEXT
100
AcDbPolyline
 90
        4
 70
     0
 43
0.0
 10
0.4494276605122867
 20
0.062100493959794
 10
0.4494276605122867
 20
-0.1325420552058416
 10
0.5179059438001446
 20
-0.1325420552058416
 10
0.5179059438001446
 20
-0.0890511102554035
 42
-1.714843617202739
  0
LWPOLYLINE
  5
37B
330
18
100
AcDbEntity
  8
TEXT
100
AcDbPolyline
 90
        2
 70
     0
 43
0.0001332181640625
 10
-0.6492530211717558
 20
-0.1058617175298293
 10
-0.7092011949998796
 20
-0.0459135437017038
  0
LWPOLYLINE
  5
37C
330
18
100
AcDbEntity
  8
TEXT
100
AcDbPolyline
 90
        3
 70
     0
 43
0.0006660908203125
 10
-0.7358448278123806
 20
-0.1058617175298293
 10
-0.6492530211717558
 20
-0.1058617175298293
 10
-0.6492530211717558
 20
-0.0192699108892027
  0
LWPOLYLINE
  5
37D
330
18
100
AcDbEntity
  8
TEXT
100
AcDbPolyline
 90
        3
 70
     0
 43
0.0006660908203125
 10
-0.7358448278123806
 20
-0.1325053503423303
 10
-0.6226093883592548
 20
-0.1325053503423303
 10
-0.6226093883592548
 20
-0.0192699108892027
  0
LWPOLYLINE
  5
37E
330
18
100
AcDbEntity
  8
TEXT
100
AcDbPolyline
 90
        2
 70
     0
 43
0.0001332181640625
 10
-0.6226093883592548
 20
-0.0192699108892027
 10
-0.6958793785936308
 20
-0.0092785485845175
  0
LWPOLYLINE
  5
37F
330
18
100
AcDbEntity
  8
TEXT
100
AcDbPolyline
 90
        2
 70
     0
 43
0.0001332181640625
 10
-0.6492530211717558
 20
-0.0192699108892027
 10
-0.7092011949998796
 20
-0.0092785485845175
  0
LWPOLYLINE
  5
380
330
18
100
AcDbEntity
  8
TEXT
100
AcDbPolyline
 90
        2
 70
     0
 43
0.0001332181640625
 10
-0.8624020836717569
 20
-0.1058617175298293
 10
-0.8024539098436296
 20
-0.0459135437017038
  0
LWPOLYLINE
  5
381
330
18
100
AcDbEntity
  8
TEXT
100
AcDbPolyline
 90
        2
 70
     0
 43
0.0001332181640625
 10
-0.8624020836717569
 20
-0.0192699108892027
 10
-0.8024539098436296
 20
-0.0092785485845175
  0
LWPOLYLINE
  5
382
330
18
100
AcDbEntity
  8
TEXT
100
AcDbPolyline
 90
        3
 70
     0
 43
0.0006660908203125
 10
-0.8890457164842544
 20
-0.0192699108892027
 10
-0.8890457164842544
 20
-0.1325053503423303
 10
-0.7758102770311322
 20
-0.1325053503423303
  0
LWPOLYLINE
  5
383
330
18
100
AcDbEntity
  8
TEXT
100
AcDbPolyline
 90
        3
 70
     0
 43
0.0006660908203125
 10
-0.8624020836717569
 20
-0.0192699108892027
 10
-0.8624020836717569
 20
-0.1058617175298293
 10
-0.7758102770311322
 20
-0.1058617175298293
  0
LWPOLYLINE
  5
384
330
18
100
AcDbEntity
  8
TEXT
100
AcDbPolyline
 90
        5
 70
     0
 43
0.0001332181640625
 10
-0.7658189147264416
 20
-0.0592353601079543
 10
-0.7658189147264416
 20
-0.0459135437017038
 10
-0.8024539098436296
 20
-0.0459135437017038
 10
-0.8024539098436296
 20
-0.0092785485845175
 10
-0.8157757262498801
 20
-0.0092785485845175
  0
LWPOLYLINE
  5
385
330
18
100
AcDbEntity
  8
TEXT
100
AcDbPolyline
 90
        2
 70
     0
 43
0.0006660908203125
 10
-0.8624020836717569
 20
-0.0192699108892027
 10
-0.8890457164842544
 20
-0.0192699108892027
  0
LWPOLYLINE
  5
386
330
18
100
AcDbEntity
  8
TEXT
100
AcDbPolyline
 90
        2
 70
     0
 43
0.0001332181640625
 10
-0.8157757262498801
 20
-0.0092785485845175
 10
-0.8890457164842544
 20
-0.0192699108892027
  0
LWPOLYLINE
  5
387
330
18
100
AcDbEntity
  8
TEXT
100
AcDbPolyline
 90
        2
 70
     0
 43
0.0006660908203125
 10
-0.7758102770311322
 20
-0.1058617175298293
 10
-0.7758102770311322
 20
-0.1325053503423303
  0
LWPOLYLINE
  5
388
330
18
100
AcDbEntity
  8
TEXT
100
AcDbPolyline
 90
        2
 70
     0
 43
0.0001332181640625
 10
-0.7758102770311322
 20
-0.1058617175298293
 10
-0.7658189147264416
 20
-0.0459135437017038
  0
LWPOLYLINE
  5
389
330
18
100
AcDbEntity
  8
TEXT
100
AcDbPolyline
 90
        2
 70
     0
 43
0.0001332181640625
 10
-0.7758102770311322
 20
-0.1325053503423303
 10
-0.7658189147264416
 20
-0.0592353601079543
  0
LWPOLYLINE
  5
38A
330
18
100
AcDbEntity
  8
TEXT
100
AcDbPolyline
 90
        2
 70
     0
 43
0.0001332181640625
 10
-0.7358448278123806
 20
-0.1058617175298293
 10
-0.7458361901170694
 20
-0.0459135437017038
  0
LWPOLYLINE
  5
38B
330
18
100
AcDbEntity
  8
TEXT
100
AcDbPolyline
 90
        2
 70
     0
 43
0.0001332181640625
 10
-0.7458361901170694
 20
-0.0592353601079543
 10
-0.7358448278123806
 20
-0.1325053503423303
  0
LWPOLYLINE
  5
38C
330
18
100
AcDbEntity
  8
TEXT
100
AcDbPolyline
 90
        2
 70
     0
 43
0.0006660908203125
 10
-0.7358448278123806
 20
-0.1058617175298293
 10
-0.7358448278123806
 20
-0.1325053503423303
  0
LWPOLYLINE
  5
38D
330
18
100
AcDbEntity
  8
TEXT
100
AcDbPolyline
 90
        5
 70
     0
 43
0.0001332181640625
 10
-0.6958793785936308
 20
-0.0092785485845175
 10
-0.7092011949998796
 20
-0.0092785485845175
 10
-0.7092011949998796
 20
-0.0459135437017038
 10
-0.7458361901170694
 20
-0.0459135437017038
 10
-0.7458361901170694
 20
-0.0592353601079543
  0
LWPOLYLINE
  5
38E
330
18
100
AcDbEntity
  8
TEXT
100
AcDbPolyline
 90
        2
 70
     0
 43
0.0006660908203125
 10
-0.6492530211717558
 20
-0.0192699108892027
 10
-0.6226093883592548
 20
-0.0192699108892027
  0
LWPOLYLINE
  5
38F
330
18
100
AcDbEntity
  8
TEXT
100
AcDbPolyline
 90
        3
 70
     0
 43
0.0006660908203125
 10
-0.6226093883592548
 20
0.0206955383295453
 10
-0.6226093883592548
 20
0.1339309777826729
 10
-0.7358448278123806
 20
0.1339309777826729
  0
LWPOLYLINE
  5
390
330
18
100
AcDbEntity
  8
TEXT
100
AcDbPolyline
 90
        3
 70
     0
 43
0.0006660908203125
 10
-0.6492530211717558
 20
0.0206955383295453
 10
-0.6492530211717558
 20
0.1072873449701719
 10
-0.7358448278123806
 20
0.1072873449701719
  0
LWPOLYLINE
  5
391
330
18
100
AcDbEntity
  8
TEXT
100
AcDbPolyline
 90
        2
 70
     0
 43
0.0001332181640625
 10
-0.6958793785936308
 20
0.0107041760248565
 10
-0.6226093883592548
 20
0.0206955383295453
  0
LWPOLYLINE
  5
392
330
18
100
AcDbEntity
  8
TEXT
100
AcDbPolyline
 90
        2
 70
     0
 43
0.0001332181640625
 10
-0.6492530211717558
 20
0.0206955383295453
 10
-0.7092011949998796
 20
0.0107041760248565
  0
LWPOLYLINE
  5
393
330
18
100
AcDbEntity
  8
TEXT
100
AcDbPolyline
 90
        2
 70
     0
 43
0.0001332181640625
 10
-0.6492530211717558
 20
0.1072873449701719
 10
-0.7092011949998796
 20
0.0473391711420463
  0
LWPOLYLINE
  5
394
330
18
100
AcDbEntity
  8
TEXT
100
AcDbPolyline
 90
        2
 70
     0
 43
0.0001332181640625
 10
-0.8624020836717569
 20
0.1072873449701719
 10
-0.8024539098436314
 20
0.0473391711420463
  0
LWPOLYLINE
  5
395
330
18
100
AcDbEntity
  8
TEXT
100
AcDbPolyline
 90
        2
 70
     0
 43
0.0001332181640625
 10
-0.8624020836717569
 20
0.0206955383295453
 10
-0.8024539098436314
 20
0.0107041760248565
  0
LWPOLYLINE
  5
396
330
18
100
AcDbEntity
  8
TEXT
100
AcDbPolyline
 90
        3
 70
     0
 43
0.0006660908203125
 10
-0.7758102770311322
 20
0.1339309777826729
 10
-0.8890457164842544
 20
0.1339309777826729
 10
-0.8890457164842544
 20
0.0206955383295453
  0
LWPOLYLINE
  5
397
330
18
100
AcDbEntity
  8
TEXT
100
AcDbPolyline
 90
        3
 70
     0
 43
0.0006660908203125
 10
-0.7758102770311322
 20
0.1072873449701719
 10
-0.8624020836717569
 20
0.1072873449701719
 10
-0.8624020836717569
 20
0.0206955383295453
  0
LWPOLYLINE
  5
398
330
18
100
AcDbEntity
  8
TEXT
100
AcDbPolyline
 90
        5
 70
     0
 43
0.0001332181640625
 10
-0.8157757262498801
 20
0.0107041760248565
 10
-0.8024539098436314
 20
0.0107041760248565
 10
-0.8024539098436314
 20
0.0473391711420463
 10
-0.7658189147264416
 20
0.0473391711420463
 10
-0.7658189147264416
 20
0.0606609875482933
  0
LWPOLYLINE
  5
399
330
18
100
AcDbEntity
  8
TEXT
100
AcDbPolyline
 90
        2
 70
     0
 43
0.0001332181640625
 10
-0.8890457164842544
 20
0.0206955383295453
 10
-0.8157757262498801
 20
0.0107041760248565
  0
LWPOLYLINE
  5
39A
330
18
100
AcDbEntity
  8
TEXT
100
AcDbPolyline
 90
        2
 70
     0
 43
0.0006660908203125
 10
-0.8624020836717569
 20
0.0206955383295453
 10
-0.8890457164842544
 20
0.0206955383295453
  0
LWPOLYLINE
  5
39B
330
18
100
AcDbEntity
  8
TEXT
100
AcDbPolyline
 90
        2
 70
     0
 43
0.0006660908203125
 10
-0.7758102770311322
 20
0.1072873449701719
 10
-0.7758102770311322
 20
0.1339309777826729
  0
LWPOLYLINE
  5
39C
330
18
100
AcDbEntity
  8
TEXT
100
AcDbPolyline
 90
        2
 70
     0
 43
0.0001332181640625
 10
-0.7658189147264416
 20
0.0606609875482933
 10
-0.7758102770311322
 20
0.1339309777826729
  0
LWPOLYLINE
  5
39D
330
18
100
AcDbEntity
  8
TEXT
100
AcDbPolyline
 90
        2
 70
     0
 43
0.0001332181640625
 10
-0.7758102770311322
 20
0.1072873449701719
 10
-0.7658189147264416
 20
0.0473391711420463
  0
LWPOLYLINE
  5
39E
330
18
100
AcDbEntity
  8
TEXT
100
AcDbPolyline
 90
        5
 70
     0
 43
0.0001332181640625
 10
-0.7458361901170694
 20
0.0606609875482933
 10
-0.7458361901170694
 20
0.0473391711420463
 10
-0.7092011949998796
 20
0.0473391711420463
 10
-0.7092011949998796
 20
0.0107041760248565
 10
-0.6958793785936308
 20
0.0107041760248565
  0
LWPOLYLINE
  5
39F
330
18
100
AcDbEntity
  8
TEXT
100
AcDbPolyline
 90
        2
 70
     0
 43
0.0006660908203125
 10
-0.7358448278123806
 20
0.1072873449701719
 10
-0.7358448278123806
 20
0.1339309777826729
  0
LWPOLYLINE
  5
3A0
330
18
100
AcDbEntity
  8
TEXT
100
AcDbPolyline
 90
        2
 70
     0
 43
0.0001332181640625
 10
-0.7358448278123806
 20
0.1072873449701719
 10
-0.7458361901170694
 20
0.0473391711420463
  0
LWPOLYLINE
  5
3A1
330
18
100
AcDbEntity
  8
TEXT
100
AcDbPolyline
 90
        2
 70
     0
 43
0.0001332181640625
 10
-0.7358448278123806
 20
0.1339309777826729
 10
-0.7458361901170694
 20
0.0606609875482933
  0
LWPOLYLINE
  5
3A2
330
18
100
AcDbEntity
  8
TEXT
100
AcDbPolyline
 90
        2
 70
     0
 43
0.0006660908203125
 10
-0.6492530211717558
 20
0.0206955383295453
 10
-0.6226093883592548
 20
0.0206955383295453
  0
LINE
  5
3A3
330
18
100
AcDbEntity
  8
TEXT
100
AcDbLine
 10
-0.0011291737040677
 20
-0.1125835491008287
 30
0.0
 11
0.0961705323893769
 21
0.0517666618344395
 31
0.0
  0
LINE
  5
3A4
330
18
100
AcDbEntity
  8
TEXT
100
AcDbLine
 10
0.0084710632928866
 20
0.0330589816695488
 30
0.0
 11
-0.0501592577390513
 21
0.1339309777826694
 31
0.0
  0
LINE
  5
3A5
330
18
100
AcDbEntity
  8
TEXT
100
AcDbLine
 10
-0.1855895974822585
 20
0.0696542831259039
 30
0.0
 11
-0.1855895974822585
 21
-0.0727496638677918
 31
0.0
  0
LWPOLYLINE
  5
3A6
330
18
100
AcDbEntity
  8
TEXT
100
AcDbPolyline
 90
        6
 70
     1
 43
0.0
 10
-0.0891791864270033
 20
0.0696542831259039
 10
-0.1194957806472114
 20
0.0696542831259039
 10
-0.1194957806472114
 20
-0.0534567149289904
 42
0.407328721240804
 10
-0.1079521294857351
 20
-0.0652756296053765
 10
-0.0473304304410043
 20
-0.0652756296053765
 10
-0.0298650900336863
 20
-0.0324634005618973
  0
ARC
  5
3A7
330
18
100
AcDbEntity
  8
TEXT
100
AcDbCircle
 10
-0.357732581625477
 20
0.0518435183361676
 30
0.0
 40
0.0820874594465043
100
AcDbArc
 50
90.0
 51
270.0
  0
ARC
  5
3A8
330
18
100
AcDbEntity
  8
TEXT
100
AcDbCircle
 10
-0.2868951152669279
 20
-0.0493462468452846
 30
0.0
 40
0.0831958083605586
100
AcDbArc
 50
270.0
 51
90.0
  0
LINE
  5
3A9
330
18
100
AcDbEntity
  8
TEXT
100
AcDbLine
 10
-0.357732581625477
 20
-0.0302439411103377
 30
0.0
 11
-0.2819547413606482
 21
-0.0302439411103377
 31
0.0
  0
LINE
  5
3AA
330
18
100
AcDbEntity
  8
TEXT
100
AcDbLine
 10
-0.4398200410719806
 20
-0.1325420552058416
 30
0.0
 11
-0.2868951152669279
 21
-0.1325420552058416
 31
0.0
  0
LINE
  5
3AB
330
18
100
AcDbEntity
  8
TEXT
100
AcDbLine
 10
-0.2819547413606482
 20
-0.0641850488724023
 30
0.0
 11
-0.4398200410719824
 21
-0.0641850488724023
 31
0.0
  0
LINE
  5
3AC
330
18
100
AcDbEntity
  8
TEXT
100
AcDbLine
 10
-0.4398200410719824
 20
-0.0641850488724023
 30
0.0
 11
-0.4398200410719806
 21
-0.1325420552058416
 31
0.0
  0
ARC
  5
3AD
330
18
100
AcDbEntity
  8
TEXT
100
AcDbCircle
 10
-0.2819547413606482
 20
-0.0472144949913682
 30
0.0
 40
0.0169705538810321
100
AcDbArc
 50
270.0
 51
90.0
  0
LINE
  5
3AE
330
18
100
AcDbEntity
  8
TEXT
100
AcDbLine
 10
-0.1317029900021529
 20
-0.1325420552058416
 30
0.0
 11
-0.0350627389271585
 21
-0.1322714161075593
 31
0.0
  0
ARC
  5
3AF
330
18
100
AcDbEntity
  8
TEXT
100
AcDbCircle
 10
-0.1254735795085065
 20
-0.0727496638677918
 30
0.0
 40
0.0601160179737537
100
AcDbArc
 50
180.0000000000003
 51
264.0521544866073
  0
ARC
  5
3B0
330
18
100
AcDbEntity
  8
TEXT
100
AcDbCircle
 10
-0.0351727336162817
 20
-0.0929943329321459
 30
0.0
 40
0.0392772371940762
100
AcDbArc
 50
270.1604552698595
 51
330.0831797321295
  0
LINE
  5
3B1
330
18
100
AcDbEntity
  8
TEXT
100
AcDbLine
 10
-0.352495251511229
 20
0.0696542831259039
 30
0.0
 11
-0.1855895974822585
 21
0.0696542831259039
 31
0.0
  0
LINE
  5
3B2
330
18
100
AcDbEntity
  8
TEXT
100
AcDbLine
 10
-0.1820008287269656
 20
0.1339309777826694
 30
0.0
 11
-0.357732581625477
 21
0.1339309777826694
 31
0.0
  0
LINE
  5
3B3
330
18
100
AcDbEntity
  8
TEXT
100
AcDbLine
 10
-0.2868951152669279
 20
0.0338495615152761
 30
0.0
 11
-0.352495251511229
 21
0.0338495615152761
 31
0.0
  0
ARC
  5
3B4
330
18
100
AcDbEntity
  8
TEXT
100
AcDbCircle
 10
-0.352495251511229
 20
0.0517519223205918
 30
0.0
 40
0.017902360805315
100
AcDbArc
 50
90.0
 51
270.0
  0
LINE
  5
3B5
330
18
100
AcDbEntity
  8
TEXT
100
AcDbLine
 10
-0.0501592577390513
 20
0.1339309777826694
 30
0.0
 11
-0.1219582238829586
 21
0.1339309777826694
 31
0.0
  0
LINE
  5
3B6
330
18
100
AcDbEntity
  8
TEXT
100
AcDbLine
 10
-0.1219582238829586
 20
0.1339309777826694
 30
0.0
 11
-0.1219582238829586
 21
0.1683188953768075
 31
0.0
  0
LINE
  5
3B7
330
18
100
AcDbEntity
  8
TEXT
100
AcDbLine
 10
-0.1820008287269656
 20
0.1683188953768075
 30
0.0
 11
-0.1820008287269656
 21
0.1339309777826694
 31
0.0
  0
LINE
  5
3B8
330
18
100
AcDbEntity
  8
TEXT
100
AcDbLine
 10
-0.1219582238829586
 20
0.1683188953768075
 30
0.0
 11
-0.1820008287269656
 21
0.1683188953768075
 31
0.0
  0
LINE
  5
3B9
330
18
100
AcDbEntity
  8
TEXT
100
AcDbLine
 10
0.3877402744252238
 20
-0.1325420552058416
 30
0.0
 11
0.3877402744252238
 21
0.0696542831259039
 31
0.0
  0
LINE
  5
3BA
330
18
100
AcDbEntity
  8
TEXT
100
AcDbLine
 10
0.3206822276433838
 20
0.062100493959794
 30
0.0
 11
0.3206822276433838
 21
-0.1325420552058416
 31
0.0
  0
LINE
  5
3BB
330
18
100
AcDbEntity
  8
TEXT
100
AcDbLine
 10
0.1641502514584934
 20
-0.0501542171028424
 30
0.0
 11
0.1641502514584934
 21
0.2019424555214799
 31
0.0
  0
LINE
  5
3BC
330
18
100
AcDbEntity
  8
TEXT
100
AcDbLine
 10
0.1964621055961535
 20
0.1339309777826694
 30
0.0
 11
0.1964621055961535
 21
-0.0669332289497389
 31
0.0
  0
LINE
  5
3BD
330
18
100
AcDbEntity
  8
TEXT
100
AcDbLine
 10
0.2632931586541227
 20
-0.1325420552058416
 30
0.0
 11
0.2632931586541227
 21
0.0696542831259039
 31
0.0
  0
LINE
  5
3BE
330
18
100
AcDbEntity
  8
TEXT
100
AcDbLine
 10
0.0961705323893769
 20
0.0517666618344395
 30
0.0
 11
0.0961705323893769
 21
-0.0809907129909169
 31
0.0
  0
LINE
  5
3BF
330
18
100
AcDbEntity
  8
TEXT
100
AcDbLine
 10
0.1652898249546881
 20
-0.1325420552058416
 30
0.0
 11
0.2632931586541227
 21
-0.1325420552058416
 31
0.0
  0
LWPOLYLINE
  5
3C0
330
18
100
AcDbEntity
  8
TEXT
100
AcDbPolyline
 90
        2
 70
     0
 43
0.0
 10
0.096170532389376
 20
-0.0809907129909133
 42
0.3318488747599744
 10
0.165289824954689
 20
-0.1325420552058416
 42
-6.868794160588311
  0
ARC
  5
3C1
330
18
100
AcDbEntity
  8
TEXT
100
AcDbCircle
 10
0.1794684687115513
 20
-0.0515514227063134
 30
0.0
 40
0.0153818062434269
100
AcDbArc
 50
174.7883570302258
 51
270.0
  0
LINE
  5
3C2
330
18
100
AcDbEntity
  8
TEXT
100
AcDbLine
 10
0.1964621055961535
 20
-0.0669332289497389
 30
0.0
 11
0.1794684687115522
 21
-0.0669332289497389
 31
0.0
  0
LINE
  5
3C3
330
18
100
AcDbEntity
  8
TEXT
100
AcDbLine
 10
0.3206822276433838
 20
-0.1325420552058416
 30
0.0
 11
0.3877402744252238
 21
-0.1325420552058416
 31
0.0
  0
LINE
  5
3C4
330
18
100
AcDbEntity
  8
TEXT
100
AcDbLine
 10
0.3304801615272899
 20
0.1339309777826694
 30
0.0
 11
0.1964621055961535
 21
0.1339309777826694
 31
0.0
  0
LINE
  5
3C5
330
18
100
AcDbEntity
  8
TEXT
100
AcDbLine
 10
0.0973415388921284
 20
0.2019424555214799
 30
0.0
 11
0.0973415388921284
 21
0.1339309777826694
 31
0.0
  0
LINE
  5
3C6
330
18
100
AcDbEntity
  8
TEXT
100
AcDbLine
 10
0.0973415388921284
 20
0.1339309777826694
 30
0.0
 11
0.0672196260987521
 21
0.1339309777826694
 31
0.0
  0
LINE
  5
3C7
330
18
100
AcDbEntity
  8
TEXT
100
AcDbLine
 10
0.0672196260987521
 20
0.1339309777826694
 30
0.0
 11
0.0084710632928866
 21
0.0330589816695488
 31
0.0
  0
LINE
  5
3C8
330
18
100
AcDbEntity
  8
TEXT
100
AcDbLine
 10
0.1641502514584934
 20
0.2019424555214799
 30
0.0
 11
0.0973415388921284
 21
0.2019424555214799
 31
0.0
  0
LWPOLYLINE
  5
3C9
330
18
100
AcDbEntity
  8
TEXT
100
AcDbPolyline
 90
        2
 70
     0
 43
0.0
 10
0.3304801615272908
 20
0.1339309777826729
 42
-0.3328679258950098
 10
0.3662618522404522
 20
0.106763481021777
 42
6.772930709997214
  0
LINE
  5
3CA
330
18
100
AcDbEntity
  8
TEXT
100
AcDbLine
 10
0.2632931586541227
 20
0.0696542831259039
 30
0.0
 11
0.3131284384772703
 21
0.0696542831259039
 31
0.0
  0
LWPOLYLINE
  5
3CB
330
18
100
AcDbEntity
  8
TEXT
100
AcDbPolyline
 90
        2
 70
     0
 43
0.0
 10
0.3131284384772694
 20
0.0696542831259039
 42
-0.4142135623731017
 10
0.3206822276433829
 20
0.062100493959794
 42
-0.9999999999999998
  0
LWPOLYLINE
  5
3CC
330
18
100
AcDbEntity
  8
TEXT
100
AcDbPolyline
 90
        2
 70
     0
 43
0.0
 10
0.4418738713461732
 20
0.0696542831259039
 42
-0.4142135623731017
 10
0.4494276605122867
 20
0.062100493959794
 42
-0.9999999999999998
  0
LINE
  5
3CD
330
18
100
AcDbEntity
  8
TEXT
100
AcDbLine
 10
0.3877402744252238
 20
0.0696542831259039
 30
0.0
 11
0.4418738713461741
 21
0.0696542831259039
 31
0.0
  0
TEXT
  5
3CE
330
18
100
AcDbEntity
  8
TEXT
100
AcDbText
 10
1.266907975583054
 20
-0.1329146735266375
 30
0.0
 40
0.0522247191011236
  1
Phone  1-800-328-2495
 41
1.272321428571429
 72
     5
 11
2.595840559852717
 21
-0.1329146735266375
 31
0.0
100
AcDbText
  0
TEXT
  5
3CF
330
18
100
AcDbEntity
  8
TEXT
100
AcDbText
 10
1.266907975583054
 20
0.1468606073722389
 30
0.0
 40
0.0522247191011236
  1
Stylmark  Incorporated
 41
1.221428571428571
 72
     5
 11
2.595840559852717
 21
0.1468606073722389
 31
0.0
100
AcDbText
  0
TEXT
  5
3D0
330
18
100
AcDbEntity
  8
TEXT
100
AcDbText
 10
1.266907975583054
 20
0.0536021804059468
 30
0.0
 40
0.0522247191011236
  1
6536 Main St. N.E. * P.O. Box 32008
 41
0.8388932496075353
 72
     5
 11
2.595840559852717
 21
0.0536021804059468
 31
0.0
100
AcDbText
  0
TEXT
  5
3D1
330
18
100
AcDbEntity
  8
TEXT
100
AcDbText
 10
1.266907975583054
 20
-0.0396562465603454
 30
0.0
 40
0.0522247191011236
  1
Minneapolis, MN 55432-0008
 41
1.11444212721585
 72
     5
 11
2.595840559852717
 21
-0.0396562465603454
 31
0.0
100
AcDbText
  0
LINE
  5
3D2
330
18
100
AcDbEntity
  8
TEXT
100
AcDbLine
 10
0.9618192888001315
 20
0.1993951835502701
 30
0.0
 11
0.8935044102508582
 21
0.1993951835502701
 31
0.0
  0
LINE
  5
3D3
330
18
100
AcDbEntity
  8
TEXT
100
AcDbLine
 10
0.8979842975773584
 20
-0.1325420552058416
 30
0.0
 11
0.9623624818959788
 21
-0.1325420552058416
 31
0.0
  0
LINE
  5
3D4
330
18
100
AcDbEntity
  8
TEXT
100
AcDbLine
 10
0.897984297577353
 20
0.0696542831259039
 30
0.0
 11
0.8979842975773584
 21
-0.1325420552058416
 31
0.0
  0
LINE
  5
3D5
330
18
100
AcDbEntity
  8
TEXT
100
AcDbLine
 10
0.7964304410021362
 20
-0.1325420552058416
 30
0.0
 11
0.7964304410021308
 21
0.0447484502256268
 31
0.0
  0
LWPOLYLINE
  5
3D6
330
18
100
AcDbEntity
  8
TEXT
100
AcDbPolyline
 90
        2
 70
     0
 43
0.0
 10
0.7380752271668012
 20
-0.0890511102554035
 42
-0.2901071551932486
 10
0.6949992942991568
 20
-0.1325420552058416
 42
-5.328517124445184
  0
LWPOLYLINE
  5
3D7
330
18
100
AcDbEntity
  8
TEXT
100
AcDbPolyline
 90
        4
 70
     1
 43
0.0
 10
0.6748768292292642
 20
-0.0295780772218164
 10
0.5862165105694058
 20
-0.0295780772218164
 42
0.9999999999999998
 10
0.5862165105694058
 20
-0.0719766177256771
 10
0.6748768292292642
 20
-0.0719766177256771
 42
1.0
  0
LWPOLYLINE
  5
3D8
330
18
100
AcDbEntity
  8
TEXT
100
AcDbPolyline
 90
        2
 70
     0
 43
0.0
 10
0.5609818766677801
 20
-0.1325420552058416
 10
0.6949992942991568
 20
-0.1325420552058416
 42
0.9999999999999998
  0
LWPOLYLINE
  5
3D9
330
18
100
AcDbEntity
  8
TEXT
100
AcDbPolyline
 90
        2
 70
     0
 43
0.0
 10
0.5179059438001446
 20
-0.0890511102554035
 42
0.2901071551932823
 10
0.5609818766677801
 20
-0.1325420552058416
 42
5.328517124445801
  0
LWPOLYLINE
  5
3DA
330
18
100
AcDbEntity
  8
TEXT
100
AcDbPolyline
 90
        2
 70
     0
 43
0.0
 10
0.7380752271668012
 20
-0.0890511102554035
 10
0.7380752271668012
 20
-0.1325420552058416
  0
LWPOLYLINE
  5
3DB
330
18
100
AcDbEntity
  8
TEXT
100
AcDbPolyline
 90
        2
 70
     0
 43
0.0
 10
0.7380752271668012
 20
-0.1325420552058416
 10
0.7964304410021353
 20
-0.1325420552058416
  0
LINE
  5
3DC
330
18
100
AcDbEntity
  8
TEXT
100
AcDbLine
 10
0.7341355498617626
 20
0.028718999229242
 30
0.0
 11
0.690384778679861
 21
0.1109692752253872
 31
0.0
  0
LINE
  5
3DD
330
18
100
AcDbEntity
  8
TEXT
100
AcDbLine
 10
0.6261447126422431
 20
0.0696542831259039
 30
0.0
 11
0.5189384392549537
 21
0.0696542831259039
 31
0.0
  0
LINE
  5
3DE
330
18
100
AcDbEntity
  8
TEXT
100
AcDbLine
 10
0.5796577981629812
 20
0.0323793096637717
 30
0.0
 11
0.6619457879463644
 21
0.0323793096637717
 31
0.0
  0
LINE
  5
3DF
330
18
100
AcDbEntity
  8
TEXT
100
AcDbLine
 10
0.6551756109867215
 20
0.1339309777826694
 30
0.0
 11
0.5203437017696624
 21
0.1339309777826694
 31
0.0
  0
LINE
  5
3E0
330
18
100
AcDbEntity
  8
TEXT
100
AcDbLine
 10
0.5189384392549537
 20
0.0696542831259039
 30
0.0
 11
0.5189384392549537
 21
-0.0053981229483027
 31
0.0
  0
ARC
  5
3E1
330
18
100
AcDbEntity
  8
TEXT
100
AcDbCircle
 10
0.5796577981629803
 20
-0.0353062714803469
 30
0.0
 40
0.0676855811441166
100
AcDbArc
 50
90.0
 51
153.7768192527749
  0
LINE
  5
3E2
330
18
100
AcDbEntity
  8
TEXT
100
AcDbLine
 10
0.5203437017696624
 20
0.1339309777826694
 30
0.0
 11
0.5203437017696624
 21
0.1056084320130255
 31
0.0
  0
LWPOLYLINE
  5
3E3
330
18
100
AcDbEntity
  8
TEXT
100
AcDbPolyline
 90
        2
 70
     0
 43
0.0
 10
0.4845620110564966
 20
0.1339309777826729
 42
-0.3277054968067132
 10
0.5203437017696615
 20
0.105608432013029
 42
6.667889725900311
  0
ARC
  5
3E4
330
18
100
AcDbEntity
  8
TEXT
100
AcDbCircle
 10
0.6261447126422422
 20
0.0412949081259066
 30
0.0
 40
0.028359375
100
AcDbArc
 50
25.78218179591245
 51
90.0
  0
LINE
  5
3E5
330
18
100
AcDbEntity
  8
TEXT
100
AcDbLine
 10
0.6619457879463644
 20
0.0323793096637717
 30
0.0
 11
0.6516810275328
 21
0.053629849236466
 31
0.0
  0
ARC
  5
3E6
330
18
100
AcDbEntity
  8
TEXT
100
AcDbCircle
 10
0.6531486712096531
 20
0.092347410661767
 30
0.0
 40
0.0416329381542859
100
AcDbArc
 50
26.56974201007528
 51
87.20939649401342
  0
LINE
  5
3E7
330
18
100
AcDbEntity
  8
TEXT
100
AcDbLine
 10
0.8935044102508582
 20
0.1993951835502701
 30
0.0
 11
0.8935044102508529
 21
0.1339309777826694
 31
0.0
  0
LINE
  5
3E8
330
18
100
AcDbEntity
  8
TEXT
100
AcDbLine
 10
0.8935044102508529
 20
0.1339309777826694
 30
0.0
 11
0.8260046926013364
 21
0.1339309777826694
 31
0.0
  0
LINE
  5
3E9
330
18
100
AcDbEntity
  8
TEXT
100
AcDbLine
 10
0.8213363162847953
 20
0.0696542831259039
 30
0.0
 11
0.897984297577353
 21
0.0696542831259039
 31
0.0
  0
LINE
  5
3EA
330
18
100
AcDbEntity
  8
TEXT
100
AcDbLine
 10
0.7980324561612635
 20
0.1063833279217947
 30
0.0
 11
0.7980324561612635
 21
0.1339309777826694
 31
0.0
  0
ARC
  5
3EB
330
18
100
AcDbEntity
  8
TEXT
100
AcDbCircle
 10
0.8292252732243721
 20
0.1026852505004046
 30
0.0
 40
0.0314112657011332
100
AcDbArc
 50
95.88484768694724
 51
173.2388340632136
  0
ARC
  5
3EC
330
18
100
AcDbEntity
  8
TEXT
100
AcDbCircle
 10
0.8213363162847944
 20
0.0447484078432412
 30
0.0
 40
0.0249058752826653
100
AcDbArc
 50
89.99971217465335
 51
179.9999999999985
  0
LINE
  5
3ED
330
18
100
AcDbEntity
  8
TEXT
100
AcDbLine
 10
0.7341355498617626
 20
0.1339309777826694
 30
0.0
 11
0.7341355498617626
 21
0.028718999229242
 31
0.0
  0
LINE
  5
3EE
330
18
100
AcDbEntity
  8
TEXT
100
AcDbLine
 10
0.7980324561612635
 20
0.1339309777826694
 30
0.0
 11
0.7341355498617626
 21
0.1339309777826694
 31
0.0
  0
LINE
  5
3EF
330
18
100
AcDbEntity
  8
TEXT
100
AcDbLine
 10
0.9623624818959788
 20
-0.0009624867296614
 30
0.0
 11
1.038266015107443
 21
-0.1325420552058416
 31
0.0
  0
LINE
  5
3F0
330
18
100
AcDbEntity
  8
TEXT
100
AcDbLine
 10
0.9623624818959788
 20
-0.1325420552058416
 30
0.0
 11
0.9623624818959788
 21
-0.0009624867296614
 31
0.0
  0
LINE
  5
3F1
330
18
100
AcDbEntity
  8
TEXT
100
AcDbLine
 10
1.114844387483649
 20
-0.1325420552058416
 30
0.0
 11
1.019352164120038
 21
0.0240377348416958
 31
0.0
  0
LINE
  5
3F2
330
18
100
AcDbEntity
  8
TEXT
100
AcDbLine
 10
1.038266015107443
 20
-0.1325420552058416
 30
0.0
 11
1.114844387483649
 21
-0.1325420552058416
 31
0.0
  0
LINE
  5
3F3
330
18
100
AcDbEntity
  8
TEXT
100
AcDbLine
 10
0.9618192888001315
 20
0.0580656513711313
 30
0.0
 11
0.9618192888001315
 21
0.1993951835502701
 31
0.0
  0
LINE
  5
3F4
330
18
100
AcDbEntity
  8
TEXT
100
AcDbLine
 10
1.083909280085744
 20
0.1339309777826694
 30
0.0
 11
1.008917447356117
 21
0.1339309777826694
 31
0.0
  0
LINE
  5
3F5
330
18
100
AcDbEntity
  8
TEXT
100
AcDbLine
 10
1.019352164120038
 20
0.0240377348416958
 30
0.0
 11
1.083909280085744
 21
0.1339309777826694
 31
0.0
  0
LINE
  5
3F6
330
18
100
AcDbEntity
  8
TEXT
100
AcDbLine
 10
1.008917447356115
 20
0.1339309777826694
 30
0.0
 11
0.9618192888001315
 21
0.0580656513711313
 31
0.0
  0
ENDSEC
  0
SECTION
  2
OBJECTS
  0
DICTIONARY
  5
C
330
0
100
AcDbDictionary
  3
ACAD_GROUP
350
D
  3
ACAD_LAYOUT
350
3FB
  3
ACAD_MLINESTYLE
350
E
  3
ACAD_PLOTSETTINGS
350
3FC
  3
ACAD_PLOTSTYLENAME
350
3F9
  3
ACDBHEADERROUNDTRIPXREC
350
407
  3
ACDBVARIABLEDICTIONARY
350
404
  0
DICTIONARY
  5
429
330
18
100
AcDbDictionary
280
     1
  3
ACAD_LAYOUTSELFREF
360
42A
  0
DICTIONARY
  5
427
330
15
100
AcDbDictionary
280
     1
  3
ACAD_LAYOUTSELFREF
360
428
  0
DICTIONARY
  5
D
102
{ACAD_REACTORS
330
C
102
}
330
C
100
AcDbDictionary
  0
DICTIONARY
  5
3FB
102
{ACAD_REACTORS
330
C
102
}
330
C
100
AcDbDictionary
  0
DICTIONARY
  5
E
102
{ACAD_REACTORS
330
C
102
}
330
C
100
AcDbDictionary
  3
STANDARD
350
1B
  0
DICTIONARY
  5
3FC
102
{ACAD_REACTORS
330
C
102
}
330
C
100
AcDbDictionary
  0
ACDBDICTIONARYWDFLT
  5
3F9
102
{ACAD_REACTORS
330
C
102
}
330
C
100
AcDbDictionary
281
     1
  3
Normal
350
3FA
100
AcDbDictionaryWithDefault
340
3FA
  0
DICTIONARY
  5
407
102
{ACAD_REACTORS
330
C
102
}
330
C
100
AcDbDictionary
  3
CEPSNTYPE
350
411
  3
FINGERPRINTGUID
350
412
  3
HYPERLINKBASE
350
40A
  3
INSUNITS
350
410
  3
LAYOUTDICT
350
40C
  3
LWETCUNION
350
40F
  3
PLOTSETDICT
350
40D
  3
PLOTSTYLNAMDICT
350
40E
  3
PSVPSCALE
350
414
  3
PUCSBASE
350
417
  3
PUCSORGBACK
350
41D
  3
PUCSORGBOTTOM
350
419
  3
PUCSORGFRONT
350
41C
  3
PUCSORGLEFT
350
41A
  3
PUCSORGRIGHT
350
41B
  3
PUCSORGTOP
350
418
  3
PUCSORTHOREF
350
415
  3
PUCSORTHOVIEW
350
416
  3
STYLESHEET
350
40B
  3
TSTACKALIGN
350
408
  3
TSTACKSIZE
350
409
  3
UCSBASE
350
420
  3
UCSORGBACK
350
426
  3
UCSORGBOTTOM
350
422
  3
UCSORGFRONT
350
425
  3
UCSORGLEFT
350
423
  3
UCSORGRIGHT
350
424
  3
UCSORGTOP
350
421
  3
UCSORTHOREF
350
41E
  3
UCSORTHOVIEW
350
41F
  3
VERSIONGUID
350
413
  0
DICTIONARY
  5
404
102
{ACAD_REACTORS
330
C
102
}
330
C
100
AcDbDictionary
  3
DIMASSOC
350
405
  0
XRECORD
  5
42A
102
{ACAD_REACTORS
330
429
102
}
330
429
100
AcDbXrecord
340
18
  0
XRECORD
  5
428
102
{ACAD_REACTORS
330
427
102
}
330
427
100
AcDbXrecord
340
15
  0
MLINESTYLE
  5
1B
102
{ACAD_REACTORS
330
E
102
}
330
E
100
AcDbMlineStyle
  2
STANDARD
 70
     0
  3

 62
     0
 51
90.0
 52
90.0
 71
     2
 49
0.5
 62
   256
  6
BYLAYER
 49
-0.5
 62
   256
  6
BYLAYER
  0
ACDBPLACEHOLDER
  5
3FA
102
{ACAD_REACTORS
330
3F9
102
}
330
3F9
100
AcDbPlaceHolder
280
     0
  0
XRECORD
  5
411
102
{ACAD_REACTORS
330
407
102
}
330
407
100
AcDbXrecord
 90
        0
  0
XRECORD
  5
412
102
{ACAD_REACTORS
330
407
102
}
330
407
100
AcDbXrecord
  1
{0D44D430-8DBA-11D6-88E6-0090279574E7}
  0
XRECORD
  5
40A
102
{ACAD_REACTORS
330
407
102
}
330
407
100
AcDbXrecord
  1

  0
XRECORD
  5
410
102
{ACAD_REACTORS
330
407
102
}
330
407
100
AcDbXrecord
 90
        0
  0
XRECORD
  5
40C
102
{ACAD_REACTORS
330
407
102
}
330
407
100
AcDbXrecord
340
3FB
  0
XRECORD
  5
40F
102
{ACAD_REACTORS
330
407
102
}
330
407
100
AcDbXrecord
 90
    14877
  0
XRECORD
  5
40D
102
{ACAD_REACTORS
330
407
102
}
330
407
100
AcDbXrecord
340
3FC
  0
XRECORD
  5
40E
102
{ACAD_REACTORS
330
407
102
}
330
407
100
AcDbXrecord
340
3F9
  0
XRECORD
  5
414
102
{ACAD_REACTORS
330
407
102
}
330
407
100
AcDbXrecord
 40
0.0
  0
XRECORD
  5
417
102
{ACAD_REACTORS
330
407
102
}
330
407
100
AcDbXrecord
340
0
  0
XRECORD
  5
41D
102
{ACAD_REACTORS
330
407
102
}
330
407
100
AcDbXrecord
 10
0.0
 20
0.0
 30
0.0
  0
XRECORD
  5
419
102
{ACAD_REACTORS
330
407
102
}
330
407
100
AcDbXrecord
 10
0.0
 20
0.0
 30
0.0
  0
XRECORD
  5
41C
102
{ACAD_REACTORS
330
407
102
}
330
407
100
AcDbXrecord
 10
0.0
 20
0.0
 30
0.0
  0
XRECORD
  5
41A
102
{ACAD_REACTORS
330
407
102
}
330
407
100
AcDbXrecord
 10
0.0
 20
0.0
 30
0.0
  0
XRECORD
  5
41B
102
{ACAD_REACTORS
330
407
102
}
330
407
100
AcDbXrecord
 10
0.0
 20
0.0
 30
0.0
  0
XRECORD
  5
418
102
{ACAD_REACTORS
330
407
102
}
330
407
100
AcDbXrecord
 10
0.0
 20
0.0
 30
0.0
  0
XRECORD
  5
415
102
{ACAD_REACTORS
330
407
102
}
330
407
100
AcDbXrecord
340
0
  0
XRECORD
  5
416
102
{ACAD_REACTORS
330
407
102
}
330
407
100
AcDbXrecord
 70
     0
  0
XRECORD
  5
40B
102
{ACAD_REACTORS
330
407
102
}
330
407
100
AcDbXrecord
  1

  0
XRECORD
  5
408
102
{ACAD_REACTORS
330
407
102
}
330
407
100
AcDbXrecord
 90
        1
  0
XRECORD
  5
409
102
{ACAD_REACTORS
330
407
102
}
330
407
100
AcDbXrecord
 90
       70
  0
XRECORD
  5
420
102
{ACAD_REACTORS
330
407
102
}
330
407
100
AcDbXrecord
340
0
  0
XRECORD
  5
426
102
{ACAD_REACTORS
330
407
102
}
330
407
100
AcDbXrecord
 10
0.0
 20
0.0
 30
0.0
  0
XRECORD
  5
422
102
{ACAD_REACTORS
330
407
102
}
330
407
100
AcDbXrecord
 10
0.0
 20
0.0
 30
0.0
  0
XRECORD
  5
425
102
{ACAD_REACTORS
330
407
102
}
330
407
100
AcDbXrecord
 10
0.0
 20
0.0
 30
0.0
  0
XRECORD
  5
423
102
{ACAD_REACTORS
330
407
102
}
330
407
100
AcDbXrecord
 10
0.0
 20
0.0
 30
0.0
  0
XRECORD
  5
424
102
{ACAD_REACTORS
330
407
102
}
330
407
100
AcDbXrecord
 10
0.0
 20
0.0
 30
0.0
  0
XRECORD
  5
421
102
{ACAD_REACTORS
330
407
102
}
330
407
100
AcDbXrecord
 10
0.0
 20
0.0
 30
0.0
  0
XRECORD
  5
41E
102
{ACAD_REACTORS
330
407
102
}
330
407
100
AcDbXrecord
340
0
  0
XRECORD
  5
41F
102
{ACAD_REACTORS
330
407
102
}
330
407
100
AcDbXrecord
 70
     0
  0
XRECORD
  5
413
102
{ACAD_REACTORS
330
407
102
}
330
407
100
AcDbXrecord
  1
{0D44D432-8DBA-11D6-88E6-0090279574E7}
  0
DICTIONARYVAR
  5
405
102
{ACAD_REACTORS
330
404
102
}
330
404
100
DictionaryVariables
280
     0
  1
1
  0
ENDSEC
  0
EOF
