  0
SECTION
  2
HEADER
  9
$ACADVER
  1
AC1014
  9
$ACADMAINTVER
 70
     9
  9
$DWGCODEPAGE
  3
ANSI_1252
  9
$INSBASE
 10
0.0
 20
0.0
 30
0.0
  9
$EXTMIN
 10
-1.517419621689339
 20
-1.040274294958219
 30
0.0
  9
$EXTMAX
 10
1.967799700057789
 20
1.499989882672511
 30
0.0
  9
$LIMMIN
 10
0.0
 20
0.0
  9
$LIMMAX
 10
8.5
 20
11.0
  9
$ORTHOMODE
 70
     0
  9
$REGENMODE
 70
     1
  9
$FILLMODE
 70
     1
  9
$QTEXTMODE
 70
     0
  9
$MIRRTEXT
 70
     0
  9
$DRAGMODE
 70
     2
  9
$LTSCALE
 40
1.0
  9
$OSMODE
 70
    39
  9
$ATTMODE
 70
     1
  9
$TEXTSIZE
 40
0.125
  9
$TRACEWID
 40
0.05
  9
$TEXTSTYLE
  7
ROMANS
  9
$CLAYER
  8
0
  9
$CELTYPE
  6
BYLAYER
  9
$CECOLOR
 62
   256
  9
$CELTSCALE
 40
1.0
  9
$DELOBJ
 70
     1
  9
$DISPSILH
 70
     1
  9
$DIMSCALE
 40
1.0
  9
$DIMASZ
 40
0.125
  9
$DIMEXO
 40
0.125
  9
$DIMDLI
 40
0.375
  9
$DIMRND
 40
0.0
  9
$DIMDLE
 40
0.0
  9
$DIMEXE
 40
0.125
  9
$DIMTP
 40
0.0
  9
$DIMTM
 40
0.0
  9
$DIMTXT
 40
0.125
  9
$DIMCEN
 40
0.125
  9
$DIMTSZ
 40
0.0
  9
$DIMTOL
 70
     0
  9
$DIMLIM
 70
     0
  9
$DIMTIH
 70
     1
  9
$DIMTOH
 70
     1
  9
$DIMSE1
 70
     0
  9
$DIMSE2
 70
     0
  9
$DIMTAD
 70
     0
  9
$DIMZIN
 70
     4
  9
$DIMBLK
  1

  9
$DIMASO
 70
     1
  9
$DIMSHO
 70
     1
  9
$DIMPOST
  1

  9
$DIMAPOST
  1

  9
$DIMALT
 70
     0
  9
$DIMALTD
 70
     2
  9
$DIMALTF
 40
25.4
  9
$DIMLFAC
 40
0.5
  9
$DIMTOFL
 70
     0
  9
$DIMTVP
 40
0.0
  9
$DIMTIX
 70
     1
  9
$DIMSOXD
 70
     0
  9
$DIMSAH
 70
     0
  9
$DIMBLK1
  1

  9
$DIMBLK2
  1

  9
$DIMSTYLE
  2
STANDARD
  9
$DIMCLRD
 70
     0
  9
$DIMCLRE
 70
     0
  9
$DIMCLRT
 70
     0
  9
$DIMTFAC
 40
1.0
  9
$DIMGAP
 40
0.09
  9
$DIMJUST
 70
     0
  9
$DIMSD1
 70
     0
  9
$DIMSD2
 70
     0
  9
$DIMTOLJ
 70
     1
  9
$DIMTZIN
 70
     0
  9
$DIMALTZ
 70
     0
  9
$DIMALTTZ
 70
     0
  9
$DIMFIT
 70
     3
  9
$DIMUPT
 70
     0
  9
$DIMUNIT
 70
     2
  9
$DIMDEC
 70
     3
  9
$DIMTDEC
 70
     4
  9
$DIMALTU
 70
     2
  9
$DIMALTTD
 70
     2
  9
$DIMTXSTY
  7
ROMANS
  9
$DIMAUNIT
 70
     0
  9
$LUNITS
 70
     2
  9
$LUPREC
 70
     5
  9
$SKETCHINC
 40
0.1
  9
$FILLETRAD
 40
0.0
  9
$AUNITS
 70
     0
  9
$AUPREC
 70
     0
  9
$MENU
  1
ACAD
  9
$ELEVATION
 40
0.0
  9
$PELEVATION
 40
0.0
  9
$THICKNESS
 40
0.0
  9
$LIMCHECK
 70
     0
  9
$BLIPMODE
 70
     0
  9
$CHAMFERA
 40
0.0
  9
$CHAMFERB
 40
0.0
  9
$CHAMFERC
 40
0.0
  9
$CHAMFERD
 40
0.0
  9
$SKPOLY
 70
     0
  9
$TDCREATE
 40
2448379.468978472
  9
$TDUPDATE
 40
2452458.325259109
  9
$TDINDWG
 40
0.1117576273
  9
$TDUSRTIMER
 40
0.1117576273
  9
$USRTIMER
 70
     1
  9
$ANGBASE
 50
0.0
  9
$ANGDIR
 70
     0
  9
$PDMODE
 70
     0
  9
$PDSIZE
 40
0.0
  9
$PLINEWID
 40
0.0
  9
$COORDS
 70
     2
  9
$SPLFRAME
 70
     0
  9
$SPLINETYPE
 70
     6
  9
$SPLINESEGS
 70
     8
  9
$ATTDIA
 70
     0
  9
$ATTREQ
 70
     1
  9
$HANDLING
 70
 22529
  9
$HANDSEED
  5
46E
  9
$SURFTAB1
 70
     6
  9
$SURFTAB2
 70
     6
  9
$SURFTYPE
 70
     6
  9
$SURFU
 70
     6
  9
$SURFV
 70
     6
  9
$UCSNAME
  2

  9
$UCSORG
 10
0.0
 20
0.0
 30
0.0
  9
$UCSXDIR
 10
1.0
 20
0.0
 30
0.0
  9
$UCSYDIR
 10
0.0
 20
1.0
 30
0.0
  9
$PUCSNAME
  2

  9
$PUCSORG
 10
0.0
 20
0.0
 30
0.0
  9
$PUCSXDIR
 10
1.0
 20
0.0
 30
0.0
  9
$PUCSYDIR
 10
0.0
 20
1.0
 30
0.0
  9
$USERI1
 70
     0
  9
$USERI2
 70
     0
  9
$USERI3
 70
     0
  9
$USERI4
 70
     0
  9
$USERI5
 70
     0
  9
$USERR1
 40
0.0
  9
$USERR2
 40
0.0
  9
$USERR3
 40
0.0
  9
$USERR4
 40
0.0
  9
$USERR5
 40
0.0
  9
$WORLDVIEW
 70
     1
  9
$SHADEDGE
 70
     3
  9
$SHADEDIF
 70
    70
  9
$TILEMODE
 70
     1
  9
$MAXACTVP
 70
    16
  9
$PINSBASE
 10
0.0
 20
0.0
 30
0.0
  9
$PLIMCHECK
 70
     0
  9
$PEXTMIN
 10
1.000000000000000E+20
 20
1.000000000000000E+20
 30
1.000000000000000E+20
  9
$PEXTMAX
 10
-1.000000000000000E+20
 20
-1.000000000000000E+20
 30
-1.000000000000000E+20
  9
$PLIMMIN
 10
0.0
 20
0.0
  9
$PLIMMAX
 10
12.0
 20
9.0
  9
$UNITMODE
 70
     0
  9
$VISRETAIN
 70
     0
  9
$PLINEGEN
 70
     1
  9
$PSLTSCALE
 70
     0
  9
$TREEDEPTH
 70
  3020
  9
$PICKSTYLE
 70
     1
  9
$CMLSTYLE
  2
STANDARD
  9
$CMLJUST
 70
     0
  9
$CMLSCALE
 40
1.0
  9
$PROXYGRAPHICS
 70
     1
  9
$MEASUREMENT
 70
     0
  0
ENDSEC
  0
SECTION
  2
CLASSES
  0
CLASS
  1
LWPOLYLINE
  2
AcDbPolyline
  3
AutoCAD 2000
 90
        0
280
     0
281
     1
  0
CLASS
  1
ACDBDICTIONARYWDFLT
  2
AcDbDictionaryWithDefault
  3
AutoCAD 2000
 90
        0
280
     0
281
     0
  0
CLASS
  1
ACDBPLACEHOLDER
  2
AcDbPlaceHolder
  3
AutoCAD 2000
 90
        0
280
     0
281
     0
  0
CLASS
  1
LAYOUT
  2
AcDbLayout
  3
AutoCAD 2000
 90
        0
280
     0
281
     0
  0
CLASS
  1
DICTIONARYVAR
  2
AcDbDictionaryVar
  3
AutoCAD 2000
 90
        0
280
     0
281
     0
  0
CLASS
  1
LONG_TRANSACTION
  2
AcDbLongTransaction
  3
AutoCAD 2000
 90
        0
280
     0
281
     0
  0
CLASS
  1
LWPOLYLINE
  2
AcDbPolyline
  3
AutoCAD 2000
 90
        0
280
     0
281
     1
  0
CLASS
  1
HATCH
  2
AcDbHatch
  3
AutoCAD 2000
 90
        0
280
     0
281
     1
  0
CLASS
  1
XRECORD
  2
AcDbXrecord
  3
AutoCAD 2000
 90
        0
280
     0
281
     0
  0
ENDSEC
  0
SECTION
  2
TABLES
  0
TABLE
  2
VPORT
  5
8
330
0
100
AcDbSymbolTable
 70
     2
  0
VPORT
  5
449
330
8
100
AcDbSymbolTableRecord
100
AcDbViewportTableRecord
  2
*ACTIVE
 70
     0
 10
0.0
 20
0.0
 11
1.0
 21
1.0
 12
3.687016819110013
 22
0.2297112278703821
 13
0.0
 23
0.0
 14
0.015625
 24
0.015625
 15
0.0
 25
0.0
 16
0.0
 26
0.0
 36
1.0
 17
0.0
 27
0.0
 37
0.0
 40
2.563295967283115
 41
4.320930232558139
 42
50.0
 43
0.0
 44
0.0
 50
0.0
 51
0.0
 71
     0
 72
  2000
 73
     1
 74
     1
 75
     0
 76
     0
 77
     0
 78
     0
  0
ENDTAB
  0
TABLE
  2
LTYPE
  5
5
330
0
100
AcDbSymbolTable
 70
     1
  0
LTYPE
  5
12
330
5
100
AcDbSymbolTableRecord
100
AcDbLinetypeTableRecord
  2
BYBLOCK
 70
     0
  3

 72
    65
 73
     0
 40
0.0
  0
LTYPE
  5
13
330
5
100
AcDbSymbolTableRecord
100
AcDbLinetypeTableRecord
  2
BYLAYER
 70
     0
  3

 72
    65
 73
     0
 40
0.0
  0
LTYPE
  5
14
330
5
100
AcDbSymbolTableRecord
100
AcDbLinetypeTableRecord
  2
CONTINUOUS
 70
     0
  3
Solid line
 72
    65
 73
     0
 40
0.0
  0
ENDTAB
  0
TABLE
  2
LAYER
  5
2
330
0
100
AcDbSymbolTable
 70
     2
  0
LAYER
  5
F
330
2
100
AcDbSymbolTableRecord
100
AcDbLayerTableRecord
  2
0
 70
     0
 62
     7
  6
CONTINUOUS
  0
LAYER
  5
24
330
2
100
AcDbSymbolTableRecord
100
AcDbLayerTableRecord
  2
TEXT
 70
     0
 62
     3
  6
CONTINUOUS
  0
ENDTAB
  0
TABLE
  2
STYLE
  5
3
330
0
100
AcDbSymbolTable
 70
     3
  0
STYLE
  5
10
330
3
100
AcDbSymbolTableRecord
100
AcDbTextStyleTableRecord
  2
STANDARD
 70
     0
 40
0.0
 41
1.0
 50
0.0
 71
     0
 42
0.125
  3
txt
  4

  0
STYLE
  5
336
330
3
100
AcDbSymbolTableRecord
100
AcDbTextStyleTableRecord
  2
ITALICC
 70
     0
 40
0.0
 41
1.0
 50
0.0
 71
     0
 42
0.125
  3
italicc
  4

  0
STYLE
  5
445
330
3
100
AcDbSymbolTableRecord
100
AcDbTextStyleTableRecord
  2
ROMANS
 70
     0
 40
0.0
 41
1.0
 50
0.0
 71
     0
 42
0.125
  3
romans.shx
  4

  0
ENDTAB
  0
TABLE
  2
VIEW
  5
6
330
0
100
AcDbSymbolTable
 70
     0
  0
ENDTAB
  0
TABLE
  2
UCS
  5
7
330
0
100
AcDbSymbolTable
 70
     0
  0
ENDTAB
  0
TABLE
  2
APPID
  5
9
330
0
100
AcDbSymbolTable
 70
     1
  0
APPID
  5
11
330
9
100
AcDbSymbolTableRecord
100
AcDbRegAppTableRecord
  2
ACAD
 70
     0
  0
ENDTAB
  0
TABLE
  2
DIMSTYLE
  5
A
330
0
100
AcDbSymbolTable
 70
     1
  0
DIMSTYLE
105
32E
330
A
100
AcDbSymbolTableRecord
100
AcDbDimStyleTableRecord
  2
STANDARD
 70
     0
  3

  4

  5

  6

  7

 40
1.0
 41
0.18
 42
0.0625
 43
0.38
 44
0.18
 45
0.0
 46
0.0
 47
0.0
 48
0.0
140
0.18
141
0.09
142
0.0
143
25.4
144
1.0
145
0.0
146
1.0
147
0.09
 71
     0
 72
     0
 73
     1
 74
     1
 75
     0
 76
     0
 77
     0
 78
     0
170
     0
171
     2
172
     0
173
     0
174
     0
175
     0
176
     0
177
     0
178
     0
270
     2
271
     4
272
     4
273
     2
274
     2
340
10
275
     0
280
     0
281
     0
282
     0
283
     1
284
     0
285
     0
286
     0
287
     3
288
     0
  0
ENDTAB
  0
TABLE
  2
BLOCK_RECORD
  5
1
330
0
100
AcDbSymbolTable
 70
     0
  0
BLOCK_RECORD
  5
18
102
{ACAD_XDICTIONARY
360
46C
102
}
330
1
100
AcDbSymbolTableRecord
100
AcDbBlockTableRecord
  2
*MODEL_SPACE
  0
BLOCK_RECORD
  5
15
102
{ACAD_XDICTIONARY
360
46A
102
}
330
1
100
AcDbSymbolTableRecord
100
AcDbBlockTableRecord
  2
*PAPER_SPACE
  0
ENDTAB
  0
ENDSEC
  0
SECTION
  2
BLOCKS
  0
BLOCK
  5
2A
330
18
100
AcDbEntity
  8
0
100
AcDbBlockBegin
  2
*MODEL_SPACE
 70
     0
 10
0.0
 20
0.0
 30
0.0
  3
*MODEL_SPACE
  1

  0
ENDBLK
  5
2B
330
18
100
AcDbEntity
  8
0
100
AcDbBlockEnd
  0
BLOCK
  5
28
330
15
100
AcDbEntity
 67
     1
  8
0
100
AcDbBlockBegin
  2
*PAPER_SPACE
 70
     0
 10
0.0
 20
0.0
 30
0.0
  3
*PAPER_SPACE
  1

  0
ENDBLK
  5
29
330
15
100
AcDbEntity
 67
     1
  8
0
100
AcDbBlockEnd
  0
ENDSEC
  0
SECTION
  2
ENTITIES
  0
LWPOLYLINE
  5
35
330
18
100
AcDbEntity
  8
0
100
AcDbPolyline
 90
       32
 70
     1
 43
0.0
 10
-0.051334815741825
 20
1.431279404502153
 42
0.3993515689907348
 10
-0.0669394940285058
 20
1.416451047815844
 42
0.0116387640352598
 10
-0.0800125002531651
 20
0.9451465682650002
 42
0.269143084091134
 10
-0.0722001552613652
 20
0.9315453226079842
 10
0.1386370161451111
 20
0.8098184249412764
 42
-0.2679491924311231
 10
0.1464495161451111
 20
0.7962867780071444
 10
0.1464495161451111
 20
0.3787720309971654
 42
-0.2679491924311224
 10
0.1386370161451111
 20
0.3652403840630334
 10
-0.0722001552613652
 20
0.2435134863963246
 42
0.269143084091134
 10
-0.080012500253166
 20
0.2299122407393086
 42
0.0054534981722295
 10
-0.0766186595297804
 20
0.0089940124920735
 42
0.4065405726442093
 10
-0.0609990499508548
 20
-0.0062205954978456
 10
0.0214495161451112
 20
-0.0062205954978456
 42
0.4142135623730951
 10
0.0370745161451112
 20
0.0094044045021544
 10
0.0370745161451112
 20
0.0875294045021544
 42
-0.4142135623730951
 10
0.0995745161451112
 20
0.1500294045021544
 10
0.4276995161451116
 20
0.1500294045021544
 42
-0.4142135623730951
 10
0.4901995161451116
 20
0.0875294045021544
 10
0.4901995161451116
 20
0.0094044045021544
 42
0.4142135623730951
 10
0.5058245161451116
 20
-0.0062205954978456
 10
0.5882730822410776
 20
-0.0062205954978456
 42
0.4065405726442093
 10
0.6038926918200032
 20
0.0089940124920735
 42
0.0054534981722295
 10
0.6072865325433901
 20
0.2299122407393042
 42
0.2691430840911341
 10
0.5994741875515879
 20
0.2435134863963246
 10
0.3886370161451116
 20
0.3652403840630334
 42
-0.2679491924311224
 10
0.3808245161451116
 20
0.3787720309971654
 10
0.3808245161451116
 20
0.7962867780071444
 42
-0.2679491924311231
 10
0.3886370161451116
 20
0.8098184249412764
 10
0.5994741875515879
 20
0.9315453226079842
 42
0.2691430840911341
 10
0.6072865325433879
 20
0.9451465682650002
 42
0.0116387640352598
 10
0.5942135263187285
 20
1.416451047815844
 42
0.3993515689907348
 10
0.5786088480320477
 20
1.431279404502153
  0
LWPOLYLINE
  5
57
330
18
100
AcDbEntity
  8
0
100
AcDbPolyline
 90
       46
 70
     1
 43
0.0
 10
-0.0957800278212879
 20
1.493779404502154
 42
0.3980811554917098
 10
-0.1269820984778862
 20
1.464259516273264
 42
0.0125106039310695
 10
-0.1424670189526767
 20
0.954574250938756
 42
0.2693837967043286
 10
-0.0955933616792888
 20
0.872882612981877
 10
0.0192972239209213
 20
0.8065505024582421
 42
-0.2679491924311232
 10
0.0349222239209213
 20
0.7794872085899787
 10
0.0349222239209213
 20
0.3955716004143301
 42
-0.2679491924311228
 10
0.0192972239209213
 20
0.3685083065460666
 10
-0.0955933616792924
 20
0.3021761960224296
 42
0.2693837967043322
 10
-0.1424670189526793
 20
0.2204845580655492
 42
0.0127118675237688
 10
-0.1265246383827128
 20
-0.2973912356729436
 42
0.9722890807852333
 10
-0.0813629838548877
 20
-0.2961219308136424
 10
-0.0813629838548886
 20
-0.2562205954978456
 10
0.0839495161451112
 20
-0.2562205954978456
 42
0.4142135623730951
 10
0.0995745161451112
 20
-0.2405955954978456
 10
0.0995745161451112
 20
-0.2093455954978456
 42
0.4142135623730951
 10
0.0839495161451112
 20
-0.1937205954978456
 10
-0.0813629838548886
 20
-0.1937205954978456
 10
-0.0813629838548886
 20
-0.0687205954978456
 10
0.0839495161451112
 20
-0.0687205954978456
 42
0.4142135623730951
 10
0.0995745161451112
 20
-0.0530955954978456
 10
0.0995745161451112
 20
0.0719044045021544
 42
-0.4142135623730951
 10
0.1151995161451111
 20
0.0875294045021544
 10
0.4120745161451116
 20
0.0875294045021544
 42
-0.4142135623730951
 10
0.4276995161451116
 20
0.0719044045021544
 10
0.4276995161451116
 20
-0.0530955954978456
 42
0.4142135623730951
 10
0.4433245161451116
 20
-0.0687205954978456
 10
0.6086370161451114
 20
-0.0687205954978456
 10
0.6086370161451114
 20
-0.1937205954978456
 10
0.4433245161451116
 20
-0.1937205954978456
 42
0.4142135623730951
 10
0.4276995161451116
 20
-0.2093455954978456
 10
0.4276995161451116
 20
-0.2405955954978456
 42
0.4142135623730951
 10
0.4433245161451116
 20
-0.2562205954978456
 10
0.6086370161451114
 20
-0.2562205954978456
 10
0.6086370161451105
 20
-0.2961219308136424
 42
0.9722890807852342
 10
0.6537986706729378
 20
-0.2973912356729416
 42
0.0127118675237687
 10
0.6697410512429034
 20
0.2204845580655483
 42
0.2693837967043336
 10
0.6228673939695156
 20
0.3021761960224292
 10
0.5079768083693015
 20
0.3685083065460666
 42
-0.2679491924311226
 10
0.4923518083693015
 20
0.3955716004143301
 10
0.4923518083693015
 20
0.7794872085899787
 42
-0.2679491924311232
 10
0.5079768083693015
 20
0.8065505024582421
 10
0.6228673939695147
 20
0.8728826129818788
 42
0.2693837967043265
 10
0.6697410512429025
 20
0.9545742509387572
 42
0.0125106039310694
 10
0.6542561307681125
 20
1.464259516273262
 42
0.3980811554917103
 10
0.6230540601115107
 20
1.493779404502154
  0
TEXT
  5
3BB
330
18
100
AcDbEntity
  8
TEXT
100
AcDbText
 10
-0.5303904234145771
 20
-0.582255690875638
 30
0.0
 40
0.125
  1
PART #130027
  7
ITALICC
 72
     1
 11
0.2255619575378036
 21
-0.582255690875638
 31
0.0
100
AcDbText
  0
LWPOLYLINE
  5
3BC
330
18
100
AcDbEntity
  8
TEXT
100
AcDbPolyline
 90
        3
 70
     0
 43
0.0
 10
-0.1434788487384324
 20
-0.7623326822387027
 10
-0.2617790075544768
 20
-0.7623326822387027
 10
-0.2617790075544768
 20
-0.7895001789995986
 42
-1.960274751411753
  0
LWPOLYLINE
  5
3BD
330
18
100
AcDbEntity
  8
TEXT
100
AcDbPolyline
 90
        4
 70
     0
 43
0.0
 10
-0.1786131992826423
 20
-0.8341631660615815
 10
-0.1786131992826423
 20
-1.028805715227217
 10
-0.1101349159947844
 20
-1.028805715227217
 10
-0.1101349159947844
 20
-0.985314770276779
 42
-1.714843617202739
  0
LWPOLYLINE
  5
3BE
330
18
100
AcDbEntity
  8
TEXT
100
AcDbPolyline
 90
        2
 70
     0
 43
0.0001332181640625
 10
-1.277293880966684
 20
-1.002125377551204
 10
-1.337242054794808
 20
-0.9421772037230793
  0
LWPOLYLINE
  5
3BF
330
18
100
AcDbEntity
  8
TEXT
100
AcDbPolyline
 90
        3
 70
     0
 43
0.0006660908203125
 10
-1.363885687607309
 20
-1.002125377551204
 10
-1.277293880966684
 20
-1.002125377551204
 10
-1.277293880966684
 20
-0.9155335709105782
  0
LWPOLYLINE
  5
3C0
330
18
100
AcDbEntity
  8
TEXT
100
AcDbPolyline
 90
        3
 70
     0
 43
0.0006660908203125
 10
-1.363885687607309
 20
-1.028769010363705
 10
-1.250650248154183
 20
-1.028769010363705
 10
-1.250650248154183
 20
-0.9155335709105782
  0
LWPOLYLINE
  5
3C1
330
18
100
AcDbEntity
  8
TEXT
100
AcDbPolyline
 90
        2
 70
     0
 43
0.0001332181640625
 10
-1.250650248154183
 20
-0.9155335709105782
 10
-1.323920238388559
 20
-0.905542208605893
  0
LWPOLYLINE
  5
3C2
330
18
100
AcDbEntity
  8
TEXT
100
AcDbPolyline
 90
        2
 70
     0
 43
0.0001332181640625
 10
-1.277293880966684
 20
-0.9155335709105782
 10
-1.337242054794808
 20
-0.905542208605893
  0
LWPOLYLINE
  5
3C3
330
18
100
AcDbEntity
  8
TEXT
100
AcDbPolyline
 90
        2
 70
     0
 43
0.0001332181640625
 10
-1.490442943466685
 20
-1.002125377551204
 10
-1.430494769638558
 20
-0.9421772037230793
  0
LWPOLYLINE
  5
3C4
330
18
100
AcDbEntity
  8
TEXT
100
AcDbPolyline
 90
        2
 70
     0
 43
0.0001332181640625
 10
-1.490442943466685
 20
-0.9155335709105782
 10
-1.430494769638558
 20
-0.905542208605893
  0
LWPOLYLINE
  5
3C5
330
18
100
AcDbEntity
  8
TEXT
100
AcDbPolyline
 90
        3
 70
     0
 43
0.0006660908203125
 10
-1.517086576279183
 20
-0.9155335709105782
 10
-1.517086576279183
 20
-1.028769010363705
 10
-1.403851136826061
 20
-1.028769010363705
  0
LWPOLYLINE
  5
3C6
330
18
100
AcDbEntity
  8
TEXT
100
AcDbPolyline
 90
        3
 70
     0
 43
0.0006660908203125
 10
-1.490442943466685
 20
-0.9155335709105782
 10
-1.490442943466685
 20
-1.002125377551204
 10
-1.403851136826061
 20
-1.002125377551204
  0
LWPOLYLINE
  5
3C7
330
18
100
AcDbEntity
  8
TEXT
100
AcDbPolyline
 90
        5
 70
     0
 43
0.0001332181640625
 10
-1.39385977452137
 20
-0.9554990201293298
 10
-1.39385977452137
 20
-0.9421772037230793
 10
-1.430494769638558
 20
-0.9421772037230793
 10
-1.430494769638558
 20
-0.905542208605893
 10
-1.443816586044809
 20
-0.905542208605893
  0
LWPOLYLINE
  5
3C8
330
18
100
AcDbEntity
  8
TEXT
100
AcDbPolyline
 90
        2
 70
     0
 43
0.0006660908203125
 10
-1.490442943466685
 20
-0.9155335709105782
 10
-1.517086576279183
 20
-0.9155335709105782
  0
LWPOLYLINE
  5
3C9
330
18
100
AcDbEntity
  8
TEXT
100
AcDbPolyline
 90
        2
 70
     0
 43
0.0001332181640625
 10
-1.443816586044809
 20
-0.905542208605893
 10
-1.517086576279183
 20
-0.9155335709105782
  0
LWPOLYLINE
  5
3CA
330
18
100
AcDbEntity
  8
TEXT
100
AcDbPolyline
 90
        2
 70
     0
 43
0.0006660908203125
 10
-1.403851136826061
 20
-1.002125377551204
 10
-1.403851136826061
 20
-1.028769010363705
  0
LWPOLYLINE
  5
3CB
330
18
100
AcDbEntity
  8
TEXT
100
AcDbPolyline
 90
        2
 70
     0
 43
0.0001332181640625
 10
-1.403851136826061
 20
-1.002125377551204
 10
-1.39385977452137
 20
-0.9421772037230793
  0
LWPOLYLINE
  5
3CC
330
18
100
AcDbEntity
  8
TEXT
100
AcDbPolyline
 90
        2
 70
     0
 43
0.0001332181640625
 10
-1.403851136826061
 20
-1.028769010363705
 10
-1.39385977452137
 20
-0.9554990201293298
  0
LWPOLYLINE
  5
3CD
330
18
100
AcDbEntity
  8
TEXT
100
AcDbPolyline
 90
        2
 70
     0
 43
0.0001332181640625
 10
-1.363885687607309
 20
-1.002125377551204
 10
-1.373877049911998
 20
-0.9421772037230793
  0
LWPOLYLINE
  5
3CE
330
18
100
AcDbEntity
  8
TEXT
100
AcDbPolyline
 90
        2
 70
     0
 43
0.0001332181640625
 10
-1.373877049911998
 20
-0.9554990201293298
 10
-1.363885687607309
 20
-1.028769010363705
  0
LWPOLYLINE
  5
3CF
330
18
100
AcDbEntity
  8
TEXT
100
AcDbPolyline
 90
        2
 70
     0
 43
0.0006660908203125
 10
-1.363885687607309
 20
-1.002125377551204
 10
-1.363885687607309
 20
-1.028769010363705
  0
LWPOLYLINE
  5
3D0
330
18
100
AcDbEntity
  8
TEXT
100
AcDbPolyline
 90
        5
 70
     0
 43
0.0001332181640625
 10
-1.323920238388559
 20
-0.905542208605893
 10
-1.337242054794808
 20
-0.905542208605893
 10
-1.337242054794808
 20
-0.9421772037230793
 10
-1.373877049911998
 20
-0.9421772037230793
 10
-1.373877049911998
 20
-0.9554990201293298
  0
LWPOLYLINE
  5
3D1
330
18
100
AcDbEntity
  8
TEXT
100
AcDbPolyline
 90
        2
 70
     0
 43
0.0006660908203125
 10
-1.277293880966684
 20
-0.9155335709105782
 10
-1.250650248154183
 20
-0.9155335709105782
  0
LWPOLYLINE
  5
3D2
330
18
100
AcDbEntity
  8
TEXT
100
AcDbPolyline
 90
        3
 70
     0
 43
0.0006660908203125
 10
-1.250650248154183
 20
-0.8755681216918302
 10
-1.250650248154183
 20
-0.7623326822387027
 10
-1.363885687607309
 20
-0.7623326822387027
  0
LWPOLYLINE
  5
3D3
330
18
100
AcDbEntity
  8
TEXT
100
AcDbPolyline
 90
        3
 70
     0
 43
0.0006660908203125
 10
-1.277293880966684
 20
-0.8755681216918302
 10
-1.277293880966684
 20
-0.7889763150512037
 10
-1.363885687607309
 20
-0.7889763150512037
  0
LWPOLYLINE
  5
3D4
330
18
100
AcDbEntity
  8
TEXT
100
AcDbPolyline
 90
        2
 70
     0
 43
0.0001332181640625
 10
-1.323920238388559
 20
-0.885559483996519
 10
-1.250650248154183
 20
-0.8755681216918302
  0
LWPOLYLINE
  5
3D5
330
18
100
AcDbEntity
  8
TEXT
100
AcDbPolyline
 90
        2
 70
     0
 43
0.0001332181640625
 10
-1.277293880966684
 20
-0.8755681216918302
 10
-1.337242054794808
 20
-0.885559483996519
  0
LWPOLYLINE
  5
3D6
330
18
100
AcDbEntity
  8
TEXT
100
AcDbPolyline
 90
        2
 70
     0
 43
0.0001332181640625
 10
-1.277293880966684
 20
-0.7889763150512037
 10
-1.337242054794808
 20
-0.8489244888793292
  0
LWPOLYLINE
  5
3D7
330
18
100
AcDbEntity
  8
TEXT
100
AcDbPolyline
 90
        2
 70
     0
 43
0.0001332181640625
 10
-1.490442943466685
 20
-0.7889763150512037
 10
-1.43049476963856
 20
-0.8489244888793292
  0
LWPOLYLINE
  5
3D8
330
18
100
AcDbEntity
  8
TEXT
100
AcDbPolyline
 90
        2
 70
     0
 43
0.0001332181640625
 10
-1.490442943466685
 20
-0.8755681216918302
 10
-1.43049476963856
 20
-0.885559483996519
  0
LWPOLYLINE
  5
3D9
330
18
100
AcDbEntity
  8
TEXT
100
AcDbPolyline
 90
        3
 70
     0
 43
0.0006660908203125
 10
-1.403851136826061
 20
-0.7623326822387027
 10
-1.517086576279183
 20
-0.7623326822387027
 10
-1.517086576279183
 20
-0.8755681216918302
  0
LWPOLYLINE
  5
3DA
330
18
100
AcDbEntity
  8
TEXT
100
AcDbPolyline
 90
        3
 70
     0
 43
0.0006660908203125
 10
-1.403851136826061
 20
-0.7889763150512037
 10
-1.490442943466685
 20
-0.7889763150512037
 10
-1.490442943466685
 20
-0.8755681216918302
  0
LWPOLYLINE
  5
3DB
330
18
100
AcDbEntity
  8
TEXT
100
AcDbPolyline
 90
        5
 70
     0
 43
0.0001332181640625
 10
-1.443816586044809
 20
-0.885559483996519
 10
-1.43049476963856
 20
-0.885559483996519
 10
-1.43049476963856
 20
-0.8489244888793292
 10
-1.39385977452137
 20
-0.8489244888793292
 10
-1.39385977452137
 20
-0.8356026724730822
  0
LWPOLYLINE
  5
3DC
330
18
100
AcDbEntity
  8
TEXT
100
AcDbPolyline
 90
        2
 70
     0
 43
0.0001332181640625
 10
-1.517086576279183
 20
-0.8755681216918302
 10
-1.443816586044809
 20
-0.885559483996519
  0
LWPOLYLINE
  5
3DD
330
18
100
AcDbEntity
  8
TEXT
100
AcDbPolyline
 90
        2
 70
     0
 43
0.0006660908203125
 10
-1.490442943466685
 20
-0.8755681216918302
 10
-1.517086576279183
 20
-0.8755681216918302
  0
LWPOLYLINE
  5
3DE
330
18
100
AcDbEntity
  8
TEXT
100
AcDbPolyline
 90
        2
 70
     0
 43
0.0006660908203125
 10
-1.403851136826061
 20
-0.7889763150512037
 10
-1.403851136826061
 20
-0.7623326822387027
  0
LWPOLYLINE
  5
3DF
330
18
100
AcDbEntity
  8
TEXT
100
AcDbPolyline
 90
        2
 70
     0
 43
0.0001332181640625
 10
-1.39385977452137
 20
-0.8356026724730822
 10
-1.403851136826061
 20
-0.7623326822387027
  0
LWPOLYLINE
  5
3E0
330
18
100
AcDbEntity
  8
TEXT
100
AcDbPolyline
 90
        2
 70
     0
 43
0.0001332181640625
 10
-1.403851136826061
 20
-0.7889763150512037
 10
-1.39385977452137
 20
-0.8489244888793292
  0
LWPOLYLINE
  5
3E1
330
18
100
AcDbEntity
  8
TEXT
100
AcDbPolyline
 90
        5
 70
     0
 43
0.0001332181640625
 10
-1.373877049911998
 20
-0.8356026724730822
 10
-1.373877049911998
 20
-0.8489244888793292
 10
-1.337242054794808
 20
-0.8489244888793292
 10
-1.337242054794808
 20
-0.885559483996519
 10
-1.323920238388559
 20
-0.885559483996519
  0
LWPOLYLINE
  5
3E2
330
18
100
AcDbEntity
  8
TEXT
100
AcDbPolyline
 90
        2
 70
     0
 43
0.0006660908203125
 10
-1.363885687607309
 20
-0.7889763150512037
 10
-1.363885687607309
 20
-0.7623326822387027
  0
LWPOLYLINE
  5
3E3
330
18
100
AcDbEntity
  8
TEXT
100
AcDbPolyline
 90
        2
 70
     0
 43
0.0001332181640625
 10
-1.363885687607309
 20
-0.7889763150512037
 10
-1.373877049911998
 20
-0.8489244888793292
  0
LWPOLYLINE
  5
3E4
330
18
100
AcDbEntity
  8
TEXT
100
AcDbPolyline
 90
        2
 70
     0
 43
0.0001332181640625
 10
-1.363885687607309
 20
-0.7623326822387027
 10
-1.373877049911998
 20
-0.8356026724730822
  0
LWPOLYLINE
  5
3E5
330
18
100
AcDbEntity
  8
TEXT
100
AcDbPolyline
 90
        2
 70
     0
 43
0.0006660908203125
 10
-1.277293880966684
 20
-0.8755681216918302
 10
-1.250650248154183
 20
-0.8755681216918302
  0
LINE
  5
3E6
330
18
100
AcDbEntity
  8
TEXT
100
AcDbLine
 10
-0.6291700334989967
 20
-1.008847209122204
 30
0.0
 11
-0.5318703274055521
 21
-0.8444969981869361
 31
0.0
  0
LINE
  5
3E7
330
18
100
AcDbEntity
  8
TEXT
100
AcDbLine
 10
-0.6195697965020424
 20
-0.8632046783518267
 30
0.0
 11
-0.6782001175339803
 21
-0.7623326822387062
 31
0.0
  0
LINE
  5
3E8
330
18
100
AcDbEntity
  8
TEXT
100
AcDbLine
 10
-0.8136304572771875
 20
-0.8266093768954716
 30
0.0
 11
-0.8136304572771875
 21
-0.9690133238891673
 31
0.0
  0
LWPOLYLINE
  5
3E9
330
18
100
AcDbEntity
  8
TEXT
100
AcDbPolyline
 90
        6
 70
     1
 43
0.0
 10
-0.7172200462219323
 20
-0.8266093768954716
 10
-0.7475366404421404
 20
-0.8266093768954716
 10
-0.7475366404421404
 20
-0.9497203749503659
 42
0.407328721240804
 10
-0.7359929892806641
 20
-0.961539289626752
 10
-0.6753712902359333
 20
-0.961539289626752
 10
-0.6579059498286153
 20
-0.9287270605832729
  0
ARC
  5
3EA
330
18
100
AcDbEntity
  8
TEXT
100
AcDbCircle
 10
-0.985773441420406
 20
-0.8444201416852079
 30
0.0
 40
0.0820874594465043
100
AcDbArc
 50
90.0
 51
270.0
  0
ARC
  5
3EB
330
18
100
AcDbEntity
  8
TEXT
100
AcDbCircle
 10
-0.9149359750618568
 20
-0.9456099068666601
 30
0.0
 40
0.0831958083605586
100
AcDbArc
 50
270.0
 51
90.0
  0
LINE
  5
3EC
330
18
100
AcDbEntity
  8
TEXT
100
AcDbLine
 10
-0.985773441420406
 20
-0.9265076011317132
 30
0.0
 11
-0.9099956011555772
 21
-0.9265076011317132
 31
0.0
  0
LINE
  5
3ED
330
18
100
AcDbEntity
  8
TEXT
100
AcDbLine
 10
-1.067860900866909
 20
-1.028805715227217
 30
0.0
 11
-0.9149359750618568
 21
-1.028805715227217
 31
0.0
  0
LINE
  5
3EE
330
18
100
AcDbEntity
  8
TEXT
100
AcDbLine
 10
-0.9099956011555772
 20
-0.9604487088937778
 30
0.0
 11
-1.067860900866911
 21
-0.9604487088937778
 31
0.0
  0
LINE
  5
3EF
330
18
100
AcDbEntity
  8
TEXT
100
AcDbLine
 10
-1.067860900866911
 20
-0.9604487088937778
 30
0.0
 11
-1.067860900866909
 21
-1.028805715227217
 31
0.0
  0
ARC
  5
3F0
330
18
100
AcDbEntity
  8
TEXT
100
AcDbCircle
 10
-0.9099956011555772
 20
-0.9434781550127437
 30
0.0
 40
0.0169705538810321
100
AcDbArc
 50
270.0
 51
90.0
  0
LINE
  5
3F1
330
18
100
AcDbEntity
  8
TEXT
100
AcDbLine
 10
-0.7597438497970819
 20
-1.028805715227217
 30
0.0
 11
-0.6631035987220875
 21
-1.028535076128934
 31
0.0
  0
ARC
  5
3F2
330
18
100
AcDbEntity
  8
TEXT
100
AcDbCircle
 10
-0.7535144393034355
 20
-0.9690133238891673
 30
0.0
 40
0.0601160179737537
100
AcDbArc
 50
180.0000000000003
 51
264.0521544866073
  0
ARC
  5
3F3
330
18
100
AcDbEntity
  8
TEXT
100
AcDbCircle
 10
-0.6632135934112107
 20
-0.9892579929535214
 30
0.0
 40
0.0392772371940762
100
AcDbArc
 50
270.1604552698595
 51
330.0831797321295
  0
LINE
  5
3F4
330
18
100
AcDbEntity
  8
TEXT
100
AcDbLine
 10
-0.9805361113061579
 20
-0.8266093768954716
 30
0.0
 11
-0.8136304572771875
 21
-0.8266093768954716
 31
0.0
  0
LINE
  5
3F5
330
18
100
AcDbEntity
  8
TEXT
100
AcDbLine
 10
-0.8100416885218946
 20
-0.7623326822387062
 30
0.0
 11
-0.985773441420406
 21
-0.7623326822387062
 31
0.0
  0
LINE
  5
3F6
330
18
100
AcDbEntity
  8
TEXT
100
AcDbLine
 10
-0.9149359750618568
 20
-0.8624140985060995
 30
0.0
 11
-0.9805361113061579
 21
-0.8624140985060995
 31
0.0
  0
ARC
  5
3F7
330
18
100
AcDbEntity
  8
TEXT
100
AcDbCircle
 10
-0.9805361113061579
 20
-0.8445117377007838
 30
0.0
 40
0.017902360805315
100
AcDbArc
 50
90.0
 51
270.0
  0
LINE
  5
3F8
330
18
100
AcDbEntity
  8
TEXT
100
AcDbLine
 10
-0.6782001175339803
 20
-0.7623326822387062
 30
0.0
 11
-0.7499990836778876
 21
-0.7623326822387062
 31
0.0
  0
LINE
  5
3F9
330
18
100
AcDbEntity
  8
TEXT
100
AcDbLine
 10
-0.7499990836778876
 20
-0.7623326822387062
 30
0.0
 11
-0.7499990836778876
 21
-0.7279447646445681
 31
0.0
  0
LINE
  5
3FA
330
18
100
AcDbEntity
  8
TEXT
100
AcDbLine
 10
-0.8100416885218946
 20
-0.7279447646445681
 30
0.0
 11
-0.8100416885218946
 21
-0.7623326822387062
 31
0.0
  0
LINE
  5
3FB
330
18
100
AcDbEntity
  8
TEXT
100
AcDbLine
 10
-0.7499990836778876
 20
-0.7279447646445681
 30
0.0
 11
-0.8100416885218946
 21
-0.7279447646445681
 31
0.0
  0
LINE
  5
3FC
330
18
100
AcDbEntity
  8
TEXT
100
AcDbLine
 10
-0.2403005853697051
 20
-1.028805715227217
 30
0.0
 11
-0.2403005853697051
 21
-0.8266093768954716
 31
0.0
  0
LINE
  5
3FD
330
18
100
AcDbEntity
  8
TEXT
100
AcDbLine
 10
-0.3073586321515451
 20
-0.8341631660615815
 30
0.0
 11
-0.3073586321515451
 21
-1.028805715227217
 31
0.0
  0
LINE
  5
3FE
330
18
100
AcDbEntity
  8
TEXT
100
AcDbLine
 10
-0.4638906083364356
 20
-0.9464178771242179
 30
0.0
 11
-0.4638906083364356
 21
-0.6943212044998957
 31
0.0
  0
LINE
  5
3FF
330
18
100
AcDbEntity
  8
TEXT
100
AcDbLine
 10
-0.4315787541987755
 20
-0.7623326822387062
 30
0.0
 11
-0.4315787541987755
 21
-0.9631968889711144
 31
0.0
  0
LINE
  5
400
330
18
100
AcDbEntity
  8
TEXT
100
AcDbLine
 10
-0.3647477011408062
 20
-1.028805715227217
 30
0.0
 11
-0.3647477011408062
 21
-0.8266093768954716
 31
0.0
  0
LINE
  5
401
330
18
100
AcDbEntity
  8
TEXT
100
AcDbLine
 10
-0.5318703274055521
 20
-0.8444969981869361
 30
0.0
 11
-0.5318703274055521
 21
-0.9772543730122924
 31
0.0
  0
LINE
  5
402
330
18
100
AcDbEntity
  8
TEXT
100
AcDbLine
 10
-0.4627510348402409
 20
-1.028805715227217
 30
0.0
 11
-0.3647477011408062
 21
-1.028805715227217
 31
0.0
  0
LWPOLYLINE
  5
403
330
18
100
AcDbEntity
  8
TEXT
100
AcDbPolyline
 90
        2
 70
     0
 43
0.0
 10
-0.531870327405553
 20
-0.9772543730122889
 42
0.3318488747599744
 10
-0.46275103484024
 20
-1.028805715227217
 42
-6.868794160588311
  0
ARC
  5
404
330
18
100
AcDbEntity
  8
TEXT
100
AcDbCircle
 10
-0.4485723910833777
 20
-0.9478150827276889
 30
0.0
 40
0.0153818062434269
100
AcDbArc
 50
174.7883570302258
 51
270.0
  0
LINE
  5
405
330
18
100
AcDbEntity
  8
TEXT
100
AcDbLine
 10
-0.4315787541987755
 20
-0.9631968889711144
 30
0.0
 11
-0.4485723910833768
 21
-0.9631968889711144
 31
0.0
  0
LINE
  5
406
330
18
100
AcDbEntity
  8
TEXT
100
AcDbLine
 10
-0.3073586321515451
 20
-1.028805715227217
 30
0.0
 11
-0.2403005853697051
 21
-1.028805715227217
 31
0.0
  0
LINE
  5
407
330
18
100
AcDbEntity
  8
TEXT
100
AcDbLine
 10
-0.2975606982676391
 20
-0.7623326822387062
 30
0.0
 11
-0.4315787541987755
 21
-0.7623326822387062
 31
0.0
  0
LINE
  5
408
330
18
100
AcDbEntity
  8
TEXT
100
AcDbLine
 10
-0.5306993209028006
 20
-0.6943212044998957
 30
0.0
 11
-0.5306993209028006
 21
-0.7623326822387062
 31
0.0
  0
LINE
  5
409
330
18
100
AcDbEntity
  8
TEXT
100
AcDbLine
 10
-0.5306993209028006
 20
-0.7623326822387062
 30
0.0
 11
-0.5608212336961769
 21
-0.7623326822387062
 31
0.0
  0
LINE
  5
40A
330
18
100
AcDbEntity
  8
TEXT
100
AcDbLine
 10
-0.5608212336961769
 20
-0.7623326822387062
 30
0.0
 11
-0.6195697965020424
 21
-0.8632046783518267
 31
0.0
  0
LINE
  5
40B
330
18
100
AcDbEntity
  8
TEXT
100
AcDbLine
 10
-0.4638906083364356
 20
-0.6943212044998957
 30
0.0
 11
-0.5306993209028006
 21
-0.6943212044998957
 31
0.0
  0
LWPOLYLINE
  5
40C
330
18
100
AcDbEntity
  8
TEXT
100
AcDbPolyline
 90
        2
 70
     0
 43
0.0
 10
-0.2975606982676382
 20
-0.7623326822387027
 42
-0.3328679258950098
 10
-0.2617790075544768
 20
-0.7895001789995986
 42
6.772930709997214
  0
LINE
  5
40D
330
18
100
AcDbEntity
  8
TEXT
100
AcDbLine
 10
-0.3647477011408062
 20
-0.8266093768954716
 30
0.0
 11
-0.3149124213176586
 21
-0.8266093768954716
 31
0.0
  0
LWPOLYLINE
  5
40E
330
18
100
AcDbEntity
  8
TEXT
100
AcDbPolyline
 90
        2
 70
     0
 43
0.0
 10
-0.3149124213176595
 20
-0.8266093768954716
 42
-0.4142135623731017
 10
-0.307358632151546
 20
-0.8341631660615815
 42
-0.9999999999999998
  0
LWPOLYLINE
  5
40F
330
18
100
AcDbEntity
  8
TEXT
100
AcDbPolyline
 90
        2
 70
     0
 43
0.0
 10
-0.1861669884487558
 20
-0.8266093768954716
 42
-0.4142135623731017
 10
-0.1786131992826423
 20
-0.8341631660615815
 42
-0.9999999999999998
  0
LINE
  5
410
330
18
100
AcDbEntity
  8
TEXT
100
AcDbLine
 10
-0.2403005853697051
 20
-0.8266093768954716
 30
0.0
 11
-0.1861669884487549
 21
-0.8266093768954716
 31
0.0
  0
TEXT
  5
411
330
18
100
AcDbEntity
  8
TEXT
100
AcDbText
 10
0.6388671157881252
 20
-1.029178333548013
 30
0.0
 40
0.0522247191011236
  1
Phone  1-800-328-2495
 41
1.272321428571429
 72
     5
 11
1.967799700057788
 21
-1.029178333548013
 31
0.0
100
AcDbText
  0
TEXT
  5
412
330
18
100
AcDbEntity
  8
TEXT
100
AcDbText
 10
0.6388671157881252
 20
-0.7494030526491367
 30
0.0
 40
0.0522247191011236
  1
Stylmark  Incorporated
 41
1.221428571428571
 72
     5
 11
1.967799700057788
 21
-0.7494030526491367
 31
0.0
100
AcDbText
  0
TEXT
  5
413
330
18
100
AcDbEntity
  8
TEXT
100
AcDbText
 10
0.6388671157881252
 20
-0.8426614796154288
 30
0.0
 40
0.0522247191011236
  1
6536 Main St. N.E. * P.O. Box 32008
 41
0.8388932496075353
 72
     5
 11
1.967799700057788
 21
-0.8426614796154288
 31
0.0
100
AcDbText
  0
TEXT
  5
414
330
18
100
AcDbEntity
  8
TEXT
100
AcDbText
 10
0.6388671157881252
 20
-0.9359199065817209
 30
0.0
 40
0.0522247191011236
  1
Minneapolis, MN 55432-0008
 41
1.11444212721585
 72
     5
 11
1.967799700057788
 21
-0.9359199065817209
 31
0.0
100
AcDbText
  0
LINE
  5
415
330
18
100
AcDbEntity
  8
TEXT
100
AcDbLine
 10
0.3337784290052026
 20
-0.6968684764711055
 30
0.0
 11
0.2654635504559293
 21
-0.6968684764711055
 31
0.0
  0
LINE
  5
416
330
18
100
AcDbEntity
  8
TEXT
100
AcDbLine
 10
0.2699434377824295
 20
-1.028805715227217
 30
0.0
 11
0.3343216221010499
 21
-1.028805715227217
 31
0.0
  0
LINE
  5
417
330
18
100
AcDbEntity
  8
TEXT
100
AcDbLine
 10
0.2699434377824241
 20
-0.8266093768954716
 30
0.0
 11
0.2699434377824295
 21
-1.028805715227217
 31
0.0
  0
LINE
  5
418
330
18
100
AcDbEntity
  8
TEXT
100
AcDbLine
 10
0.1683895812072071
 20
-1.028805715227217
 30
0.0
 11
0.1683895812072018
 21
-0.8515152097957487
 31
0.0
  0
LWPOLYLINE
  5
419
330
18
100
AcDbEntity
  8
TEXT
100
AcDbPolyline
 90
        2
 70
     0
 43
0.0
 10
0.1100343673718722
 20
-0.985314770276779
 42
-0.2901071551932486
 10
0.0669584345042278
 20
-1.028805715227217
 42
-5.328517124445184
  0
LWPOLYLINE
  5
41A
330
18
100
AcDbEntity
  8
TEXT
100
AcDbPolyline
 90
        4
 70
     1
 43
0.0
 10
0.0468359694343352
 20
-0.9258417372431919
 10
-0.0418243492255233
 20
-0.9258417372431919
 42
0.9999999999999998
 10
-0.0418243492255233
 20
-0.9682402777470526
 10
0.0468359694343352
 20
-0.9682402777470526
 42
1.0
  0
LWPOLYLINE
  5
41B
330
18
100
AcDbEntity
  8
TEXT
100
AcDbPolyline
 90
        2
 70
     0
 43
0.0
 10
-0.0670589831271489
 20
-1.028805715227217
 10
0.0669584345042278
 20
-1.028805715227217
 42
0.9999999999999998
  0
LWPOLYLINE
  5
41C
330
18
100
AcDbEntity
  8
TEXT
100
AcDbPolyline
 90
        2
 70
     0
 43
0.0
 10
-0.1101349159947844
 20
-0.985314770276779
 42
0.2901071551932823
 10
-0.0670589831271489
 20
-1.028805715227217
 42
5.328517124445801
  0
LWPOLYLINE
  5
41D
330
18
100
AcDbEntity
  8
TEXT
100
AcDbPolyline
 90
        2
 70
     0
 43
0.0
 10
0.1100343673718722
 20
-0.985314770276779
 10
0.1100343673718722
 20
-1.028805715227217
  0
LWPOLYLINE
  5
41E
330
18
100
AcDbEntity
  8
TEXT
100
AcDbPolyline
 90
        2
 70
     0
 43
0.0
 10
0.1100343673718722
 20
-1.028805715227217
 10
0.1683895812072063
 20
-1.028805715227217
  0
LINE
  5
41F
330
18
100
AcDbEntity
  8
TEXT
100
AcDbLine
 10
0.1060946900668336
 20
-0.8675446607921335
 30
0.0
 11
0.062343918884932
 21
-0.7852943847959884
 31
0.0
  0
LINE
  5
420
330
18
100
AcDbEntity
  8
TEXT
100
AcDbLine
 10
-0.0018961471526859
 20
-0.8266093768954716
 30
0.0
 11
-0.1091024205399753
 21
-0.8266093768954716
 31
0.0
  0
LINE
  5
421
330
18
100
AcDbEntity
  8
TEXT
100
AcDbLine
 10
-0.0483830616319478
 20
-0.8638843503576039
 30
0.0
 11
0.0339049281514354
 21
-0.8638843503576039
 31
0.0
  0
LINE
  5
422
330
18
100
AcDbEntity
  8
TEXT
100
AcDbLine
 10
0.0271347511917926
 20
-0.7623326822387062
 30
0.0
 11
-0.1076971580252666
 21
-0.7623326822387062
 31
0.0
  0
LINE
  5
423
330
18
100
AcDbEntity
  8
TEXT
100
AcDbLine
 10
-0.1091024205399753
 20
-0.8266093768954716
 30
0.0
 11
-0.1091024205399753
 21
-0.9016617829696782
 31
0.0
  0
ARC
  5
424
330
18
100
AcDbEntity
  8
TEXT
100
AcDbCircle
 10
-0.0483830616319487
 20
-0.9315699315017225
 30
0.0
 40
0.0676855811441166
100
AcDbArc
 50
90.0
 51
153.7768192527749
  0
LINE
  5
425
330
18
100
AcDbEntity
  8
TEXT
100
AcDbLine
 10
-0.1076971580252666
 20
-0.7623326822387062
 30
0.0
 11
-0.1076971580252666
 21
-0.7906552280083501
 31
0.0
  0
LWPOLYLINE
  5
426
330
18
100
AcDbEntity
  8
TEXT
100
AcDbPolyline
 90
        2
 70
     0
 43
0.0
 10
-0.1434788487384324
 20
-0.7623326822387027
 42
-0.3277054968067132
 10
-0.1076971580252675
 20
-0.7906552280083466
 42
6.667889725900311
  0
ARC
  5
427
330
18
100
AcDbEntity
  8
TEXT
100
AcDbCircle
 10
-0.0018961471526868
 20
-0.8549687518954689
 30
0.0
 40
0.028359375
100
AcDbArc
 50
25.78218179591245
 51
90.0
  0
LINE
  5
428
330
18
100
AcDbEntity
  8
TEXT
100
AcDbLine
 10
0.0339049281514354
 20
-0.8638843503576039
 30
0.0
 11
0.023640167737871
 21
-0.8426338107849096
 31
0.0
  0
ARC
  5
429
330
18
100
AcDbEntity
  8
TEXT
100
AcDbCircle
 10
0.0251078114147241
 20
-0.8039162493596085
 30
0.0
 40
0.0416329381542859
100
AcDbArc
 50
26.56974201007528
 51
87.20939649401342
  0
LINE
  5
42A
330
18
100
AcDbEntity
  8
TEXT
100
AcDbLine
 10
0.2654635504559293
 20
-0.6968684764711055
 30
0.0
 11
0.265463550455924
 21
-0.7623326822387062
 31
0.0
  0
LINE
  5
42B
330
18
100
AcDbEntity
  8
TEXT
100
AcDbLine
 10
0.265463550455924
 20
-0.7623326822387062
 30
0.0
 11
0.1979638328064075
 21
-0.7623326822387062
 31
0.0
  0
LINE
  5
42C
330
18
100
AcDbEntity
  8
TEXT
100
AcDbLine
 10
0.1932954564898663
 20
-0.8266093768954716
 30
0.0
 11
0.2699434377824241
 21
-0.8266093768954716
 31
0.0
  0
LINE
  5
42D
330
18
100
AcDbEntity
  8
TEXT
100
AcDbLine
 10
0.1699915963663345
 20
-0.7898803320995809
 30
0.0
 11
0.1699915963663345
 21
-0.7623326822387062
 31
0.0
  0
ARC
  5
42E
330
18
100
AcDbEntity
  8
TEXT
100
AcDbCircle
 10
0.2011844134294431
 20
-0.7935784095209711
 30
0.0
 40
0.0314112657011332
100
AcDbArc
 50
95.88484768694724
 51
173.2388340632136
  0
ARC
  5
42F
330
18
100
AcDbEntity
  8
TEXT
100
AcDbCircle
 10
0.1932954564898654
 20
-0.8515152521781343
 30
0.0
 40
0.0249058752826653
100
AcDbArc
 50
89.99971217465335
 51
179.9999999999985
  0
LINE
  5
430
330
18
100
AcDbEntity
  8
TEXT
100
AcDbLine
 10
0.1060946900668336
 20
-0.7623326822387062
 30
0.0
 11
0.1060946900668336
 21
-0.8675446607921335
 31
0.0
  0
LINE
  5
431
330
18
100
AcDbEntity
  8
TEXT
100
AcDbLine
 10
0.1699915963663345
 20
-0.7623326822387062
 30
0.0
 11
0.1060946900668336
 21
-0.7623326822387062
 31
0.0
  0
LINE
  5
432
330
18
100
AcDbEntity
  8
TEXT
100
AcDbLine
 10
0.3343216221010499
 20
-0.8972261467510369
 30
0.0
 11
0.4102251553125145
 21
-1.028805715227217
 31
0.0
  0
LINE
  5
433
330
18
100
AcDbEntity
  8
TEXT
100
AcDbLine
 10
0.3343216221010499
 20
-1.028805715227217
 30
0.0
 11
0.3343216221010499
 21
-0.8972261467510369
 31
0.0
  0
LINE
  5
434
330
18
100
AcDbEntity
  8
TEXT
100
AcDbLine
 10
0.4868035276887204
 20
-1.028805715227217
 30
0.0
 11
0.39131130432511
 21
-0.8722259251796797
 31
0.0
  0
LINE
  5
435
330
18
100
AcDbEntity
  8
TEXT
100
AcDbLine
 10
0.4102251553125145
 20
-1.028805715227217
 30
0.0
 11
0.4868035276887204
 21
-1.028805715227217
 31
0.0
  0
LINE
  5
436
330
18
100
AcDbEntity
  8
TEXT
100
AcDbLine
 10
0.3337784290052026
 20
-0.8381980086502442
 30
0.0
 11
0.3337784290052026
 21
-0.6968684764711055
 31
0.0
  0
LINE
  5
437
330
18
100
AcDbEntity
  8
TEXT
100
AcDbLine
 10
0.4558684202908152
 20
-0.7623326822387062
 30
0.0
 11
0.3808765875611888
 21
-0.7623326822387062
 31
0.0
  0
LINE
  5
438
330
18
100
AcDbEntity
  8
TEXT
100
AcDbLine
 10
0.39131130432511
 20
-0.8722259251796797
 30
0.0
 11
0.4558684202908152
 21
-0.7623326822387062
 31
0.0
  0
LINE
  5
439
330
18
100
AcDbEntity
  8
TEXT
100
AcDbLine
 10
0.380876587561187
 20
-0.7623326822387062
 30
0.0
 11
0.3337784290052026
 21
-0.8381980086502442
 31
0.0
  0
ENDSEC
  0
SECTION
  2
OBJECTS
  0
DICTIONARY
  5
C
330
0
100
AcDbDictionary
  3
ACAD_GROUP
350
D
  3
ACAD_LAYOUT
350
43E
  3
ACAD_MLINESTYLE
350
E
  3
ACAD_PLOTSETTINGS
350
43F
  3
ACAD_PLOTSTYLENAME
350
43C
  3
ACDBHEADERROUNDTRIPXREC
350
44A
  3
ACDBVARIABLEDICTIONARY
350
447
  0
DICTIONARY
  5
46C
330
18
100
AcDbDictionary
280
     1
  3
ACAD_LAYOUTSELFREF
360
46D
  0
DICTIONARY
  5
46A
330
15
100
AcDbDictionary
280
     1
  3
ACAD_LAYOUTSELFREF
360
46B
  0
DICTIONARY
  5
D
102
{ACAD_REACTORS
330
C
102
}
330
C
100
AcDbDictionary
  0
DICTIONARY
  5
43E
102
{ACAD_REACTORS
330
C
102
}
330
C
100
AcDbDictionary
  0
DICTIONARY
  5
E
102
{ACAD_REACTORS
330
C
102
}
330
C
100
AcDbDictionary
  3
STANDARD
350
1B
  0
DICTIONARY
  5
43F
102
{ACAD_REACTORS
330
C
102
}
330
C
100
AcDbDictionary
  0
ACDBDICTIONARYWDFLT
  5
43C
102
{ACAD_REACTORS
330
C
102
}
330
C
100
AcDbDictionary
281
     1
  3
Normal
350
43D
100
AcDbDictionaryWithDefault
340
43D
  0
DICTIONARY
  5
44A
102
{ACAD_REACTORS
330
C
102
}
330
C
100
AcDbDictionary
  3
CEPSNTYPE
350
454
  3
FINGERPRINTGUID
350
455
  3
HYPERLINKBASE
350
44D
  3
INSUNITS
350
453
  3
LAYOUTDICT
350
44F
  3
LWETCUNION
350
452
  3
PLOTSETDICT
350
450
  3
PLOTSTYLNAMDICT
350
451
  3
PSVPSCALE
350
457
  3
PUCSBASE
350
45A
  3
PUCSORGBACK
350
460
  3
PUCSORGBOTTOM
350
45C
  3
PUCSORGFRONT
350
45F
  3
PUCSORGLEFT
350
45D
  3
PUCSORGRIGHT
350
45E
  3
PUCSORGTOP
350
45B
  3
PUCSORTHOREF
350
458
  3
PUCSORTHOVIEW
350
459
  3
STYLESHEET
350
44E
  3
TSTACKALIGN
350
44B
  3
TSTACKSIZE
350
44C
  3
UCSBASE
350
463
  3
UCSORGBACK
350
469
  3
UCSORGBOTTOM
350
465
  3
UCSORGFRONT
350
468
  3
UCSORGLEFT
350
466
  3
UCSORGRIGHT
350
467
  3
UCSORGTOP
350
464
  3
UCSORTHOREF
350
461
  3
UCSORTHOVIEW
350
462
  3
VERSIONGUID
350
456
  0
DICTIONARY
  5
447
102
{ACAD_REACTORS
330
C
102
}
330
C
100
AcDbDictionary
  3
DIMASSOC
350
448
  0
XRECORD
  5
46D
102
{ACAD_REACTORS
330
46C
102
}
330
46C
100
AcDbXrecord
340
18
  0
XRECORD
  5
46B
102
{ACAD_REACTORS
330
46A
102
}
330
46A
100
AcDbXrecord
340
15
  0
MLINESTYLE
  5
1B
102
{ACAD_REACTORS
330
E
102
}
330
E
100
AcDbMlineStyle
  2
STANDARD
 70
     0
  3

 62
     0
 51
90.0
 52
90.0
 71
     2
 49
0.5
 62
   256
  6
BYLAYER
 49
-0.5
 62
   256
  6
BYLAYER
  0
ACDBPLACEHOLDER
  5
43D
102
{ACAD_REACTORS
330
43C
102
}
330
43C
100
AcDbPlaceHolder
280
     0
  0
XRECORD
  5
454
102
{ACAD_REACTORS
330
44A
102
}
330
44A
100
AcDbXrecord
 90
        0
  0
XRECORD
  5
455
102
{ACAD_REACTORS
330
44A
102
}
330
44A
100
AcDbXrecord
  1
{FC3D3A40-8DB9-11D6-88E6-0090279574E7}
  0
XRECORD
  5
44D
102
{ACAD_REACTORS
330
44A
102
}
330
44A
100
AcDbXrecord
  1

  0
XRECORD
  5
453
102
{ACAD_REACTORS
330
44A
102
}
330
44A
100
AcDbXrecord
 90
        0
  0
XRECORD
  5
44F
102
{ACAD_REACTORS
330
44A
102
}
330
44A
100
AcDbXrecord
340
43E
  0
XRECORD
  5
452
102
{ACAD_REACTORS
330
44A
102
}
330
44A
100
AcDbXrecord
 90
    14877
  0
XRECORD
  5
450
102
{ACAD_REACTORS
330
44A
102
}
330
44A
100
AcDbXrecord
340
43F
  0
XRECORD
  5
451
102
{ACAD_REACTORS
330
44A
102
}
330
44A
100
AcDbXrecord
340
43C
  0
XRECORD
  5
457
102
{ACAD_REACTORS
330
44A
102
}
330
44A
100
AcDbXrecord
 40
0.0
  0
XRECORD
  5
45A
102
{ACAD_REACTORS
330
44A
102
}
330
44A
100
AcDbXrecord
340
0
  0
XRECORD
  5
460
102
{ACAD_REACTORS
330
44A
102
}
330
44A
100
AcDbXrecord
 10
0.0
 20
0.0
 30
0.0
  0
XRECORD
  5
45C
102
{ACAD_REACTORS
330
44A
102
}
330
44A
100
AcDbXrecord
 10
0.0
 20
0.0
 30
0.0
  0
XRECORD
  5
45F
102
{ACAD_REACTORS
330
44A
102
}
330
44A
100
AcDbXrecord
 10
0.0
 20
0.0
 30
0.0
  0
XRECORD
  5
45D
102
{ACAD_REACTORS
330
44A
102
}
330
44A
100
AcDbXrecord
 10
0.0
 20
0.0
 30
0.0
  0
XRECORD
  5
45E
102
{ACAD_REACTORS
330
44A
102
}
330
44A
100
AcDbXrecord
 10
0.0
 20
0.0
 30
0.0
  0
XRECORD
  5
45B
102
{ACAD_REACTORS
330
44A
102
}
330
44A
100
AcDbXrecord
 10
0.0
 20
0.0
 30
0.0
  0
XRECORD
  5
458
102
{ACAD_REACTORS
330
44A
102
}
330
44A
100
AcDbXrecord
340
0
  0
XRECORD
  5
459
102
{ACAD_REACTORS
330
44A
102
}
330
44A
100
AcDbXrecord
 70
     0
  0
XRECORD
  5
44E
102
{ACAD_REACTORS
330
44A
102
}
330
44A
100
AcDbXrecord
  1

  0
XRECORD
  5
44B
102
{ACAD_REACTORS
330
44A
102
}
330
44A
100
AcDbXrecord
 90
        1
  0
XRECORD
  5
44C
102
{ACAD_REACTORS
330
44A
102
}
330
44A
100
AcDbXrecord
 90
       70
  0
XRECORD
  5
463
102
{ACAD_REACTORS
330
44A
102
}
330
44A
100
AcDbXrecord
340
0
  0
XRECORD
  5
469
102
{ACAD_REACTORS
330
44A
102
}
330
44A
100
AcDbXrecord
 10
0.0
 20
0.0
 30
0.0
  0
XRECORD
  5
465
102
{ACAD_REACTORS
330
44A
102
}
330
44A
100
AcDbXrecord
 10
0.0
 20
0.0
 30
0.0
  0
XRECORD
  5
468
102
{ACAD_REACTORS
330
44A
102
}
330
44A
100
AcDbXrecord
 10
0.0
 20
0.0
 30
0.0
  0
XRECORD
  5
466
102
{ACAD_REACTORS
330
44A
102
}
330
44A
100
AcDbXrecord
 10
0.0
 20
0.0
 30
0.0
  0
XRECORD
  5
467
102
{ACAD_REACTORS
330
44A
102
}
330
44A
100
AcDbXrecord
 10
0.0
 20
0.0
 30
0.0
  0
XRECORD
  5
464
102
{ACAD_REACTORS
330
44A
102
}
330
44A
100
AcDbXrecord
 10
0.0
 20
0.0
 30
0.0
  0
XRECORD
  5
461
102
{ACAD_REACTORS
330
44A
102
}
330
44A
100
AcDbXrecord
340
0
  0
XRECORD
  5
462
102
{ACAD_REACTORS
330
44A
102
}
330
44A
100
AcDbXrecord
 70
     0
  0
XRECORD
  5
456
102
{ACAD_REACTORS
330
44A
102
}
330
44A
100
AcDbXrecord
  1
{FC3D3A42-8DB9-11D6-88E6-0090279574E7}
  0
DICTIONARYVAR
  5
448
102
{ACAD_REACTORS
330
447
102
}
330
447
100
DictionaryVariables
280
     0
  1
1
  0
ENDSEC
  0
EOF
