  0
SECTION
  2
HEADER
  9
$ACADVER
  1
AC1014
  9
$ACADMAINTVER
 70
     9
  9
$DWGCODEPAGE
  3
ANSI_1252
  9
$INSBASE
 10
0.0
 20
0.0
 30
0.0
  9
$EXTMIN
 10
-0.9692755186938565
 20
-0.1069208640562331
 30
0.0
  9
$EXTMAX
 10
2.515943803053271
 20
1.763312387044249
 30
0.0
  9
$LIMMIN
 10
0.0
 20
0.0
  9
$LIMMAX
 10
8.5
 20
11.0
  9
$ORTHOMODE
 70
     0
  9
$REGENMODE
 70
     1
  9
$FILLMODE
 70
     1
  9
$QTEXTMODE
 70
     0
  9
$MIRRTEXT
 70
     0
  9
$DRAGMODE
 70
     2
  9
$LTSCALE
 40
1.0
  9
$OSMODE
 70
    39
  9
$ATTMODE
 70
     1
  9
$TEXTSIZE
 40
0.125
  9
$TRACEWID
 40
0.05
  9
$TEXTSTYLE
  7
ROMANS
  9
$CLAYER
  8
DIM
  9
$CELTYPE
  6
BYLAYER
  9
$CECOLOR
 62
   256
  9
$CELTSCALE
 40
1.0
  9
$DELOBJ
 70
     1
  9
$DISPSILH
 70
     1
  9
$DIMSCALE
 40
1.0
  9
$DIMASZ
 40
0.125
  9
$DIMEXO
 40
0.125
  9
$DIMDLI
 40
0.375
  9
$DIMRND
 40
0.0
  9
$DIMDLE
 40
0.0
  9
$DIMEXE
 40
0.125
  9
$DIMTP
 40
0.024
  9
$DIMTM
 40
0.0
  9
$DIMTXT
 40
0.125
  9
$DIMCEN
 40
-0.125
  9
$DIMTSZ
 40
0.0
  9
$DIMTOL
 70
     0
  9
$DIMLIM
 70
     0
  9
$DIMTIH
 70
     1
  9
$DIMTOH
 70
     1
  9
$DIMSE1
 70
     0
  9
$DIMSE2
 70
     0
  9
$DIMTAD
 70
     0
  9
$DIMZIN
 70
     4
  9
$DIMBLK
  1

  9
$DIMASO
 70
     1
  9
$DIMSHO
 70
     1
  9
$DIMPOST
  1

  9
$DIMAPOST
  1

  9
$DIMALT
 70
     0
  9
$DIMALTD
 70
     2
  9
$DIMALTF
 40
25.4
  9
$DIMLFAC
 40
0.5
  9
$DIMTOFL
 70
     0
  9
$DIMTVP
 40
0.0
  9
$DIMTIX
 70
     1
  9
$DIMSOXD
 70
     0
  9
$DIMSAH
 70
     0
  9
$DIMBLK1
  1

  9
$DIMBLK2
  1

  9
$DIMSTYLE
  2
STANDARD
  9
$DIMCLRD
 70
     0
  9
$DIMCLRE
 70
     0
  9
$DIMCLRT
 70
     0
  9
$DIMTFAC
 40
1.0
  9
$DIMGAP
 40
0.09
  9
$DIMJUST
 70
     0
  9
$DIMSD1
 70
     0
  9
$DIMSD2
 70
     0
  9
$DIMTOLJ
 70
     1
  9
$DIMTZIN
 70
     0
  9
$DIMALTZ
 70
     0
  9
$DIMALTTZ
 70
     0
  9
$DIMFIT
 70
     3
  9
$DIMUPT
 70
     0
  9
$DIMUNIT
 70
     2
  9
$DIMDEC
 70
     3
  9
$DIMTDEC
 70
     4
  9
$DIMALTU
 70
     2
  9
$DIMALTTD
 70
     2
  9
$DIMTXSTY
  7
ROMANS
  9
$DIMAUNIT
 70
     0
  9
$LUNITS
 70
     2
  9
$LUPREC
 70
     5
  9
$SKETCHINC
 40
0.1
  9
$FILLETRAD
 40
0.0
  9
$AUNITS
 70
     0
  9
$AUPREC
 70
     0
  9
$MENU
  1
ACAD
  9
$ELEVATION
 40
0.0
  9
$PELEVATION
 40
0.0
  9
$THICKNESS
 40
0.0
  9
$LIMCHECK
 70
     0
  9
$BLIPMODE
 70
     0
  9
$CHAMFERA
 40
0.0
  9
$CHAMFERB
 40
0.0
  9
$CHAMFERC
 40
0.0
  9
$CHAMFERD
 40
0.0
  9
$SKPOLY
 70
     0
  9
$TDCREATE
 40
2448379.390384143
  9
$TDUPDATE
 40
2452458.325138796
  9
$TDINDWG
 40
0.1076334722
  9
$TDUSRTIMER
 40
0.1076334722
  9
$USRTIMER
 70
     1
  9
$ANGBASE
 50
0.0
  9
$ANGDIR
 70
     0
  9
$PDMODE
 70
     0
  9
$PDSIZE
 40
0.0
  9
$PLINEWID
 40
0.0
  9
$COORDS
 70
     2
  9
$SPLFRAME
 70
     0
  9
$SPLINETYPE
 70
     6
  9
$SPLINESEGS
 70
     8
  9
$ATTDIA
 70
     0
  9
$ATTREQ
 70
     1
  9
$HANDLING
 70
 22529
  9
$HANDSEED
  5
407
  9
$SURFTAB1
 70
     6
  9
$SURFTAB2
 70
     6
  9
$SURFTYPE
 70
     6
  9
$SURFU
 70
     6
  9
$SURFV
 70
     6
  9
$UCSNAME
  2

  9
$UCSORG
 10
0.0
 20
0.0
 30
0.0
  9
$UCSXDIR
 10
1.0
 20
0.0
 30
0.0
  9
$UCSYDIR
 10
0.0
 20
1.0
 30
0.0
  9
$PUCSNAME
  2

  9
$PUCSORG
 10
0.0
 20
0.0
 30
0.0
  9
$PUCSXDIR
 10
1.0
 20
0.0
 30
0.0
  9
$PUCSYDIR
 10
0.0
 20
1.0
 30
0.0
  9
$USERI1
 70
     0
  9
$USERI2
 70
     0
  9
$USERI3
 70
     0
  9
$USERI4
 70
     0
  9
$USERI5
 70
     0
  9
$USERR1
 40
0.0
  9
$USERR2
 40
0.0
  9
$USERR3
 40
0.0
  9
$USERR4
 40
0.0
  9
$USERR5
 40
0.0
  9
$WORLDVIEW
 70
     1
  9
$SHADEDGE
 70
     3
  9
$SHADEDIF
 70
    70
  9
$TILEMODE
 70
     1
  9
$MAXACTVP
 70
    16
  9
$PINSBASE
 10
0.0
 20
0.0
 30
0.0
  9
$PLIMCHECK
 70
     0
  9
$PEXTMIN
 10
1.000000000000000E+20
 20
1.000000000000000E+20
 30
1.000000000000000E+20
  9
$PEXTMAX
 10
-1.000000000000000E+20
 20
-1.000000000000000E+20
 30
-1.000000000000000E+20
  9
$PLIMMIN
 10
0.0
 20
0.0
  9
$PLIMMAX
 10
12.0
 20
9.0
  9
$UNITMODE
 70
     0
  9
$VISRETAIN
 70
     0
  9
$PLINEGEN
 70
     1
  9
$PSLTSCALE
 70
     0
  9
$TREEDEPTH
 70
  3020
  9
$PICKSTYLE
 70
     1
  9
$CMLSTYLE
  2
STANDARD
  9
$CMLJUST
 70
     0
  9
$CMLSCALE
 40
1.0
  9
$PROXYGRAPHICS
 70
     1
  9
$MEASUREMENT
 70
     0
  0
ENDSEC
  0
SECTION
  2
CLASSES
  0
CLASS
  1
LWPOLYLINE
  2
AcDbPolyline
  3
AutoCAD 2000
 90
        0
280
     0
281
     1
  0
CLASS
  1
ACDBDICTIONARYWDFLT
  2
AcDbDictionaryWithDefault
  3
AutoCAD 2000
 90
        0
280
     0
281
     0
  0
CLASS
  1
ACDBPLACEHOLDER
  2
AcDbPlaceHolder
  3
AutoCAD 2000
 90
        0
280
     0
281
     0
  0
CLASS
  1
LAYOUT
  2
AcDbLayout
  3
AutoCAD 2000
 90
        0
280
     0
281
     0
  0
CLASS
  1
DICTIONARYVAR
  2
AcDbDictionaryVar
  3
AutoCAD 2000
 90
        0
280
     0
281
     0
  0
CLASS
  1
LONG_TRANSACTION
  2
AcDbLongTransaction
  3
AutoCAD 2000
 90
        0
280
     0
281
     0
  0
CLASS
  1
LWPOLYLINE
  2
AcDbPolyline
  3
AutoCAD 2000
 90
        0
280
     0
281
     1
  0
CLASS
  1
HATCH
  2
AcDbHatch
  3
AutoCAD 2000
 90
        0
280
     0
281
     1
  0
CLASS
  1
XRECORD
  2
AcDbXrecord
  3
AutoCAD 2000
 90
        0
280
     0
281
     0
  0
ENDSEC
  0
SECTION
  2
TABLES
  0
TABLE
  2
VPORT
  5
8
330
0
100
AcDbSymbolTable
 70
     2
  0
VPORT
  5
3E2
330
8
100
AcDbSymbolTableRecord
100
AcDbViewportTableRecord
  2
*ACTIVE
 70
     0
 10
0.0
 20
0.0
 11
1.0
 21
1.0
 12
3.695675035729938
 22
0.8281960308132045
 13
0.0
 23
0.0
 14
0.015625
 24
0.015625
 15
0.0
 25
0.0
 16
0.0
 26
0.0
 36
1.0
 17
0.0
 27
0.0
 37
0.0
 40
2.163783105556757
 41
4.320930232558139
 42
50.0
 43
0.0
 44
0.0
 50
0.0
 51
0.0
 71
     0
 72
  2000
 73
     1
 74
     1
 75
     0
 76
     0
 77
     0
 78
     0
  0
ENDTAB
  0
TABLE
  2
LTYPE
  5
5
330
0
100
AcDbSymbolTable
 70
     1
  0
LTYPE
  5
12
330
5
100
AcDbSymbolTableRecord
100
AcDbLinetypeTableRecord
  2
BYBLOCK
 70
     0
  3

 72
    65
 73
     0
 40
0.0
  0
LTYPE
  5
13
330
5
100
AcDbSymbolTableRecord
100
AcDbLinetypeTableRecord
  2
BYLAYER
 70
     0
  3

 72
    65
 73
     0
 40
0.0
  0
LTYPE
  5
14
330
5
100
AcDbSymbolTableRecord
100
AcDbLinetypeTableRecord
  2
CONTINUOUS
 70
     0
  3
Solid line
 72
    65
 73
     0
 40
0.0
  0
ENDTAB
  0
TABLE
  2
LAYER
  5
2
330
0
100
AcDbSymbolTable
 70
     3
  0
LAYER
  5
F
330
2
100
AcDbSymbolTableRecord
100
AcDbLayerTableRecord
  2
0
 70
     0
 62
     7
  6
CONTINUOUS
  0
LAYER
  5
24
330
2
100
AcDbSymbolTableRecord
100
AcDbLayerTableRecord
  2
DIM
 70
     0
 62
     4
  6
CONTINUOUS
  0
LAYER
  5
25
330
2
100
AcDbSymbolTableRecord
100
AcDbLayerTableRecord
  2
TEXT
 70
     0
 62
     3
  6
CONTINUOUS
  0
ENDTAB
  0
TABLE
  2
STYLE
  5
3
330
0
100
AcDbSymbolTable
 70
     3
  0
STYLE
  5
10
330
3
100
AcDbSymbolTableRecord
100
AcDbTextStyleTableRecord
  2
STANDARD
 70
     0
 40
0.0
 41
1.0
 50
0.0
 71
     0
 42
0.125
  3
txt
  4

  0
STYLE
  5
2CF
330
3
100
AcDbSymbolTableRecord
100
AcDbTextStyleTableRecord
  2
ITALICC
 70
     0
 40
0.0
 41
1.0
 50
0.0
 71
     0
 42
0.125
  3
italicc
  4

  0
STYLE
  5
3DE
330
3
100
AcDbSymbolTableRecord
100
AcDbTextStyleTableRecord
  2
ROMANS
 70
     0
 40
0.0
 41
1.0
 50
0.0
 71
     0
 42
0.125
  3
romans.shx
  4

  0
ENDTAB
  0
TABLE
  2
VIEW
  5
6
330
0
100
AcDbSymbolTable
 70
     0
  0
ENDTAB
  0
TABLE
  2
UCS
  5
7
330
0
100
AcDbSymbolTable
 70
     0
  0
ENDTAB
  0
TABLE
  2
APPID
  5
9
330
0
100
AcDbSymbolTable
 70
     1
  0
APPID
  5
11
330
9
100
AcDbSymbolTableRecord
100
AcDbRegAppTableRecord
  2
ACAD
 70
     0
  0
ENDTAB
  0
TABLE
  2
DIMSTYLE
  5
A
330
0
100
AcDbSymbolTable
 70
     1
  0
DIMSTYLE
105
2C7
330
A
100
AcDbSymbolTableRecord
100
AcDbDimStyleTableRecord
  2
STANDARD
 70
     0
  3

  4

  5

  6

  7

 40
1.0
 41
0.18
 42
0.0625
 43
0.38
 44
0.18
 45
0.0
 46
0.0
 47
0.0
 48
0.0
140
0.18
141
0.09
142
0.0
143
25.4
144
1.0
145
0.0
146
1.0
147
0.09
 71
     0
 72
     0
 73
     1
 74
     1
 75
     0
 76
     0
 77
     0
 78
     0
170
     0
171
     2
172
     0
173
     0
174
     0
175
     0
176
     0
177
     0
178
     0
270
     2
271
     4
272
     4
273
     2
274
     2
340
10
275
     0
280
     0
281
     0
282
     0
283
     1
284
     0
285
     0
286
     0
287
     3
288
     0
  0
ENDTAB
  0
TABLE
  2
BLOCK_RECORD
  5
1
330
0
100
AcDbSymbolTable
 70
     0
  0
BLOCK_RECORD
  5
18
102
{ACAD_XDICTIONARY
360
405
102
}
330
1
100
AcDbSymbolTableRecord
100
AcDbBlockTableRecord
  2
*MODEL_SPACE
  0
BLOCK_RECORD
  5
15
102
{ACAD_XDICTIONARY
360
403
102
}
330
1
100
AcDbSymbolTableRecord
100
AcDbBlockTableRecord
  2
*PAPER_SPACE
  0
ENDTAB
  0
ENDSEC
  0
SECTION
  2
BLOCKS
  0
BLOCK
  5
2B
330
18
100
AcDbEntity
  8
0
100
AcDbBlockBegin
  2
*MODEL_SPACE
 70
     0
 10
0.0
 20
0.0
 30
0.0
  3
*MODEL_SPACE
  1

  0
ENDBLK
  5
2C
330
18
100
AcDbEntity
  8
0
100
AcDbBlockEnd
  0
BLOCK
  5
29
330
15
100
AcDbEntity
 67
     1
  8
0
100
AcDbBlockBegin
  2
*PAPER_SPACE
 70
     0
 10
0.0
 20
0.0
 30
0.0
  3
*PAPER_SPACE
  1

  0
ENDBLK
  5
2A
330
15
100
AcDbEntity
 67
     1
  8
0
100
AcDbBlockEnd
  0
ENDSEC
  0
SECTION
  2
ENTITIES
  0
LWPOLYLINE
  5
3A
330
18
100
AcDbEntity
  8
0
100
AcDbPolyline
 90
       57
 70
     1
 43
0.0
 10
0.6854369414704351
 20
0.8662914805964485
 10
0.6854369414704351
 20
0.8350414805964483
 42
-0.4142135623730951
 10
0.6698119414704351
 20
0.8194164805964483
 10
0.5044994414704354
 20
0.8194164805964483
 10
0.5044994414704354
 20
0.7806224659662267
 42
-0.9190781160901194
 10
0.4574234802877118
 20
0.7766452844447852
 42
-0.0664712077805819
 10
0.4479430788548538
 20
1.041190674144835
 42
-0.3861012882470092
 10
0.4790464026865906
 20
1.069416480596448
 10
0.5950815133322438
 20
1.069416480596448
 42
0.4741618169462893
 10
0.6257069749251274
 20
1.10688287844591
 42
-0.0542393114510873
 10
0.5686400458334205
 20
1.726181590486557
 42
-0.4093936338556289
 10
0.5998858001338228
 20
1.756916480596448
 10
1.099113082807047
 20
1.756916480596448
 42
-0.4093936338556289
 10
1.130358837107449
 20
1.726181590486557
 42
-0.0542393114510872
 10
1.073291908015742
 20
1.10688287844591
 42
0.4741618169462893
 10
1.103917369608626
 20
1.069416480596448
 10
1.219952480254279
 20
1.069416480596448
 42
-0.3861012882470092
 10
1.251055804086016
 20
1.041190674144835
 42
-0.0664712077805819
 10
1.241575402653158
 20
0.7766452844447852
 42
-0.9190781160901197
 10
1.194499441470434
 20
0.7806224659662267
 10
1.194499441470434
 20
0.8194164805964483
 10
1.029186941470435
 20
0.8194164805964483
 42
-0.4142135623730951
 10
1.013561941470435
 20
0.8350414805964483
 10
1.013561941470435
 20
0.8662914805964485
 42
-0.4142135623730951
 10
1.029186941470435
 20
0.8819164805964485
 10
1.194499441470434
 20
0.8819164805964483
 10
1.194499441470434
 20
1.006916480596448
 10
1.029186941470435
 20
1.006916480596448
 42
-0.4142135623730951
 10
1.013561941470435
 20
1.022541480596448
 10
1.013561941470435
 20
1.147541480596448
 42
0.4142135623730951
 10
0.9979369414704351
 20
1.163166480596448
 10
0.9744994414704351
 20
1.163166480596448
 42
-0.4142135623730951
 10
0.9588744414704351
 20
1.178791480596448
 10
0.9588744414704351
 20
1.212791480596448
 42
-0.414213562373096
 10
0.9744994414704351
 20
1.228416480596448
 10
1.018628773458171
 20
1.228416480596448
 42
0.3692050694888743
 10
1.034063853525142
 20
1.241612709646727
 42
0.0390383655190171
 10
1.068249441470435
 20
1.678791480596448
 42
0.4142135623730951
 10
1.052624441470435
 20
1.694416480596448
 10
0.8594994414704348
 20
1.694416480596448
 10
0.8494994414704351
 20
1.704416480596448
 10
0.8394994414704353
 20
1.694416480596448
 10
0.6463744414704351
 20
1.694416480596448
 42
0.4142135623730951
 10
0.6307494414704351
 20
1.678791480596448
 42
0.0390383655190172
 10
0.6649350294157279
 20
1.241612709646727
 42
0.3692050694888744
 10
0.6803701094826984
 20
1.228416480596448
 10
0.7244994414704351
 20
1.228416480596448
 42
-0.414213562373096
 10
0.7401244414704351
 20
1.212791480596448
 10
0.7401244414704351
 20
1.178791480596448
 42
-0.4142135623730951
 10
0.7244994414704351
 20
1.163166480596448
 10
0.7010619414704351
 20
1.163166480596448
 42
0.4142135623730951
 10
0.6854369414704351
 20
1.147541480596448
 10
0.6854369414704351
 20
1.022541480596448
 42
-0.4142135623730951
 10
0.6698119414704351
 20
1.006916480596448
 10
0.5044994414704354
 20
1.006916480596448
 10
0.5044994414704354
 20
0.8819164805964483
 10
0.6698119414704351
 20
0.8819164805964485
 42
-0.4142135623730951
  0
TEXT
  5
354
330
18
100
AcDbEntity
  8
TEXT
100
AcDbText
 10
0.0207298700570964
 20
0.3510977400263484
 30
0.0
 40
0.125
  1
PART #130026
  7
ITALICC
 72
     1
 11
0.7737060605332866
 21
0.3510977400263484
 31
0.0
100
AcDbText
  0
LWPOLYLINE
  5
355
330
18
100
AcDbEntity
  8
TEXT
100
AcDbPolyline
 90
        3
 70
     0
 43
0.0
 10
0.4046652542570506
 20
0.1710207486632838
 10
0.2863650954410062
 20
0.1710207486632838
 10
0.2863650954410062
 20
0.1438532519023878
 42
-1.960274751411753
  0
LWPOLYLINE
  5
356
330
18
100
AcDbEntity
  8
TEXT
100
AcDbPolyline
 90
        4
 70
     0
 43
0.0
 10
0.3695309037128407
 20
0.0991902648404049
 10
0.3695309037128407
 20
-0.0954522843252308
 10
0.4380091870006986
 20
-0.0954522843252308
 10
0.4380091870006986
 20
-0.0519613393747926
 42
-1.714843617202739
  0
LWPOLYLINE
  5
357
330
18
100
AcDbEntity
  8
TEXT
100
AcDbPolyline
 90
        2
 70
     0
 43
0.0001332181640625
 10
-0.7291497779712018
 20
-0.0687719466492185
 10
-0.7890979517993256
 20
-0.0088237728210929
  0
LWPOLYLINE
  5
358
330
18
100
AcDbEntity
  8
TEXT
100
AcDbPolyline
 90
        3
 70
     0
 43
0.0006660908203125
 10
-0.8157415846118265
 20
-0.0687719466492185
 10
-0.7291497779712018
 20
-0.0687719466492185
 10
-0.7291497779712018
 20
0.0178198599914081
  0
LWPOLYLINE
  5
359
330
18
100
AcDbEntity
  8
TEXT
100
AcDbPolyline
 90
        3
 70
     0
 43
0.0006660908203125
 10
-0.8157415846118265
 20
-0.0954155794617195
 10
-0.7025061451587007
 20
-0.0954155794617195
 10
-0.7025061451587007
 20
0.0178198599914081
  0
LWPOLYLINE
  5
35A
330
18
100
AcDbEntity
  8
TEXT
100
AcDbPolyline
 90
        2
 70
     0
 43
0.0001332181640625
 10
-0.7025061451587007
 20
0.0178198599914081
 10
-0.7757761353930768
 20
0.0278112222960934
  0
LWPOLYLINE
  5
35B
330
18
100
AcDbEntity
  8
TEXT
100
AcDbPolyline
 90
        2
 70
     0
 43
0.0001332181640625
 10
-0.7291497779712018
 20
0.0178198599914081
 10
-0.7890979517993256
 20
0.0278112222960934
  0
LWPOLYLINE
  5
35C
330
18
100
AcDbEntity
  8
TEXT
100
AcDbPolyline
 90
        2
 70
     0
 43
0.0001332181640625
 10
-0.9422988404712029
 20
-0.0687719466492185
 10
-0.8823506666430755
 20
-0.0088237728210929
  0
LWPOLYLINE
  5
35D
330
18
100
AcDbEntity
  8
TEXT
100
AcDbPolyline
 90
        2
 70
     0
 43
0.0001332181640625
 10
-0.9422988404712029
 20
0.0178198599914081
 10
-0.8823506666430755
 20
0.0278112222960934
  0
LWPOLYLINE
  5
35E
330
18
100
AcDbEntity
  8
TEXT
100
AcDbPolyline
 90
        3
 70
     0
 43
0.0006660908203125
 10
-0.9689424732837004
 20
0.0178198599914081
 10
-0.9689424732837004
 20
-0.0954155794617195
 10
-0.8557070338305781
 20
-0.0954155794617195
  0
LWPOLYLINE
  5
35F
330
18
100
AcDbEntity
  8
TEXT
100
AcDbPolyline
 90
        3
 70
     0
 43
0.0006660908203125
 10
-0.9422988404712029
 20
0.0178198599914081
 10
-0.9422988404712029
 20
-0.0687719466492185
 10
-0.8557070338305781
 20
-0.0687719466492185
  0
LWPOLYLINE
  5
360
330
18
100
AcDbEntity
  8
TEXT
100
AcDbPolyline
 90
        5
 70
     0
 43
0.0001332181640625
 10
-0.8457156715258875
 20
-0.0221455892273435
 10
-0.8457156715258875
 20
-0.0088237728210929
 10
-0.8823506666430755
 20
-0.0088237728210929
 10
-0.8823506666430755
 20
0.0278112222960934
 10
-0.8956724830493261
 20
0.0278112222960934
  0
LWPOLYLINE
  5
361
330
18
100
AcDbEntity
  8
TEXT
100
AcDbPolyline
 90
        2
 70
     0
 43
0.0006660908203125
 10
-0.9422988404712029
 20
0.0178198599914081
 10
-0.9689424732837004
 20
0.0178198599914081
  0
LWPOLYLINE
  5
362
330
18
100
AcDbEntity
  8
TEXT
100
AcDbPolyline
 90
        2
 70
     0
 43
0.0001332181640625
 10
-0.8956724830493261
 20
0.0278112222960934
 10
-0.9689424732837004
 20
0.0178198599914081
  0
LWPOLYLINE
  5
363
330
18
100
AcDbEntity
  8
TEXT
100
AcDbPolyline
 90
        2
 70
     0
 43
0.0006660908203125
 10
-0.8557070338305781
 20
-0.0687719466492185
 10
-0.8557070338305781
 20
-0.0954155794617195
  0
LWPOLYLINE
  5
364
330
18
100
AcDbEntity
  8
TEXT
100
AcDbPolyline
 90
        2
 70
     0
 43
0.0001332181640625
 10
-0.8557070338305781
 20
-0.0687719466492185
 10
-0.8457156715258875
 20
-0.0088237728210929
  0
LWPOLYLINE
  5
365
330
18
100
AcDbEntity
  8
TEXT
100
AcDbPolyline
 90
        2
 70
     0
 43
0.0001332181640625
 10
-0.8557070338305781
 20
-0.0954155794617195
 10
-0.8457156715258875
 20
-0.0221455892273435
  0
LWPOLYLINE
  5
366
330
18
100
AcDbEntity
  8
TEXT
100
AcDbPolyline
 90
        2
 70
     0
 43
0.0001332181640625
 10
-0.8157415846118265
 20
-0.0687719466492185
 10
-0.8257329469165153
 20
-0.0088237728210929
  0
LWPOLYLINE
  5
367
330
18
100
AcDbEntity
  8
TEXT
100
AcDbPolyline
 90
        2
 70
     0
 43
0.0001332181640625
 10
-0.8257329469165153
 20
-0.0221455892273435
 10
-0.8157415846118265
 20
-0.0954155794617195
  0
LWPOLYLINE
  5
368
330
18
100
AcDbEntity
  8
TEXT
100
AcDbPolyline
 90
        2
 70
     0
 43
0.0006660908203125
 10
-0.8157415846118265
 20
-0.0687719466492185
 10
-0.8157415846118265
 20
-0.0954155794617195
  0
LWPOLYLINE
  5
369
330
18
100
AcDbEntity
  8
TEXT
100
AcDbPolyline
 90
        5
 70
     0
 43
0.0001332181640625
 10
-0.7757761353930768
 20
0.0278112222960934
 10
-0.7890979517993256
 20
0.0278112222960934
 10
-0.7890979517993256
 20
-0.0088237728210929
 10
-0.8257329469165153
 20
-0.0088237728210929
 10
-0.8257329469165153
 20
-0.0221455892273435
  0
LWPOLYLINE
  5
36A
330
18
100
AcDbEntity
  8
TEXT
100
AcDbPolyline
 90
        2
 70
     0
 43
0.0006660908203125
 10
-0.7291497779712018
 20
0.0178198599914081
 10
-0.7025061451587007
 20
0.0178198599914081
  0
LWPOLYLINE
  5
36B
330
18
100
AcDbEntity
  8
TEXT
100
AcDbPolyline
 90
        3
 70
     0
 43
0.0006660908203125
 10
-0.7025061451587007
 20
0.0577853092101561
 10
-0.7025061451587007
 20
0.1710207486632838
 10
-0.8157415846118265
 20
0.1710207486632838
  0
LWPOLYLINE
  5
36C
330
18
100
AcDbEntity
  8
TEXT
100
AcDbPolyline
 90
        3
 70
     0
 43
0.0006660908203125
 10
-0.7291497779712018
 20
0.0577853092101561
 10
-0.7291497779712018
 20
0.1443771158507827
 10
-0.8157415846118265
 20
0.1443771158507827
  0
LWPOLYLINE
  5
36D
330
18
100
AcDbEntity
  8
TEXT
100
AcDbPolyline
 90
        2
 70
     0
 43
0.0001332181640625
 10
-0.7757761353930768
 20
0.0477939469054674
 10
-0.7025061451587007
 20
0.0577853092101561
  0
LWPOLYLINE
  5
36E
330
18
100
AcDbEntity
  8
TEXT
100
AcDbPolyline
 90
        2
 70
     0
 43
0.0001332181640625
 10
-0.7291497779712018
 20
0.0577853092101561
 10
-0.7890979517993256
 20
0.0477939469054674
  0
LWPOLYLINE
  5
36F
330
18
100
AcDbEntity
  8
TEXT
100
AcDbPolyline
 90
        2
 70
     0
 43
0.0001332181640625
 10
-0.7291497779712018
 20
0.1443771158507827
 10
-0.7890979517993256
 20
0.0844289420226572
  0
LWPOLYLINE
  5
370
330
18
100
AcDbEntity
  8
TEXT
100
AcDbPolyline
 90
        2
 70
     0
 43
0.0001332181640625
 10
-0.9422988404712029
 20
0.1443771158507827
 10
-0.8823506666430773
 20
0.0844289420226572
  0
LWPOLYLINE
  5
371
330
18
100
AcDbEntity
  8
TEXT
100
AcDbPolyline
 90
        2
 70
     0
 43
0.0001332181640625
 10
-0.9422988404712029
 20
0.0577853092101561
 10
-0.8823506666430773
 20
0.0477939469054674
  0
LWPOLYLINE
  5
372
330
18
100
AcDbEntity
  8
TEXT
100
AcDbPolyline
 90
        3
 70
     0
 43
0.0006660908203125
 10
-0.8557070338305781
 20
0.1710207486632838
 10
-0.9689424732837004
 20
0.1710207486632838
 10
-0.9689424732837004
 20
0.0577853092101561
  0
LWPOLYLINE
  5
373
330
18
100
AcDbEntity
  8
TEXT
100
AcDbPolyline
 90
        3
 70
     0
 43
0.0006660908203125
 10
-0.8557070338305781
 20
0.1443771158507827
 10
-0.9422988404712029
 20
0.1443771158507827
 10
-0.9422988404712029
 20
0.0577853092101561
  0
LWPOLYLINE
  5
374
330
18
100
AcDbEntity
  8
TEXT
100
AcDbPolyline
 90
        5
 70
     0
 43
0.0001332181640625
 10
-0.8956724830493261
 20
0.0477939469054674
 10
-0.8823506666430773
 20
0.0477939469054674
 10
-0.8823506666430773
 20
0.0844289420226572
 10
-0.8457156715258875
 20
0.0844289420226572
 10
-0.8457156715258875
 20
0.0977507584289041
  0
LWPOLYLINE
  5
375
330
18
100
AcDbEntity
  8
TEXT
100
AcDbPolyline
 90
        2
 70
     0
 43
0.0001332181640625
 10
-0.9689424732837004
 20
0.0577853092101561
 10
-0.8956724830493261
 20
0.0477939469054674
  0
LWPOLYLINE
  5
376
330
18
100
AcDbEntity
  8
TEXT
100
AcDbPolyline
 90
        2
 70
     0
 43
0.0006660908203125
 10
-0.9422988404712029
 20
0.0577853092101561
 10
-0.9689424732837004
 20
0.0577853092101561
  0
LWPOLYLINE
  5
377
330
18
100
AcDbEntity
  8
TEXT
100
AcDbPolyline
 90
        2
 70
     0
 43
0.0006660908203125
 10
-0.8557070338305781
 20
0.1443771158507827
 10
-0.8557070338305781
 20
0.1710207486632838
  0
LWPOLYLINE
  5
378
330
18
100
AcDbEntity
  8
TEXT
100
AcDbPolyline
 90
        2
 70
     0
 43
0.0001332181640625
 10
-0.8457156715258875
 20
0.0977507584289041
 10
-0.8557070338305781
 20
0.1710207486632838
  0
LWPOLYLINE
  5
379
330
18
100
AcDbEntity
  8
TEXT
100
AcDbPolyline
 90
        2
 70
     0
 43
0.0001332181640625
 10
-0.8557070338305781
 20
0.1443771158507827
 10
-0.8457156715258875
 20
0.0844289420226572
  0
LWPOLYLINE
  5
37A
330
18
100
AcDbEntity
  8
TEXT
100
AcDbPolyline
 90
        5
 70
     0
 43
0.0001332181640625
 10
-0.8257329469165153
 20
0.0977507584289041
 10
-0.8257329469165153
 20
0.0844289420226572
 10
-0.7890979517993256
 20
0.0844289420226572
 10
-0.7890979517993256
 20
0.0477939469054674
 10
-0.7757761353930768
 20
0.0477939469054674
  0
LWPOLYLINE
  5
37B
330
18
100
AcDbEntity
  8
TEXT
100
AcDbPolyline
 90
        2
 70
     0
 43
0.0006660908203125
 10
-0.8157415846118265
 20
0.1443771158507827
 10
-0.8157415846118265
 20
0.1710207486632838
  0
LWPOLYLINE
  5
37C
330
18
100
AcDbEntity
  8
TEXT
100
AcDbPolyline
 90
        2
 70
     0
 43
0.0001332181640625
 10
-0.8157415846118265
 20
0.1443771158507827
 10
-0.8257329469165153
 20
0.0844289420226572
  0
LWPOLYLINE
  5
37D
330
18
100
AcDbEntity
  8
TEXT
100
AcDbPolyline
 90
        2
 70
     0
 43
0.0001332181640625
 10
-0.8157415846118265
 20
0.1710207486632838
 10
-0.8257329469165153
 20
0.0977507584289041
  0
LWPOLYLINE
  5
37E
330
18
100
AcDbEntity
  8
TEXT
100
AcDbPolyline
 90
        2
 70
     0
 43
0.0006660908203125
 10
-0.7291497779712018
 20
0.0577853092101561
 10
-0.7025061451587007
 20
0.0577853092101561
  0
LINE
  5
37F
330
18
100
AcDbEntity
  8
TEXT
100
AcDbLine
 10
-0.0810259305035137
 20
-0.0754937782202179
 30
0.0
 11
0.0162737755899309
 21
0.0888564327150503
 31
0.0
  0
LINE
  5
380
330
18
100
AcDbEntity
  8
TEXT
100
AcDbLine
 10
-0.0714256935065594
 20
0.0701487525501596
 30
0.0
 11
-0.1300560145384972
 21
0.1710207486632802
 31
0.0
  0
LINE
  5
381
330
18
100
AcDbEntity
  8
TEXT
100
AcDbLine
 10
-0.2654863542817045
 20
0.1067440540065148
 30
0.0
 11
-0.2654863542817045
 21
-0.035659892987181
 31
0.0
  0
LWPOLYLINE
  5
382
330
18
100
AcDbEntity
  8
TEXT
100
AcDbPolyline
 90
        6
 70
     1
 43
0.0
 10
-0.1690759432264492
 20
0.1067440540065148
 10
-0.1993925374466574
 20
0.1067440540065148
 10
-0.1993925374466574
 20
-0.0163669440483796
 42
0.407328721240804
 10
-0.187848886285181
 20
-0.0281858587247657
 10
-0.1272271872404502
 20
-0.0281858587247657
 10
-0.1097618468331323
 20
0.0046263703187135
  0
ARC
  5
383
330
18
100
AcDbEntity
  8
TEXT
100
AcDbCircle
 10
-0.4376293384249231
 20
0.0889332892167785
 30
0.0
 40
0.0820874594465043
100
AcDbArc
 50
90.0
 51
270.0
  0
ARC
  5
384
330
18
100
AcDbEntity
  8
TEXT
100
AcDbCircle
 10
-0.3667918720663739
 20
-0.0122564759646737
 30
0.0
 40
0.0831958083605586
100
AcDbArc
 50
270.0
 51
90.0
  0
LINE
  5
385
330
18
100
AcDbEntity
  8
TEXT
100
AcDbLine
 10
-0.4376293384249231
 20
0.0068458297702732
 30
0.0
 11
-0.3618514981600942
 21
0.0068458297702732
 31
0.0
  0
LINE
  5
386
330
18
100
AcDbEntity
  8
TEXT
100
AcDbLine
 10
-0.5197167978714266
 20
-0.0954522843252308
 30
0.0
 11
-0.3667918720663739
 21
-0.0954522843252308
 31
0.0
  0
LINE
  5
387
330
18
100
AcDbEntity
  8
TEXT
100
AcDbLine
 10
-0.3618514981600942
 20
-0.0270952779917915
 30
0.0
 11
-0.5197167978714284
 21
-0.0270952779917915
 31
0.0
  0
LINE
  5
388
330
18
100
AcDbEntity
  8
TEXT
100
AcDbLine
 10
-0.5197167978714284
 20
-0.0270952779917915
 30
0.0
 11
-0.5197167978714266
 21
-0.0954522843252308
 31
0.0
  0
ARC
  5
389
330
18
100
AcDbEntity
  8
TEXT
100
AcDbCircle
 10
-0.3618514981600942
 20
-0.0101247241107574
 30
0.0
 40
0.0169705538810321
100
AcDbArc
 50
270.0
 51
90.0
  0
LINE
  5
38A
330
18
100
AcDbEntity
  8
TEXT
100
AcDbLine
 10
-0.2115997468015989
 20
-0.0954522843252308
 30
0.0
 11
-0.1149594957266045
 21
-0.0951816452269485
 31
0.0
  0
ARC
  5
38B
330
18
100
AcDbEntity
  8
TEXT
100
AcDbCircle
 10
-0.2053703363079524
 20
-0.035659892987181
 30
0.0
 40
0.0601160179737537
100
AcDbArc
 50
180.0000000000003
 51
264.0521544866073
  0
ARC
  5
38C
330
18
100
AcDbEntity
  8
TEXT
100
AcDbCircle
 10
-0.1150694904157277
 20
-0.0559045620515351
 30
0.0
 40
0.0392772371940762
100
AcDbArc
 50
270.1604552698595
 51
330.0831797321295
  0
LINE
  5
38D
330
18
100
AcDbEntity
  8
TEXT
100
AcDbLine
 10
-0.432392008310675
 20
0.1067440540065148
 30
0.0
 11
-0.2654863542817045
 21
0.1067440540065148
 31
0.0
  0
LINE
  5
38E
330
18
100
AcDbEntity
  8
TEXT
100
AcDbLine
 10
-0.2618975855264116
 20
0.1710207486632802
 30
0.0
 11
-0.4376293384249231
 21
0.1710207486632802
 31
0.0
  0
LINE
  5
38F
330
18
100
AcDbEntity
  8
TEXT
100
AcDbLine
 10
-0.3667918720663739
 20
0.0709393323958869
 30
0.0
 11
-0.432392008310675
 21
0.0709393323958869
 31
0.0
  0
ARC
  5
390
330
18
100
AcDbEntity
  8
TEXT
100
AcDbCircle
 10
-0.432392008310675
 20
0.0888416932012026
 30
0.0
 40
0.017902360805315
100
AcDbArc
 50
90.0
 51
270.0
  0
LINE
  5
391
330
18
100
AcDbEntity
  8
TEXT
100
AcDbLine
 10
-0.1300560145384972
 20
0.1710207486632802
 30
0.0
 11
-0.2018549806824046
 21
0.1710207486632802
 31
0.0
  0
LINE
  5
392
330
18
100
AcDbEntity
  8
TEXT
100
AcDbLine
 10
-0.2018549806824046
 20
0.1710207486632802
 30
0.0
 11
-0.2018549806824046
 21
0.2054086662574184
 31
0.0
  0
LINE
  5
393
330
18
100
AcDbEntity
  8
TEXT
100
AcDbLine
 10
-0.2618975855264116
 20
0.2054086662574184
 30
0.0
 11
-0.2618975855264116
 21
0.1710207486632802
 31
0.0
  0
LINE
  5
394
330
18
100
AcDbEntity
  8
TEXT
100
AcDbLine
 10
-0.2018549806824046
 20
0.2054086662574184
 30
0.0
 11
-0.2618975855264116
 21
0.2054086662574184
 31
0.0
  0
LINE
  5
395
330
18
100
AcDbEntity
  8
TEXT
100
AcDbLine
 10
0.3078435176257779
 20
-0.0954522843252308
 30
0.0
 11
0.3078435176257779
 21
0.1067440540065148
 31
0.0
  0
LINE
  5
396
330
18
100
AcDbEntity
  8
TEXT
100
AcDbLine
 10
0.2407854708439379
 20
0.0991902648404049
 30
0.0
 11
0.2407854708439379
 21
-0.0954522843252308
 31
0.0
  0
LINE
  5
397
330
18
100
AcDbEntity
  8
TEXT
100
AcDbLine
 10
0.0842534946590474
 20
-0.0130644462222316
 30
0.0
 11
0.0842534946590474
 21
0.2390322264020908
 31
0.0
  0
LINE
  5
398
330
18
100
AcDbEntity
  8
TEXT
100
AcDbLine
 10
0.1165653487967075
 20
0.1710207486632802
 30
0.0
 11
0.1165653487967075
 21
-0.029843458069128
 31
0.0
  0
LINE
  5
399
330
18
100
AcDbEntity
  8
TEXT
100
AcDbLine
 10
0.1833964018546767
 20
-0.0954522843252308
 30
0.0
 11
0.1833964018546767
 21
0.1067440540065148
 31
0.0
  0
LINE
  5
39A
330
18
100
AcDbEntity
  8
TEXT
100
AcDbLine
 10
0.0162737755899309
 20
0.0888564327150503
 30
0.0
 11
0.0162737755899309
 21
-0.0439009421103061
 31
0.0
  0
LINE
  5
39B
330
18
100
AcDbEntity
  8
TEXT
100
AcDbLine
 10
0.0853930681552422
 20
-0.0954522843252308
 30
0.0
 11
0.1833964018546767
 21
-0.0954522843252308
 31
0.0
  0
LWPOLYLINE
  5
39C
330
18
100
AcDbEntity
  8
TEXT
100
AcDbPolyline
 90
        2
 70
     0
 43
0.0
 10
0.0162737755899301
 20
-0.0439009421103025
 42
0.3318488747599744
 10
0.0853930681552431
 20
-0.0954522843252308
 42
-6.868794160588311
  0
ARC
  5
39D
330
18
100
AcDbEntity
  8
TEXT
100
AcDbCircle
 10
0.0995717119121054
 20
-0.0144616518257026
 30
0.0
 40
0.0153818062434269
100
AcDbArc
 50
174.7883570302258
 51
270.0
  0
LINE
  5
39E
330
18
100
AcDbEntity
  8
TEXT
100
AcDbLine
 10
0.1165653487967075
 20
-0.029843458069128
 30
0.0
 11
0.0995717119121063
 21
-0.029843458069128
 31
0.0
  0
LINE
  5
39F
330
18
100
AcDbEntity
  8
TEXT
100
AcDbLine
 10
0.2407854708439379
 20
-0.0954522843252308
 30
0.0
 11
0.3078435176257779
 21
-0.0954522843252308
 31
0.0
  0
LINE
  5
3A0
330
18
100
AcDbEntity
  8
TEXT
100
AcDbLine
 10
0.2505834047278439
 20
0.1710207486632802
 30
0.0
 11
0.1165653487967075
 21
0.1710207486632802
 31
0.0
  0
LINE
  5
3A1
330
18
100
AcDbEntity
  8
TEXT
100
AcDbLine
 10
0.0174447820926824
 20
0.2390322264020908
 30
0.0
 11
0.0174447820926824
 21
0.1710207486632802
 31
0.0
  0
LINE
  5
3A2
330
18
100
AcDbEntity
  8
TEXT
100
AcDbLine
 10
0.0174447820926824
 20
0.1710207486632802
 30
0.0
 11
-0.0126771307006939
 21
0.1710207486632802
 31
0.0
  0
LINE
  5
3A3
330
18
100
AcDbEntity
  8
TEXT
100
AcDbLine
 10
-0.0126771307006939
 20
0.1710207486632802
 30
0.0
 11
-0.0714256935065594
 21
0.0701487525501596
 31
0.0
  0
LINE
  5
3A4
330
18
100
AcDbEntity
  8
TEXT
100
AcDbLine
 10
0.0842534946590474
 20
0.2390322264020908
 30
0.0
 11
0.0174447820926824
 21
0.2390322264020908
 31
0.0
  0
LWPOLYLINE
  5
3A5
330
18
100
AcDbEntity
  8
TEXT
100
AcDbPolyline
 90
        2
 70
     0
 43
0.0
 10
0.2505834047278448
 20
0.1710207486632838
 42
-0.3328679258950098
 10
0.2863650954410062
 20
0.1438532519023878
 42
6.772930709997214
  0
LINE
  5
3A6
330
18
100
AcDbEntity
  8
TEXT
100
AcDbLine
 10
0.1833964018546767
 20
0.1067440540065148
 30
0.0
 11
0.2332316816778244
 21
0.1067440540065148
 31
0.0
  0
LWPOLYLINE
  5
3A7
330
18
100
AcDbEntity
  8
TEXT
100
AcDbPolyline
 90
        2
 70
     0
 43
0.0
 10
0.2332316816778235
 20
0.1067440540065148
 42
-0.4142135623731017
 10
0.240785470843937
 20
0.0991902648404049
 42
-0.9999999999999998
  0
LWPOLYLINE
  5
3A8
330
18
100
AcDbEntity
  8
TEXT
100
AcDbPolyline
 90
        2
 70
     0
 43
0.0
 10
0.3619771145467272
 20
0.1067440540065148
 42
-0.4142135623731017
 10
0.3695309037128407
 20
0.0991902648404049
 42
-0.9999999999999998
  0
LINE
  5
3A9
330
18
100
AcDbEntity
  8
TEXT
100
AcDbLine
 10
0.3078435176257779
 20
0.1067440540065148
 30
0.0
 11
0.3619771145467281
 21
0.1067440540065148
 31
0.0
  0
TEXT
  5
3AA
330
18
100
AcDbEntity
  8
TEXT
100
AcDbText
 10
1.187011218783608
 20
-0.0958249026460267
 30
0.0
 40
0.0522247191011236
  1
Phone  1-800-328-2495
 41
1.272321428571429
 72
     5
 11
2.515943803053271
 21
-0.0958249026460267
 31
0.0
100
AcDbText
  0
TEXT
  5
3AB
330
18
100
AcDbEntity
  8
TEXT
100
AcDbText
 10
1.187011218783608
 20
0.1839503782528498
 30
0.0
 40
0.0522247191011236
  1
Stylmark  Incorporated
 41
1.221428571428571
 72
     5
 11
2.515943803053271
 21
0.1839503782528498
 31
0.0
100
AcDbText
  0
TEXT
  5
3AC
330
18
100
AcDbEntity
  8
TEXT
100
AcDbText
 10
1.187011218783608
 20
0.0906919512865576
 30
0.0
 40
0.0522247191011236
  1
6536 Main St. N.E. * P.O. Box 32008
 41
0.8388932496075353
 72
     5
 11
2.515943803053271
 21
0.0906919512865576
 31
0.0
100
AcDbText
  0
TEXT
  5
3AD
330
18
100
AcDbEntity
  8
TEXT
100
AcDbText
 10
1.187011218783608
 20
-0.0025664756797346
 30
0.0
 40
0.0522247191011236
  1
Minneapolis, MN 55432-0008
 41
1.11444212721585
 72
     5
 11
2.515943803053271
 21
-0.0025664756797346
 31
0.0
100
AcDbText
  0
LINE
  5
3AE
330
18
100
AcDbEntity
  8
TEXT
100
AcDbLine
 10
0.8819225320006855
 20
0.2364849544308809
 30
0.0
 11
0.8136076534514122
 21
0.2364849544308809
 31
0.0
  0
LINE
  5
3AF
330
18
100
AcDbEntity
  8
TEXT
100
AcDbLine
 10
0.8180875407779124
 20
-0.0954522843252308
 30
0.0
 11
0.8824657250965328
 21
-0.0954522843252308
 31
0.0
  0
LINE
  5
3B0
330
18
100
AcDbEntity
  8
TEXT
100
AcDbLine
 10
0.8180875407779071
 20
0.1067440540065148
 30
0.0
 11
0.8180875407779124
 21
-0.0954522843252308
 31
0.0
  0
LINE
  5
3B1
330
18
100
AcDbEntity
  8
TEXT
100
AcDbLine
 10
0.7165336842026902
 20
-0.0954522843252308
 30
0.0
 11
0.7165336842026849
 21
0.0818382211062376
 31
0.0
  0
LWPOLYLINE
  5
3B2
330
18
100
AcDbEntity
  8
TEXT
100
AcDbPolyline
 90
        2
 70
     0
 43
0.0
 10
0.6581784703673553
 20
-0.0519613393747926
 42
-0.2901071551932486
 10
0.6151025374997108
 20
-0.0954522843252308
 42
-5.328517124445184
  0
LWPOLYLINE
  5
3B3
330
18
100
AcDbEntity
  8
TEXT
100
AcDbPolyline
 90
        4
 70
     1
 43
0.0
 10
0.5949800724298182
 20
0.0075116936587945
 10
0.5063197537699598
 20
0.0075116936587945
 42
0.9999999999999998
 10
0.5063197537699598
 20
-0.0348868468450663
 10
0.5949800724298182
 20
-0.0348868468450663
 42
1.0
  0
LWPOLYLINE
  5
3B4
330
18
100
AcDbEntity
  8
TEXT
100
AcDbPolyline
 90
        2
 70
     0
 43
0.0
 10
0.4810851198683342
 20
-0.0954522843252308
 10
0.6151025374997108
 20
-0.0954522843252308
 42
0.9999999999999998
  0
LWPOLYLINE
  5
3B5
330
18
100
AcDbEntity
  8
TEXT
100
AcDbPolyline
 90
        2
 70
     0
 43
0.0
 10
0.4380091870006986
 20
-0.0519613393747926
 42
0.2901071551932823
 10
0.4810851198683342
 20
-0.0954522843252308
 42
5.328517124445801
  0
LWPOLYLINE
  5
3B6
330
18
100
AcDbEntity
  8
TEXT
100
AcDbPolyline
 90
        2
 70
     0
 43
0.0
 10
0.6581784703673553
 20
-0.0519613393747926
 10
0.6581784703673553
 20
-0.0954522843252308
  0
LWPOLYLINE
  5
3B7
330
18
100
AcDbEntity
  8
TEXT
100
AcDbPolyline
 90
        2
 70
     0
 43
0.0
 10
0.6581784703673553
 20
-0.0954522843252308
 10
0.7165336842026893
 20
-0.0954522843252308
  0
LINE
  5
3B8
330
18
100
AcDbEntity
  8
TEXT
100
AcDbLine
 10
0.6542387930623166
 20
0.0658087701098529
 30
0.0
 11
0.610488021880415
 21
0.1480590461059981
 31
0.0
  0
LINE
  5
3B9
330
18
100
AcDbEntity
  8
TEXT
100
AcDbLine
 10
0.5462479558427971
 20
0.1067440540065148
 30
0.0
 11
0.4390416824555077
 21
0.1067440540065148
 31
0.0
  0
LINE
  5
3BA
330
18
100
AcDbEntity
  8
TEXT
100
AcDbLine
 10
0.4997610413635352
 20
0.0694690805443825
 30
0.0
 11
0.5820490311469185
 21
0.0694690805443825
 31
0.0
  0
LINE
  5
3BB
330
18
100
AcDbEntity
  8
TEXT
100
AcDbLine
 10
0.5752788541872756
 20
0.1710207486632802
 30
0.0
 11
0.4404469449702165
 21
0.1710207486632802
 31
0.0
  0
LINE
  5
3BC
330
18
100
AcDbEntity
  8
TEXT
100
AcDbLine
 10
0.4390416824555077
 20
0.1067440540065148
 30
0.0
 11
0.4390416824555077
 21
0.0316916479323082
 31
0.0
  0
ARC
  5
3BD
330
18
100
AcDbEntity
  8
TEXT
100
AcDbCircle
 10
0.4997610413635343
 20
0.0017834994002639
 30
0.0
 40
0.0676855811441166
100
AcDbArc
 50
90.0
 51
153.7768192527749
  0
LINE
  5
3BE
330
18
100
AcDbEntity
  8
TEXT
100
AcDbLine
 10
0.4404469449702165
 20
0.1710207486632802
 30
0.0
 11
0.4404469449702165
 21
0.1426982028936363
 31
0.0
  0
LWPOLYLINE
  5
3BF
330
18
100
AcDbEntity
  8
TEXT
100
AcDbPolyline
 90
        2
 70
     0
 43
0.0
 10
0.4046652542570506
 20
0.1710207486632838
 42
-0.3277054968067132
 10
0.4404469449702156
 20
0.1426982028936399
 42
6.667889725900311
  0
ARC
  5
3C0
330
18
100
AcDbEntity
  8
TEXT
100
AcDbCircle
 10
0.5462479558427962
 20
0.0783846790065175
 30
0.0
 40
0.028359375
100
AcDbArc
 50
25.78218179591245
 51
90.0
  0
LINE
  5
3C1
330
18
100
AcDbEntity
  8
TEXT
100
AcDbLine
 10
0.5820490311469185
 20
0.0694690805443825
 30
0.0
 11
0.5717842707333541
 21
0.0907196201170768
 31
0.0
  0
ARC
  5
3C2
330
18
100
AcDbEntity
  8
TEXT
100
AcDbCircle
 10
0.5732519144102071
 20
0.1294371815423778
 30
0.0
 40
0.0416329381542859
100
AcDbArc
 50
26.56974201007528
 51
87.20939649401342
  0
LINE
  5
3C3
330
18
100
AcDbEntity
  8
TEXT
100
AcDbLine
 10
0.8136076534514122
 20
0.2364849544308809
 30
0.0
 11
0.8136076534514069
 21
0.1710207486632802
 31
0.0
  0
LINE
  5
3C4
330
18
100
AcDbEntity
  8
TEXT
100
AcDbLine
 10
0.8136076534514069
 20
0.1710207486632802
 30
0.0
 11
0.7461079358018905
 21
0.1710207486632802
 31
0.0
  0
LINE
  5
3C5
330
18
100
AcDbEntity
  8
TEXT
100
AcDbLine
 10
0.7414395594853494
 20
0.1067440540065148
 30
0.0
 11
0.8180875407779071
 21
0.1067440540065148
 31
0.0
  0
LINE
  5
3C6
330
18
100
AcDbEntity
  8
TEXT
100
AcDbLine
 10
0.7181356993618176
 20
0.1434730988024055
 30
0.0
 11
0.7181356993618176
 21
0.1710207486632802
 31
0.0
  0
ARC
  5
3C7
330
18
100
AcDbEntity
  8
TEXT
100
AcDbCircle
 10
0.7493285164249262
 20
0.1397750213810154
 30
0.0
 40
0.0314112657011332
100
AcDbArc
 50
95.88484768694724
 51
173.2388340632136
  0
ARC
  5
3C8
330
18
100
AcDbEntity
  8
TEXT
100
AcDbCircle
 10
0.7414395594853485
 20
0.081838178723852
 30
0.0
 40
0.0249058752826653
100
AcDbArc
 50
89.99971217465335
 51
179.9999999999985
  0
LINE
  5
3C9
330
18
100
AcDbEntity
  8
TEXT
100
AcDbLine
 10
0.6542387930623166
 20
0.1710207486632802
 30
0.0
 11
0.6542387930623166
 21
0.0658087701098529
 31
0.0
  0
LINE
  5
3CA
330
18
100
AcDbEntity
  8
TEXT
100
AcDbLine
 10
0.7181356993618176
 20
0.1710207486632802
 30
0.0
 11
0.6542387930623166
 21
0.1710207486632802
 31
0.0
  0
LINE
  5
3CB
330
18
100
AcDbEntity
  8
TEXT
100
AcDbLine
 10
0.8824657250965328
 20
0.0361272841509495
 30
0.0
 11
0.9583692583079974
 21
-0.0954522843252308
 31
0.0
  0
LINE
  5
3CC
330
18
100
AcDbEntity
  8
TEXT
100
AcDbLine
 10
0.8824657250965328
 20
-0.0954522843252308
 30
0.0
 11
0.8824657250965328
 21
0.0361272841509495
 31
0.0
  0
LINE
  5
3CD
330
18
100
AcDbEntity
  8
TEXT
100
AcDbLine
 10
1.034947630684203
 20
-0.0954522843252308
 30
0.0
 11
0.9394554073205929
 21
0.0611275057223066
 31
0.0
  0
LINE
  5
3CE
330
18
100
AcDbEntity
  8
TEXT
100
AcDbLine
 10
0.9583692583079974
 20
-0.0954522843252308
 30
0.0
 11
1.034947630684203
 21
-0.0954522843252308
 31
0.0
  0
LINE
  5
3CF
330
18
100
AcDbEntity
  8
TEXT
100
AcDbLine
 10
0.8819225320006855
 20
0.0951554222517421
 30
0.0
 11
0.8819225320006855
 21
0.2364849544308809
 31
0.0
  0
LINE
  5
3D0
330
18
100
AcDbEntity
  8
TEXT
100
AcDbLine
 10
1.004012523286298
 20
0.1710207486632802
 30
0.0
 11
0.9290206905566718
 21
0.1710207486632802
 31
0.0
  0
LINE
  5
3D1
330
18
100
AcDbEntity
  8
TEXT
100
AcDbLine
 10
0.9394554073205929
 20
0.0611275057223066
 30
0.0
 11
1.004012523286298
 21
0.1710207486632802
 31
0.0
  0
LINE
  5
3D2
330
18
100
AcDbEntity
  8
TEXT
100
AcDbLine
 10
0.92902069055667
 20
0.1710207486632802
 30
0.0
 11
0.8819225320006855
 21
0.0951554222517421
 31
0.0
  0
ENDSEC
  0
SECTION
  2
OBJECTS
  0
DICTIONARY
  5
C
330
0
100
AcDbDictionary
  3
ACAD_GROUP
350
D
  3
ACAD_LAYOUT
350
3D7
  3
ACAD_MLINESTYLE
350
E
  3
ACAD_PLOTSETTINGS
350
3D8
  3
ACAD_PLOTSTYLENAME
350
3D5
  3
ACDBHEADERROUNDTRIPXREC
350
3E3
  3
ACDBVARIABLEDICTIONARY
350
3E0
  0
DICTIONARY
  5
405
330
18
100
AcDbDictionary
280
     1
  3
ACAD_LAYOUTSELFREF
360
406
  0
DICTIONARY
  5
403
330
15
100
AcDbDictionary
280
     1
  3
ACAD_LAYOUTSELFREF
360
404
  0
DICTIONARY
  5
D
102
{ACAD_REACTORS
330
C
102
}
330
C
100
AcDbDictionary
  0
DICTIONARY
  5
3D7
102
{ACAD_REACTORS
330
C
102
}
330
C
100
AcDbDictionary
  0
DICTIONARY
  5
E
102
{ACAD_REACTORS
330
C
102
}
330
C
100
AcDbDictionary
  3
STANDARD
350
1B
  0
DICTIONARY
  5
3D8
102
{ACAD_REACTORS
330
C
102
}
330
C
100
AcDbDictionary
  0
ACDBDICTIONARYWDFLT
  5
3D5
102
{ACAD_REACTORS
330
C
102
}
330
C
100
AcDbDictionary
281
     1
  3
Normal
350
3D6
100
AcDbDictionaryWithDefault
340
3D6
  0
DICTIONARY
  5
3E3
102
{ACAD_REACTORS
330
C
102
}
330
C
100
AcDbDictionary
  3
CEPSNTYPE
350
3ED
  3
FINGERPRINTGUID
350
3EE
  3
HYPERLINKBASE
350
3E6
  3
INSUNITS
350
3EC
  3
LAYOUTDICT
350
3E8
  3
LWETCUNION
350
3EB
  3
PLOTSETDICT
350
3E9
  3
PLOTSTYLNAMDICT
350
3EA
  3
PSVPSCALE
350
3F0
  3
PUCSBASE
350
3F3
  3
PUCSORGBACK
350
3F9
  3
PUCSORGBOTTOM
350
3F5
  3
PUCSORGFRONT
350
3F8
  3
PUCSORGLEFT
350
3F6
  3
PUCSORGRIGHT
350
3F7
  3
PUCSORGTOP
350
3F4
  3
PUCSORTHOREF
350
3F1
  3
PUCSORTHOVIEW
350
3F2
  3
STYLESHEET
350
3E7
  3
TSTACKALIGN
350
3E4
  3
TSTACKSIZE
350
3E5
  3
UCSBASE
350
3FC
  3
UCSORGBACK
350
402
  3
UCSORGBOTTOM
350
3FE
  3
UCSORGFRONT
350
401
  3
UCSORGLEFT
350
3FF
  3
UCSORGRIGHT
350
400
  3
UCSORGTOP
350
3FD
  3
UCSORTHOREF
350
3FA
  3
UCSORTHOVIEW
350
3FB
  3
VERSIONGUID
350
3EF
  0
DICTIONARY
  5
3E0
102
{ACAD_REACTORS
330
C
102
}
330
C
100
AcDbDictionary
  3
DIMASSOC
350
3E1
  0
XRECORD
  5
406
102
{ACAD_REACTORS
330
405
102
}
330
405
100
AcDbXrecord
340
18
  0
XRECORD
  5
404
102
{ACAD_REACTORS
330
403
102
}
330
403
100
AcDbXrecord
340
15
  0
MLINESTYLE
  5
1B
102
{ACAD_REACTORS
330
E
102
}
330
E
100
AcDbMlineStyle
  2
STANDARD
 70
     0
  3

 62
     0
 51
90.0
 52
90.0
 71
     2
 49
0.5
 62
   256
  6
BYLAYER
 49
-0.5
 62
   256
  6
BYLAYER
  0
ACDBPLACEHOLDER
  5
3D6
102
{ACAD_REACTORS
330
3D5
102
}
330
3D5
100
AcDbPlaceHolder
280
     0
  0
XRECORD
  5
3ED
102
{ACAD_REACTORS
330
3E3
102
}
330
3E3
100
AcDbXrecord
 90
        0
  0
XRECORD
  5
3EE
102
{ACAD_REACTORS
330
3E3
102
}
330
3E3
100
AcDbXrecord
  1
{F6113260-8DB9-11D6-88E6-0090279574E7}
  0
XRECORD
  5
3E6
102
{ACAD_REACTORS
330
3E3
102
}
330
3E3
100
AcDbXrecord
  1

  0
XRECORD
  5
3EC
102
{ACAD_REACTORS
330
3E3
102
}
330
3E3
100
AcDbXrecord
 90
        0
  0
XRECORD
  5
3E8
102
{ACAD_REACTORS
330
3E3
102
}
330
3E3
100
AcDbXrecord
340
3D7
  0
XRECORD
  5
3EB
102
{ACAD_REACTORS
330
3E3
102
}
330
3E3
100
AcDbXrecord
 90
    14877
  0
XRECORD
  5
3E9
102
{ACAD_REACTORS
330
3E3
102
}
330
3E3
100
AcDbXrecord
340
3D8
  0
XRECORD
  5
3EA
102
{ACAD_REACTORS
330
3E3
102
}
330
3E3
100
AcDbXrecord
340
3D5
  0
XRECORD
  5
3F0
102
{ACAD_REACTORS
330
3E3
102
}
330
3E3
100
AcDbXrecord
 40
0.0
  0
XRECORD
  5
3F3
102
{ACAD_REACTORS
330
3E3
102
}
330
3E3
100
AcDbXrecord
340
0
  0
XRECORD
  5
3F9
102
{ACAD_REACTORS
330
3E3
102
}
330
3E3
100
AcDbXrecord
 10
0.0
 20
0.0
 30
0.0
  0
XRECORD
  5
3F5
102
{ACAD_REACTORS
330
3E3
102
}
330
3E3
100
AcDbXrecord
 10
0.0
 20
0.0
 30
0.0
  0
XRECORD
  5
3F8
102
{ACAD_REACTORS
330
3E3
102
}
330
3E3
100
AcDbXrecord
 10
0.0
 20
0.0
 30
0.0
  0
XRECORD
  5
3F6
102
{ACAD_REACTORS
330
3E3
102
}
330
3E3
100
AcDbXrecord
 10
0.0
 20
0.0
 30
0.0
  0
XRECORD
  5
3F7
102
{ACAD_REACTORS
330
3E3
102
}
330
3E3
100
AcDbXrecord
 10
0.0
 20
0.0
 30
0.0
  0
XRECORD
  5
3F4
102
{ACAD_REACTORS
330
3E3
102
}
330
3E3
100
AcDbXrecord
 10
0.0
 20
0.0
 30
0.0
  0
XRECORD
  5
3F1
102
{ACAD_REACTORS
330
3E3
102
}
330
3E3
100
AcDbXrecord
340
0
  0
XRECORD
  5
3F2
102
{ACAD_REACTORS
330
3E3
102
}
330
3E3
100
AcDbXrecord
 70
     0
  0
XRECORD
  5
3E7
102
{ACAD_REACTORS
330
3E3
102
}
330
3E3
100
AcDbXrecord
  1

  0
XRECORD
  5
3E4
102
{ACAD_REACTORS
330
3E3
102
}
330
3E3
100
AcDbXrecord
 90
        1
  0
XRECORD
  5
3E5
102
{ACAD_REACTORS
330
3E3
102
}
330
3E3
100
AcDbXrecord
 90
       70
  0
XRECORD
  5
3FC
102
{ACAD_REACTORS
330
3E3
102
}
330
3E3
100
AcDbXrecord
340
0
  0
XRECORD
  5
402
102
{ACAD_REACTORS
330
3E3
102
}
330
3E3
100
AcDbXrecord
 10
0.0
 20
0.0
 30
0.0
  0
XRECORD
  5
3FE
102
{ACAD_REACTORS
330
3E3
102
}
330
3E3
100
AcDbXrecord
 10
0.0
 20
0.0
 30
0.0
  0
XRECORD
  5
401
102
{ACAD_REACTORS
330
3E3
102
}
330
3E3
100
AcDbXrecord
 10
0.0
 20
0.0
 30
0.0
  0
XRECORD
  5
3FF
102
{ACAD_REACTORS
330
3E3
102
}
330
3E3
100
AcDbXrecord
 10
0.0
 20
0.0
 30
0.0
  0
XRECORD
  5
400
102
{ACAD_REACTORS
330
3E3
102
}
330
3E3
100
AcDbXrecord
 10
0.0
 20
0.0
 30
0.0
  0
XRECORD
  5
3FD
102
{ACAD_REACTORS
330
3E3
102
}
330
3E3
100
AcDbXrecord
 10
0.0
 20
0.0
 30
0.0
  0
XRECORD
  5
3FA
102
{ACAD_REACTORS
330
3E3
102
}
330
3E3
100
AcDbXrecord
340
0
  0
XRECORD
  5
3FB
102
{ACAD_REACTORS
330
3E3
102
}
330
3E3
100
AcDbXrecord
 70
     0
  0
XRECORD
  5
3EF
102
{ACAD_REACTORS
330
3E3
102
}
330
3E3
100
AcDbXrecord
  1
{F6113262-8DB9-11D6-88E6-0090279574E7}
  0
DICTIONARYVAR
  5
3E1
102
{ACAD_REACTORS
330
3E0
102
}
330
3E0
100
DictionaryVariables
280
     0
  1
1
  0
ENDSEC
  0
EOF
