  0
SECTION
  2
HEADER
  9
$ACADVER
  1
AC1014
  9
$ACADMAINTVER
 70
     9
  9
$DWGCODEPAGE
  3
ANSI_1252
  9
$INSBASE
 10
0.0
 20
0.0
 30
0.0
  9
$EXTMIN
 10
-1.042623354071257
 20
-0.2376077941512535
 30
0.0
  9
$EXTMAX
 10
2.44259596767587
 20
2.678347086912079
 30
0.0
  9
$LIMMIN
 10
0.0
 20
0.0
  9
$LIMMAX
 10
8.5
 20
11.0
  9
$ORTHOMODE
 70
     1
  9
$REGENMODE
 70
     1
  9
$FILLMODE
 70
     1
  9
$QTEXTMODE
 70
     0
  9
$MIRRTEXT
 70
     0
  9
$DRAGMODE
 70
     2
  9
$LTSCALE
 40
1.0
  9
$OSMODE
 70
    39
  9
$ATTMODE
 70
     1
  9
$TEXTSIZE
 40
0.125
  9
$TRACEWID
 40
0.05
  9
$TEXTSTYLE
  7
ROMANS
  9
$CLAYER
  8
DIM
  9
$CELTYPE
  6
BYLAYER
  9
$CECOLOR
 62
   256
  9
$CELTSCALE
 40
1.0
  9
$DELOBJ
 70
     1
  9
$DISPSILH
 70
     1
  9
$DIMSCALE
 40
1.0
  9
$DIMASZ
 40
0.125
  9
$DIMEXO
 40
0.125
  9
$DIMDLI
 40
0.375
  9
$DIMRND
 40
0.0
  9
$DIMDLE
 40
0.0
  9
$DIMEXE
 40
0.125
  9
$DIMTP
 40
0.01
  9
$DIMTM
 40
0.005
  9
$DIMTXT
 40
0.125
  9
$DIMCEN
 40
-0.125
  9
$DIMTSZ
 40
0.0
  9
$DIMTOL
 70
     0
  9
$DIMLIM
 70
     0
  9
$DIMTIH
 70
     1
  9
$DIMTOH
 70
     1
  9
$DIMSE1
 70
     0
  9
$DIMSE2
 70
     0
  9
$DIMTAD
 70
     0
  9
$DIMZIN
 70
     4
  9
$DIMBLK
  1

  9
$DIMASO
 70
     1
  9
$DIMSHO
 70
     1
  9
$DIMPOST
  1

  9
$DIMAPOST
  1

  9
$DIMALT
 70
     0
  9
$DIMALTD
 70
     2
  9
$DIMALTF
 40
25.4
  9
$DIMLFAC
 40
0.5
  9
$DIMTOFL
 70
     0
  9
$DIMTVP
 40
0.0
  9
$DIMTIX
 70
     1
  9
$DIMSOXD
 70
     0
  9
$DIMSAH
 70
     0
  9
$DIMBLK1
  1

  9
$DIMBLK2
  1

  9
$DIMSTYLE
  2
STANDARD
  9
$DIMCLRD
 70
     0
  9
$DIMCLRE
 70
     0
  9
$DIMCLRT
 70
     0
  9
$DIMTFAC
 40
1.0
  9
$DIMGAP
 40
0.09
  9
$DIMJUST
 70
     0
  9
$DIMSD1
 70
     0
  9
$DIMSD2
 70
     0
  9
$DIMTOLJ
 70
     1
  9
$DIMTZIN
 70
     0
  9
$DIMALTZ
 70
     0
  9
$DIMALTTZ
 70
     0
  9
$DIMFIT
 70
     3
  9
$DIMUPT
 70
     0
  9
$DIMUNIT
 70
     2
  9
$DIMDEC
 70
     3
  9
$DIMTDEC
 70
     4
  9
$DIMALTU
 70
     2
  9
$DIMALTTD
 70
     2
  9
$DIMTXSTY
  7
ROMANS
  9
$DIMAUNIT
 70
     0
  9
$LUNITS
 70
     2
  9
$LUPREC
 70
     3
  9
$SKETCHINC
 40
0.1
  9
$FILLETRAD
 40
0.0
  9
$AUNITS
 70
     0
  9
$AUPREC
 70
     0
  9
$MENU
  1
ACAD
  9
$ELEVATION
 40
0.0
  9
$PELEVATION
 40
0.0
  9
$THICKNESS
 40
0.0
  9
$LIMCHECK
 70
     0
  9
$BLIPMODE
 70
     0
  9
$CHAMFERA
 40
0.0
  9
$CHAMFERB
 40
0.0
  9
$CHAMFERC
 40
0.0
  9
$CHAMFERD
 40
0.0
  9
$SKPOLY
 70
     0
  9
$TDCREATE
 40
2448377.711604166
  9
$TDUPDATE
 40
2452458.325038414
  9
$TDINDWG
 40
0.1118154630
  9
$TDUSRTIMER
 40
0.1118154630
  9
$USRTIMER
 70
     1
  9
$ANGBASE
 50
0.0
  9
$ANGDIR
 70
     0
  9
$PDMODE
 70
     0
  9
$PDSIZE
 40
0.0
  9
$PLINEWID
 40
0.0
  9
$COORDS
 70
     2
  9
$SPLFRAME
 70
     0
  9
$SPLINETYPE
 70
     6
  9
$SPLINESEGS
 70
     8
  9
$ATTDIA
 70
     0
  9
$ATTREQ
 70
     1
  9
$HANDLING
 70
 22529
  9
$HANDSEED
  5
4C4
  9
$SURFTAB1
 70
     6
  9
$SURFTAB2
 70
     6
  9
$SURFTYPE
 70
     6
  9
$SURFU
 70
     6
  9
$SURFV
 70
     6
  9
$UCSNAME
  2

  9
$UCSORG
 10
0.0
 20
0.0
 30
0.0
  9
$UCSXDIR
 10
1.0
 20
0.0
 30
0.0
  9
$UCSYDIR
 10
0.0
 20
1.0
 30
0.0
  9
$PUCSNAME
  2

  9
$PUCSORG
 10
0.0
 20
0.0
 30
0.0
  9
$PUCSXDIR
 10
1.0
 20
0.0
 30
0.0
  9
$PUCSYDIR
 10
0.0
 20
1.0
 30
0.0
  9
$USERI1
 70
     0
  9
$USERI2
 70
     0
  9
$USERI3
 70
     0
  9
$USERI4
 70
     0
  9
$USERI5
 70
     0
  9
$USERR1
 40
0.0
  9
$USERR2
 40
0.0
  9
$USERR3
 40
0.0
  9
$USERR4
 40
0.0
  9
$USERR5
 40
0.0
  9
$WORLDVIEW
 70
     1
  9
$SHADEDGE
 70
     3
  9
$SHADEDIF
 70
    70
  9
$TILEMODE
 70
     1
  9
$MAXACTVP
 70
    16
  9
$PINSBASE
 10
0.0
 20
0.0
 30
0.0
  9
$PLIMCHECK
 70
     0
  9
$PEXTMIN
 10
1.000000000000000E+20
 20
1.000000000000000E+20
 30
1.000000000000000E+20
  9
$PEXTMAX
 10
-1.000000000000000E+20
 20
-1.000000000000000E+20
 30
-1.000000000000000E+20
  9
$PLIMMIN
 10
0.0
 20
0.0
  9
$PLIMMAX
 10
12.0
 20
9.0
  9
$UNITMODE
 70
     0
  9
$VISRETAIN
 70
     0
  9
$PLINEGEN
 70
     1
  9
$PSLTSCALE
 70
     0
  9
$TREEDEPTH
 70
  3020
  9
$PICKSTYLE
 70
     1
  9
$CMLSTYLE
  2
STANDARD
  9
$CMLJUST
 70
     0
  9
$CMLSCALE
 40
1.0
  9
$PROXYGRAPHICS
 70
     1
  9
$MEASUREMENT
 70
     0
  0
ENDSEC
  0
SECTION
  2
CLASSES
  0
CLASS
  1
LWPOLYLINE
  2
AcDbPolyline
  3
AutoCAD 2000
 90
        0
280
     0
281
     1
  0
CLASS
  1
ACDBDICTIONARYWDFLT
  2
AcDbDictionaryWithDefault
  3
AutoCAD 2000
 90
        0
280
     0
281
     0
  0
CLASS
  1
ACDBPLACEHOLDER
  2
AcDbPlaceHolder
  3
AutoCAD 2000
 90
        0
280
     0
281
     0
  0
CLASS
  1
LAYOUT
  2
AcDbLayout
  3
AutoCAD 2000
 90
        0
280
     0
281
     0
  0
CLASS
  1
DICTIONARYVAR
  2
AcDbDictionaryVar
  3
AutoCAD 2000
 90
        0
280
     0
281
     0
  0
CLASS
  1
LONG_TRANSACTION
  2
AcDbLongTransaction
  3
AutoCAD 2000
 90
        0
280
     0
281
     0
  0
CLASS
  1
LWPOLYLINE
  2
AcDbPolyline
  3
AutoCAD 2000
 90
        0
280
     0
281
     1
  0
CLASS
  1
HATCH
  2
AcDbHatch
  3
AutoCAD 2000
 90
        0
280
     0
281
     1
  0
CLASS
  1
XRECORD
  2
AcDbXrecord
  3
AutoCAD 2000
 90
        0
280
     0
281
     0
  0
ENDSEC
  0
SECTION
  2
TABLES
  0
TABLE
  2
VPORT
  5
8
330
0
100
AcDbSymbolTable
 70
     2
  0
VPORT
  5
49F
330
8
100
AcDbSymbolTableRecord
100
AcDbViewportTableRecord
  2
*ACTIVE
 70
     0
 10
0.0
 20
0.0
 11
1.0
 21
1.0
 12
4.673714910256977
 22
1.220321256336838
 13
0.0
 23
0.0
 14
0.015625
 24
0.015625
 15
0.0
 25
0.0
 16
0.0
 26
0.0
 36
1.0
 17
0.0
 27
0.0
 37
0.0
 40
2.942321208156098
 41
4.320930232558139
 42
50.0
 43
0.0
 44
0.0
 50
0.0
 51
0.0
 71
     0
 72
  2000
 73
     1
 74
     1
 75
     0
 76
     0
 77
     0
 78
     0
  0
ENDTAB
  0
TABLE
  2
LTYPE
  5
5
330
0
100
AcDbSymbolTable
 70
     1
  0
LTYPE
  5
12
330
5
100
AcDbSymbolTableRecord
100
AcDbLinetypeTableRecord
  2
BYBLOCK
 70
     0
  3

 72
    65
 73
     0
 40
0.0
  0
LTYPE
  5
13
330
5
100
AcDbSymbolTableRecord
100
AcDbLinetypeTableRecord
  2
BYLAYER
 70
     0
  3

 72
    65
 73
     0
 40
0.0
  0
LTYPE
  5
14
330
5
100
AcDbSymbolTableRecord
100
AcDbLinetypeTableRecord
  2
CONTINUOUS
 70
     0
  3
Solid line
 72
    65
 73
     0
 40
0.0
  0
ENDTAB
  0
TABLE
  2
LAYER
  5
2
330
0
100
AcDbSymbolTable
 70
     3
  0
LAYER
  5
F
330
2
100
AcDbSymbolTableRecord
100
AcDbLayerTableRecord
  2
0
 70
     0
 62
     7
  6
CONTINUOUS
  0
LAYER
  5
24
330
2
100
AcDbSymbolTableRecord
100
AcDbLayerTableRecord
  2
DIM
 70
     0
 62
     4
  6
CONTINUOUS
  0
LAYER
  5
25
330
2
100
AcDbSymbolTableRecord
100
AcDbLayerTableRecord
  2
TEXT
 70
     0
 62
     3
  6
CONTINUOUS
  0
ENDTAB
  0
TABLE
  2
STYLE
  5
3
330
0
100
AcDbSymbolTable
 70
     3
  0
STYLE
  5
10
330
3
100
AcDbSymbolTableRecord
100
AcDbTextStyleTableRecord
  2
STANDARD
 70
     0
 40
0.0
 41
1.0
 50
0.0
 71
     0
 42
0.25
  3
txt
  4

  0
STYLE
  5
38C
330
3
100
AcDbSymbolTableRecord
100
AcDbTextStyleTableRecord
  2
ITALICC
 70
     0
 40
0.0
 41
1.0
 50
0.0
 71
     0
 42
0.125
  3
italicc
  4

  0
STYLE
  5
49B
330
3
100
AcDbSymbolTableRecord
100
AcDbTextStyleTableRecord
  2
ROMANS
 70
     0
 40
0.0
 41
1.0
 50
0.0
 71
     0
 42
0.125
  3
romans.shx
  4

  0
ENDTAB
  0
TABLE
  2
VIEW
  5
6
330
0
100
AcDbSymbolTable
 70
     0
  0
ENDTAB
  0
TABLE
  2
UCS
  5
7
330
0
100
AcDbSymbolTable
 70
     0
  0
ENDTAB
  0
TABLE
  2
APPID
  5
9
330
0
100
AcDbSymbolTable
 70
     1
  0
APPID
  5
11
330
9
100
AcDbSymbolTableRecord
100
AcDbRegAppTableRecord
  2
ACAD
 70
     0
  0
ENDTAB
  0
TABLE
  2
DIMSTYLE
  5
A
330
0
100
AcDbSymbolTable
 70
     1
  0
DIMSTYLE
105
384
330
A
100
AcDbSymbolTableRecord
100
AcDbDimStyleTableRecord
  2
STANDARD
 70
     0
  3

  4

  5

  6

  7

 40
1.0
 41
0.18
 42
0.0625
 43
0.38
 44
0.18
 45
0.0
 46
0.0
 47
0.0
 48
0.0
140
0.18
141
0.09
142
0.0
143
25.4
144
1.0
145
0.0
146
1.0
147
0.09
 71
     0
 72
     0
 73
     1
 74
     1
 75
     0
 76
     0
 77
     0
 78
     0
170
     0
171
     2
172
     0
173
     0
174
     0
175
     0
176
     0
177
     0
178
     0
270
     2
271
     4
272
     4
273
     2
274
     2
340
10
275
     0
280
     0
281
     0
282
     0
283
     1
284
     0
285
     0
286
     0
287
     3
288
     0
  0
ENDTAB
  0
TABLE
  2
BLOCK_RECORD
  5
1
330
0
100
AcDbSymbolTable
 70
     0
  0
BLOCK_RECORD
  5
18
102
{ACAD_XDICTIONARY
360
4C2
102
}
330
1
100
AcDbSymbolTableRecord
100
AcDbBlockTableRecord
  2
*MODEL_SPACE
  0
BLOCK_RECORD
  5
15
102
{ACAD_XDICTIONARY
360
4C0
102
}
330
1
100
AcDbSymbolTableRecord
100
AcDbBlockTableRecord
  2
*PAPER_SPACE
  0
ENDTAB
  0
ENDSEC
  0
SECTION
  2
BLOCKS
  0
BLOCK
  5
2B
330
18
100
AcDbEntity
  8
0
100
AcDbBlockBegin
  2
*MODEL_SPACE
 70
     0
 10
0.0
 20
0.0
 30
0.0
  3
*MODEL_SPACE
  1

  0
ENDBLK
  5
2C
330
18
100
AcDbEntity
  8
0
100
AcDbBlockEnd
  0
BLOCK
  5
29
330
15
100
AcDbEntity
 67
     1
  8
0
100
AcDbBlockBegin
  2
*PAPER_SPACE
 70
     0
 10
0.0
 20
0.0
 30
0.0
  3
*PAPER_SPACE
  1

  0
ENDBLK
  5
2A
330
15
100
AcDbEntity
 67
     1
  8
0
100
AcDbBlockEnd
  0
ENDSEC
  0
SECTION
  2
ENTITIES
  0
LWPOLYLINE
  5
3A
330
18
100
AcDbEntity
  8
0
100
AcDbPolyline
 90
       96
 70
     1
 43
0.0
 10
0.6506314493218337
 20
0.6712401448819997
 42
0.4082753628507052
 10
0.681875
 20
0.640625
 10
0.6912500000000002
 20
0.640625
 42
0.4142135623730951
 10
0.7068750000000002
 20
0.65625
 10
0.7068749999999988
 20
0.7187499999999999
 42
0.651041666666686
 10
0.706875
 20
0.7667500000000029
 10
0.706875
 20
1.755625
 10
0.696875
 20
1.765625
 10
0.706875
 20
1.775624999999999
 10
0.706875
 20
2.015625
 10
0.75375
 20
2.015625
 42
0.4142135623730951
 10
0.769375
 20
2.03125
 10
0.769375
 20
2.046875
 42
0.4142135623730951
 10
0.738125
 20
2.078125
 10
0.7225
 20
2.078125
 42
-0.4142135623730951
 10
0.706875
 20
2.09375
 10
0.706875
 20
2.25
 42
-0.4142135623730981
 10
0.7225000000000002
 20
2.265625
 10
0.8387499999999999
 20
2.265624999999999
 42
-0.4142135623730933
 10
0.8543749999999999
 20
2.249999999999999
 10
0.8543750000000001
 20
2.134124999999999
 42
0.2936636650275312
 10
0.9303872357749668
 20
2.015865449375192
 10
0.94921875
 20
2.048482588796406
 42
-0.7673269879789594
 10
0.9843750000000003
 20
2.179687499999999
 42
-0.7673269879789594
 10
1.019531249999991
 20
2.048482588796422
 10
1.038362764225035
 20
2.015865449375189
 42
0.2936636650275312
 10
1.114374999999999
 20
2.134124999999999
 10
1.114375
 20
2.249999999999999
 42
-0.4142135623730933
 10
1.13
 20
2.265624999999999
 10
1.24625
 20
2.265625
 42
-0.4142135623730981
 10
1.261875
 20
2.25
 10
1.261875
 20
2.09375
 42
-0.4142135623730951
 10
1.24625
 20
2.078125
 10
1.230625
 20
2.078125
 42
0.4142135623730951
 10
1.199375
 20
2.046875
 10
1.199375
 20
2.03125
 42
0.4142135623730951
 10
1.215
 20
2.015625
 10
1.261875
 20
2.015625
 10
1.261875000000001
 20
0.7667500000000008
 42
0.651041666666686
 10
1.261875
 20
0.7187499999999974
 10
1.261874999999999
 20
0.65625
 42
0.4142135623730951
 10
1.277499999999999
 20
0.640625
 10
1.286875
 20
0.640625
 42
0.408275362850705
 10
1.318118550678172
 20
0.6712401448819767
 42
0.0101587301587304
 10
1.318118550678172
 20
2.641259855118001
 42
0.4082753628507073
 10
1.286875
 20
2.671875
 10
1.183125000000001
 20
2.671875
 42
0.414213562373095
 10
1.151875000000001
 20
2.640625
 10
1.151875
 20
2.5625
 42
0.414213562373096
 10
1.1675
 20
2.546875
 10
1.19875
 20
2.546875
 42
0.4142135623730941
 10
1.214375
 20
2.5625
 10
1.214375000000001
 20
2.59375
 42
-0.4142135623730937
 10
1.230000000000001
 20
2.609375
 10
1.24625
 20
2.609375
 42
-0.4142135623730954
 10
1.261875
 20
2.59375
 10
1.261875
 20
2.343749999999999
 42
-0.4142135623730948
 10
1.24625
 20
2.328124999999999
 10
1.229999999999999
 20
2.328125
 42
-0.414213562373096
 10
1.214374999999999
 20
2.34375
 10
1.214374999999999
 20
2.374999999999999
 42
0.4142135623730959
 10
1.198749999999999
 20
2.390624999999999
 10
1.1675
 20
2.390625
 42
0.4142135623730966
 10
1.151875
 20
2.375
 10
1.151874999999999
 20
2.343749999999999
 42
-0.4142135623730937
 10
1.136249999999999
 20
2.328124999999999
 10
1.0675
 20
2.328125
 42
0.4142135623730951
 10
1.051875
 20
2.3125
 10
1.051875
 20
2.281249999999999
 42
-0.414213562373093
 10
1.03625
 20
2.265624999999999
 10
0.9325000000000001
 20
2.265624999999999
 42
-0.414213562373093
 10
0.9168750000000001
 20
2.281249999999999
 10
0.9168750000000001
 20
2.3125
 42
0.4142135623730951
 10
0.9012500000000001
 20
2.328125
 10
0.8325000000000002
 20
2.328124999999999
 42
-0.4142135623730937
 10
0.8168750000000002
 20
2.343749999999999
 10
0.8168749999999999
 20
2.375
 42
0.4142135623730966
 10
0.8012499999999997
 20
2.390625
 10
0.7700000000000001
 20
2.390624999999999
 42
0.4142135623730959
 10
0.7543750000000003
 20
2.374999999999999
 10
0.7543750000000005
 20
2.34375
 42
-0.414213562373096
 10
0.7387500000000005
 20
2.328125
 10
0.7225
 20
2.328124999999999
 42
-0.4142135623730948
 10
0.706875
 20
2.343749999999999
 10
0.7068749999999997
 20
2.59375
 42
-0.4142135623730954
 10
0.7224999999999997
 20
2.609375
 10
0.7387499999999992
 20
2.609375
 42
-0.4142135623730937
 10
0.7543749999999992
 20
2.59375
 10
0.7543749999999996
 20
2.5625
 42
0.4142135623730941
 10
0.7699999999999996
 20
2.546875
 10
0.8012499999999995
 20
2.546875
 42
0.414213562373096
 10
0.8168749999999995
 20
2.5625
 10
0.8168749999999992
 20
2.640625
 42
0.414213562373095
 10
0.7856249999999992
 20
2.671875
 10
0.681875
 20
2.671874999999999
 42
0.4082753628507073
 10
0.6506314493218337
 20
2.641259855118
 42
0.0101587301587302
  0
TEXT
  5
411
330
18
100
AcDbEntity
  8
TEXT
100
AcDbText
 10
-0.0555941557964952
 20
0.220410809931328
 30
0.0
 40
0.125
  1
PART #130025
  7
ITALICC
 72
     1
 11
0.7003582251558856
 21
0.220410809931328
 31
0.0
100
AcDbText
  0
LWPOLYLINE
  5
412
330
18
100
AcDbEntity
  8
TEXT
100
AcDbPolyline
 90
        3
 70
     0
 43
0.0
 10
0.3313174188796495
 20
0.0403338185682634
 10
0.2130172600636051
 20
0.0403338185682634
 10
0.2130172600636051
 20
0.0131663218073674
 42
-1.960274751411753
  0
LWPOLYLINE
  5
413
330
18
100
AcDbEntity
  8
TEXT
100
AcDbPolyline
 90
        4
 70
     0
 43
0.0
 10
0.2961830683354396
 20
-0.0314966652546156
 10
0.2961830683354396
 20
-0.2261392144202512
 10
0.3646613516232975
 20
-0.2261392144202512
 10
0.3646613516232975
 20
-0.182648269469813
 42
-1.714843617202739
  0
LWPOLYLINE
  5
414
330
18
100
AcDbEntity
  8
TEXT
100
AcDbPolyline
 90
        2
 70
     0
 43
0.0001332181640625
 10
-0.8024976133486028
 20
-0.1994588767442389
 10
-0.8624457871767265
 20
-0.1395107029161133
  0
LWPOLYLINE
  5
415
330
18
100
AcDbEntity
  8
TEXT
100
AcDbPolyline
 90
        3
 70
     0
 43
0.0006660908203125
 10
-0.8890894199892276
 20
-0.1994588767442389
 10
-0.8024976133486028
 20
-0.1994588767442389
 10
-0.8024976133486028
 20
-0.1128670701036123
  0
LWPOLYLINE
  5
416
330
18
100
AcDbEntity
  8
TEXT
100
AcDbPolyline
 90
        3
 70
     0
 43
0.0006660908203125
 10
-0.8890894199892276
 20
-0.2261025095567399
 10
-0.7758539805361018
 20
-0.2261025095567399
 10
-0.7758539805361018
 20
-0.1128670701036123
  0
LWPOLYLINE
  5
417
330
18
100
AcDbEntity
  8
TEXT
100
AcDbPolyline
 90
        2
 70
     0
 43
0.0001332181640625
 10
-0.7758539805361018
 20
-0.1128670701036123
 10
-0.8491239707704778
 20
-0.1028757077989271
  0
LWPOLYLINE
  5
418
330
18
100
AcDbEntity
  8
TEXT
100
AcDbPolyline
 90
        2
 70
     0
 43
0.0001332181640625
 10
-0.8024976133486028
 20
-0.1128670701036123
 10
-0.8624457871767265
 20
-0.1028757077989271
  0
LWPOLYLINE
  5
419
330
18
100
AcDbEntity
  8
TEXT
100
AcDbPolyline
 90
        2
 70
     0
 43
0.0001332181640625
 10
-1.015646675848604
 20
-0.1994588767442389
 10
-0.9556985020204766
 20
-0.1395107029161133
  0
LWPOLYLINE
  5
41A
330
18
100
AcDbEntity
  8
TEXT
100
AcDbPolyline
 90
        2
 70
     0
 43
0.0001332181640625
 10
-1.015646675848604
 20
-0.1128670701036123
 10
-0.9556985020204766
 20
-0.1028757077989271
  0
LWPOLYLINE
  5
41B
330
18
100
AcDbEntity
  8
TEXT
100
AcDbPolyline
 90
        3
 70
     0
 43
0.0006660908203125
 10
-1.042290308661101
 20
-0.1128670701036123
 10
-1.042290308661101
 20
-0.2261025095567399
 10
-0.9290548692079791
 20
-0.2261025095567399
  0
LWPOLYLINE
  5
41C
330
18
100
AcDbEntity
  8
TEXT
100
AcDbPolyline
 90
        3
 70
     0
 43
0.0006660908203125
 10
-1.015646675848604
 20
-0.1128670701036123
 10
-1.015646675848604
 20
-0.1994588767442389
 10
-0.9290548692079791
 20
-0.1994588767442389
  0
LWPOLYLINE
  5
41D
330
18
100
AcDbEntity
  8
TEXT
100
AcDbPolyline
 90
        5
 70
     0
 43
0.0001332181640625
 10
-0.9190635069032886
 20
-0.1528325193223639
 10
-0.9190635069032886
 20
-0.1395107029161133
 10
-0.9556985020204766
 20
-0.1395107029161133
 10
-0.9556985020204766
 20
-0.1028757077989271
 10
-0.9690203184267272
 20
-0.1028757077989271
  0
LWPOLYLINE
  5
41E
330
18
100
AcDbEntity
  8
TEXT
100
AcDbPolyline
 90
        2
 70
     0
 43
0.0006660908203125
 10
-1.015646675848604
 20
-0.1128670701036123
 10
-1.042290308661101
 20
-0.1128670701036123
  0
LWPOLYLINE
  5
41F
330
18
100
AcDbEntity
  8
TEXT
100
AcDbPolyline
 90
        2
 70
     0
 43
0.0001332181640625
 10
-0.9690203184267272
 20
-0.1028757077989271
 10
-1.042290308661101
 20
-0.1128670701036123
  0
LWPOLYLINE
  5
420
330
18
100
AcDbEntity
  8
TEXT
100
AcDbPolyline
 90
        2
 70
     0
 43
0.0006660908203125
 10
-0.9290548692079791
 20
-0.1994588767442389
 10
-0.9290548692079791
 20
-0.2261025095567399
  0
LWPOLYLINE
  5
421
330
18
100
AcDbEntity
  8
TEXT
100
AcDbPolyline
 90
        2
 70
     0
 43
0.0001332181640625
 10
-0.9290548692079791
 20
-0.1994588767442389
 10
-0.9190635069032886
 20
-0.1395107029161133
  0
LWPOLYLINE
  5
422
330
18
100
AcDbEntity
  8
TEXT
100
AcDbPolyline
 90
        2
 70
     0
 43
0.0001332181640625
 10
-0.9290548692079791
 20
-0.2261025095567399
 10
-0.9190635069032886
 20
-0.1528325193223639
  0
LWPOLYLINE
  5
423
330
18
100
AcDbEntity
  8
TEXT
100
AcDbPolyline
 90
        2
 70
     0
 43
0.0001332181640625
 10
-0.8890894199892276
 20
-0.1994588767442389
 10
-0.8990807822939164
 20
-0.1395107029161133
  0
LWPOLYLINE
  5
424
330
18
100
AcDbEntity
  8
TEXT
100
AcDbPolyline
 90
        2
 70
     0
 43
0.0001332181640625
 10
-0.8990807822939164
 20
-0.1528325193223639
 10
-0.8890894199892276
 20
-0.2261025095567399
  0
LWPOLYLINE
  5
425
330
18
100
AcDbEntity
  8
TEXT
100
AcDbPolyline
 90
        2
 70
     0
 43
0.0006660908203125
 10
-0.8890894199892276
 20
-0.1994588767442389
 10
-0.8890894199892276
 20
-0.2261025095567399
  0
LWPOLYLINE
  5
426
330
18
100
AcDbEntity
  8
TEXT
100
AcDbPolyline
 90
        5
 70
     0
 43
0.0001332181640625
 10
-0.8491239707704778
 20
-0.1028757077989271
 10
-0.8624457871767265
 20
-0.1028757077989271
 10
-0.8624457871767265
 20
-0.1395107029161133
 10
-0.8990807822939164
 20
-0.1395107029161133
 10
-0.8990807822939164
 20
-0.1528325193223639
  0
LWPOLYLINE
  5
427
330
18
100
AcDbEntity
  8
TEXT
100
AcDbPolyline
 90
        2
 70
     0
 43
0.0006660908203125
 10
-0.8024976133486028
 20
-0.1128670701036123
 10
-0.7758539805361018
 20
-0.1128670701036123
  0
LWPOLYLINE
  5
428
330
18
100
AcDbEntity
  8
TEXT
100
AcDbPolyline
 90
        3
 70
     0
 43
0.0006660908203125
 10
-0.7758539805361018
 20
-0.0729016208848643
 10
-0.7758539805361018
 20
0.0403338185682634
 10
-0.8890894199892276
 20
0.0403338185682634
  0
LWPOLYLINE
  5
429
330
18
100
AcDbEntity
  8
TEXT
100
AcDbPolyline
 90
        3
 70
     0
 43
0.0006660908203125
 10
-0.8024976133486028
 20
-0.0729016208848643
 10
-0.8024976133486028
 20
0.0136901857557623
 10
-0.8890894199892276
 20
0.0136901857557623
  0
LWPOLYLINE
  5
42A
330
18
100
AcDbEntity
  8
TEXT
100
AcDbPolyline
 90
        2
 70
     0
 43
0.0001332181640625
 10
-0.8491239707704778
 20
-0.0828929831895531
 10
-0.7758539805361018
 20
-0.0729016208848643
  0
LWPOLYLINE
  5
42B
330
18
100
AcDbEntity
  8
TEXT
100
AcDbPolyline
 90
        2
 70
     0
 43
0.0001332181640625
 10
-0.8024976133486028
 20
-0.0729016208848643
 10
-0.8624457871767265
 20
-0.0828929831895531
  0
LWPOLYLINE
  5
42C
330
18
100
AcDbEntity
  8
TEXT
100
AcDbPolyline
 90
        2
 70
     0
 43
0.0001332181640625
 10
-0.8024976133486028
 20
0.0136901857557623
 10
-0.8624457871767265
 20
-0.0462579880723633
  0
LWPOLYLINE
  5
42D
330
18
100
AcDbEntity
  8
TEXT
100
AcDbPolyline
 90
        2
 70
     0
 43
0.0001332181640625
 10
-1.015646675848604
 20
0.0136901857557623
 10
-0.9556985020204784
 20
-0.0462579880723633
  0
LWPOLYLINE
  5
42E
330
18
100
AcDbEntity
  8
TEXT
100
AcDbPolyline
 90
        2
 70
     0
 43
0.0001332181640625
 10
-1.015646675848604
 20
-0.0729016208848643
 10
-0.9556985020204784
 20
-0.0828929831895531
  0
LWPOLYLINE
  5
42F
330
18
100
AcDbEntity
  8
TEXT
100
AcDbPolyline
 90
        3
 70
     0
 43
0.0006660908203125
 10
-0.9290548692079791
 20
0.0403338185682634
 10
-1.042290308661101
 20
0.0403338185682634
 10
-1.042290308661101
 20
-0.0729016208848643
  0
LWPOLYLINE
  5
430
330
18
100
AcDbEntity
  8
TEXT
100
AcDbPolyline
 90
        3
 70
     0
 43
0.0006660908203125
 10
-0.9290548692079791
 20
0.0136901857557623
 10
-1.015646675848604
 20
0.0136901857557623
 10
-1.015646675848604
 20
-0.0729016208848643
  0
LWPOLYLINE
  5
431
330
18
100
AcDbEntity
  8
TEXT
100
AcDbPolyline
 90
        5
 70
     0
 43
0.0001332181640625
 10
-0.9690203184267272
 20
-0.0828929831895531
 10
-0.9556985020204784
 20
-0.0828929831895531
 10
-0.9556985020204784
 20
-0.0462579880723633
 10
-0.9190635069032886
 20
-0.0462579880723633
 10
-0.9190635069032886
 20
-0.0329361716661163
  0
LWPOLYLINE
  5
432
330
18
100
AcDbEntity
  8
TEXT
100
AcDbPolyline
 90
        2
 70
     0
 43
0.0001332181640625
 10
-1.042290308661101
 20
-0.0729016208848643
 10
-0.9690203184267272
 20
-0.0828929831895531
  0
LWPOLYLINE
  5
433
330
18
100
AcDbEntity
  8
TEXT
100
AcDbPolyline
 90
        2
 70
     0
 43
0.0006660908203125
 10
-1.015646675848604
 20
-0.0729016208848643
 10
-1.042290308661101
 20
-0.0729016208848643
  0
LWPOLYLINE
  5
434
330
18
100
AcDbEntity
  8
TEXT
100
AcDbPolyline
 90
        2
 70
     0
 43
0.0006660908203125
 10
-0.9290548692079791
 20
0.0136901857557623
 10
-0.9290548692079791
 20
0.0403338185682634
  0
LWPOLYLINE
  5
435
330
18
100
AcDbEntity
  8
TEXT
100
AcDbPolyline
 90
        2
 70
     0
 43
0.0001332181640625
 10
-0.9190635069032886
 20
-0.0329361716661163
 10
-0.9290548692079791
 20
0.0403338185682634
  0
LWPOLYLINE
  5
436
330
18
100
AcDbEntity
  8
TEXT
100
AcDbPolyline
 90
        2
 70
     0
 43
0.0001332181640625
 10
-0.9290548692079791
 20
0.0136901857557623
 10
-0.9190635069032886
 20
-0.0462579880723633
  0
LWPOLYLINE
  5
437
330
18
100
AcDbEntity
  8
TEXT
100
AcDbPolyline
 90
        5
 70
     0
 43
0.0001332181640625
 10
-0.8990807822939164
 20
-0.0329361716661163
 10
-0.8990807822939164
 20
-0.0462579880723633
 10
-0.8624457871767265
 20
-0.0462579880723633
 10
-0.8624457871767265
 20
-0.0828929831895531
 10
-0.8491239707704778
 20
-0.0828929831895531
  0
LWPOLYLINE
  5
438
330
18
100
AcDbEntity
  8
TEXT
100
AcDbPolyline
 90
        2
 70
     0
 43
0.0006660908203125
 10
-0.8890894199892276
 20
0.0136901857557623
 10
-0.8890894199892276
 20
0.0403338185682634
  0
LWPOLYLINE
  5
439
330
18
100
AcDbEntity
  8
TEXT
100
AcDbPolyline
 90
        2
 70
     0
 43
0.0001332181640625
 10
-0.8890894199892276
 20
0.0136901857557623
 10
-0.8990807822939164
 20
-0.0462579880723633
  0
LWPOLYLINE
  5
43A
330
18
100
AcDbEntity
  8
TEXT
100
AcDbPolyline
 90
        2
 70
     0
 43
0.0001332181640625
 10
-0.8890894199892276
 20
0.0403338185682634
 10
-0.8990807822939164
 20
-0.0329361716661163
  0
LWPOLYLINE
  5
43B
330
18
100
AcDbEntity
  8
TEXT
100
AcDbPolyline
 90
        2
 70
     0
 43
0.0006660908203125
 10
-0.8024976133486028
 20
-0.0729016208848643
 10
-0.7758539805361018
 20
-0.0729016208848643
  0
LINE
  5
43C
330
18
100
AcDbEntity
  8
TEXT
100
AcDbLine
 10
-0.1543737658809148
 20
-0.2061807083152383
 30
0.0
 11
-0.0570740597874702
 21
-0.0418304973799701
 31
0.0
  0
LINE
  5
43D
330
18
100
AcDbEntity
  8
TEXT
100
AcDbLine
 10
-0.1447735288839604
 20
-0.0605381775448608
 30
0.0
 11
-0.2034038499158983
 21
0.0403338185682598
 31
0.0
  0
LINE
  5
43E
330
18
100
AcDbEntity
  8
TEXT
100
AcDbLine
 10
-0.3388341896591056
 20
-0.0239428760885057
 30
0.0
 11
-0.3388341896591056
 21
-0.1663468230822014
 31
0.0
  0
LWPOLYLINE
  5
43F
330
18
100
AcDbEntity
  8
TEXT
100
AcDbPolyline
 90
        6
 70
     1
 43
0.0
 10
-0.2424237786038503
 20
-0.0239428760885057
 10
-0.2727403728240585
 20
-0.0239428760885057
 10
-0.2727403728240585
 20
-0.1470538741434
 42
0.407328721240804
 10
-0.2611967216625821
 20
-0.1588727888197861
 10
-0.2005750226178513
 20
-0.1588727888197861
 10
-0.1831096822105333
 20
-0.1260605597763069
  0
ARC
  5
440
330
18
100
AcDbEntity
  8
TEXT
100
AcDbCircle
 10
-0.5109771738023241
 20
-0.041753640878242
 30
0.0
 40
0.0820874594465043
100
AcDbArc
 50
90.0
 51
270.0
  0
ARC
  5
441
330
18
100
AcDbEntity
  8
TEXT
100
AcDbCircle
 10
-0.440139707443775
 20
-0.1429434060596941
 30
0.0
 40
0.0831958083605586
100
AcDbArc
 50
270.0
 51
90.0
  0
LINE
  5
442
330
18
100
AcDbEntity
  8
TEXT
100
AcDbLine
 10
-0.5109771738023241
 20
-0.1238411003247473
 30
0.0
 11
-0.4351993335374953
 21
-0.1238411003247473
 31
0.0
  0
LINE
  5
443
330
18
100
AcDbEntity
  8
TEXT
100
AcDbLine
 10
-0.5930646332488277
 20
-0.2261392144202512
 30
0.0
 11
-0.440139707443775
 21
-0.2261392144202512
 31
0.0
  0
LINE
  5
444
330
18
100
AcDbEntity
  8
TEXT
100
AcDbLine
 10
-0.4351993335374953
 20
-0.1577822080868119
 30
0.0
 11
-0.5930646332488294
 21
-0.1577822080868119
 31
0.0
  0
LINE
  5
445
330
18
100
AcDbEntity
  8
TEXT
100
AcDbLine
 10
-0.5930646332488294
 20
-0.1577822080868119
 30
0.0
 11
-0.5930646332488277
 21
-0.2261392144202512
 31
0.0
  0
ARC
  5
446
330
18
100
AcDbEntity
  8
TEXT
100
AcDbCircle
 10
-0.4351993335374953
 20
-0.1408116542057778
 30
0.0
 40
0.0169705538810321
100
AcDbArc
 50
270.0
 51
90.0
  0
LINE
  5
447
330
18
100
AcDbEntity
  8
TEXT
100
AcDbLine
 10
-0.2849475821789999
 20
-0.2261392144202512
 30
0.0
 11
-0.1883073311040055
 21
-0.2258685753219689
 31
0.0
  0
ARC
  5
448
330
18
100
AcDbEntity
  8
TEXT
100
AcDbCircle
 10
-0.2787181716853535
 20
-0.1663468230822014
 30
0.0
 40
0.0601160179737537
100
AcDbArc
 50
180.0000000000003
 51
264.0521544866073
  0
ARC
  5
449
330
18
100
AcDbEntity
  8
TEXT
100
AcDbCircle
 10
-0.1884173257931287
 20
-0.1865914921465554
 30
0.0
 40
0.0392772371940762
100
AcDbArc
 50
270.1604552698595
 51
330.0831797321295
  0
LINE
  5
44A
330
18
100
AcDbEntity
  8
TEXT
100
AcDbLine
 10
-0.505739843688076
 20
-0.0239428760885057
 30
0.0
 11
-0.3388341896591056
 21
-0.0239428760885057
 31
0.0
  0
LINE
  5
44B
330
18
100
AcDbEntity
  8
TEXT
100
AcDbLine
 10
-0.3352454209038127
 20
0.0403338185682598
 30
0.0
 11
-0.5109771738023241
 21
0.0403338185682598
 31
0.0
  0
LINE
  5
44C
330
18
100
AcDbEntity
  8
TEXT
100
AcDbLine
 10
-0.440139707443775
 20
-0.0597475976991335
 30
0.0
 11
-0.505739843688076
 21
-0.0597475976991335
 31
0.0
  0
ARC
  5
44D
330
18
100
AcDbEntity
  8
TEXT
100
AcDbCircle
 10
-0.505739843688076
 20
-0.0418452368938178
 30
0.0
 40
0.017902360805315
100
AcDbArc
 50
90.0
 51
270.0
  0
LINE
  5
44E
330
18
100
AcDbEntity
  8
TEXT
100
AcDbLine
 10
-0.2034038499158983
 20
0.0403338185682598
 30
0.0
 11
-0.2752028160598057
 21
0.0403338185682598
 31
0.0
  0
LINE
  5
44F
330
18
100
AcDbEntity
  8
TEXT
100
AcDbLine
 10
-0.2752028160598057
 20
0.0403338185682598
 30
0.0
 11
-0.2752028160598057
 21
0.074721736162398
 31
0.0
  0
LINE
  5
450
330
18
100
AcDbEntity
  8
TEXT
100
AcDbLine
 10
-0.3352454209038127
 20
0.074721736162398
 30
0.0
 11
-0.3352454209038127
 21
0.0403338185682598
 31
0.0
  0
LINE
  5
451
330
18
100
AcDbEntity
  8
TEXT
100
AcDbLine
 10
-0.2752028160598057
 20
0.074721736162398
 30
0.0
 11
-0.3352454209038127
 21
0.074721736162398
 31
0.0
  0
LINE
  5
452
330
18
100
AcDbEntity
  8
TEXT
100
AcDbLine
 10
0.2344956822483768
 20
-0.2261392144202512
 30
0.0
 11
0.2344956822483768
 21
-0.0239428760885057
 31
0.0
  0
LINE
  5
453
330
18
100
AcDbEntity
  8
TEXT
100
AcDbLine
 10
0.1674376354665368
 20
-0.0314966652546156
 30
0.0
 11
0.1674376354665368
 21
-0.2261392144202512
 31
0.0
  0
LINE
  5
454
330
18
100
AcDbEntity
  8
TEXT
100
AcDbLine
 10
0.0109056592816463
 20
-0.143751376317252
 30
0.0
 11
0.0109056592816463
 21
0.1083452963070703
 31
0.0
  0
LINE
  5
455
330
18
100
AcDbEntity
  8
TEXT
100
AcDbLine
 10
0.0432175134193065
 20
0.0403338185682598
 30
0.0
 11
0.0432175134193065
 21
-0.1605303881641484
 31
0.0
  0
LINE
  5
456
330
18
100
AcDbEntity
  8
TEXT
100
AcDbLine
 10
0.1100485664772757
 20
-0.2261392144202512
 30
0.0
 11
0.1100485664772757
 21
-0.0239428760885057
 31
0.0
  0
LINE
  5
457
330
18
100
AcDbEntity
  8
TEXT
100
AcDbLine
 10
-0.0570740597874702
 20
-0.0418304973799701
 30
0.0
 11
-0.0570740597874702
 21
-0.1745878722053264
 31
0.0
  0
LINE
  5
458
330
18
100
AcDbEntity
  8
TEXT
100
AcDbLine
 10
0.0120452327778411
 20
-0.2261392144202512
 30
0.0
 11
0.1100485664772757
 21
-0.2261392144202512
 31
0.0
  0
LWPOLYLINE
  5
459
330
18
100
AcDbEntity
  8
TEXT
100
AcDbPolyline
 90
        2
 70
     0
 43
0.0
 10
-0.0570740597874711
 20
-0.1745878722053229
 42
0.3318488747599744
 10
0.012045232777842
 20
-0.2261392144202512
 42
-6.868794160588311
  0
ARC
  5
45A
330
18
100
AcDbEntity
  8
TEXT
100
AcDbCircle
 10
0.0262238765347043
 20
-0.145148581920723
 30
0.0
 40
0.0153818062434269
100
AcDbArc
 50
174.7883570302258
 51
270.0
  0
LINE
  5
45B
330
18
100
AcDbEntity
  8
TEXT
100
AcDbLine
 10
0.0432175134193065
 20
-0.1605303881641484
 30
0.0
 11
0.0262238765347052
 21
-0.1605303881641484
 31
0.0
  0
LINE
  5
45C
330
18
100
AcDbEntity
  8
TEXT
100
AcDbLine
 10
0.1674376354665368
 20
-0.2261392144202512
 30
0.0
 11
0.2344956822483768
 21
-0.2261392144202512
 31
0.0
  0
LINE
  5
45D
330
18
100
AcDbEntity
  8
TEXT
100
AcDbLine
 10
0.1772355693504428
 20
0.0403338185682598
 30
0.0
 11
0.0432175134193065
 21
0.0403338185682598
 31
0.0
  0
LINE
  5
45E
330
18
100
AcDbEntity
  8
TEXT
100
AcDbLine
 10
-0.0559030532847187
 20
0.1083452963070703
 30
0.0
 11
-0.0559030532847187
 21
0.0403338185682598
 31
0.0
  0
LINE
  5
45F
330
18
100
AcDbEntity
  8
TEXT
100
AcDbLine
 10
-0.0559030532847187
 20
0.0403338185682598
 30
0.0
 11
-0.086024966078095
 21
0.0403338185682598
 31
0.0
  0
LINE
  5
460
330
18
100
AcDbEntity
  8
TEXT
100
AcDbLine
 10
-0.086024966078095
 20
0.0403338185682598
 30
0.0
 11
-0.1447735288839604
 21
-0.0605381775448608
 31
0.0
  0
LINE
  5
461
330
18
100
AcDbEntity
  8
TEXT
100
AcDbLine
 10
0.0109056592816463
 20
0.1083452963070703
 30
0.0
 11
-0.0559030532847187
 21
0.1083452963070703
 31
0.0
  0
LWPOLYLINE
  5
462
330
18
100
AcDbEntity
  8
TEXT
100
AcDbPolyline
 90
        2
 70
     0
 43
0.0
 10
0.1772355693504437
 20
0.0403338185682634
 42
-0.3328679258950098
 10
0.2130172600636051
 20
0.0131663218073674
 42
6.772930709997214
  0
LINE
  5
463
330
18
100
AcDbEntity
  8
TEXT
100
AcDbLine
 10
0.1100485664772757
 20
-0.0239428760885057
 30
0.0
 11
0.1598838463004233
 21
-0.0239428760885057
 31
0.0
  0
LWPOLYLINE
  5
464
330
18
100
AcDbEntity
  8
TEXT
100
AcDbPolyline
 90
        2
 70
     0
 43
0.0
 10
0.1598838463004224
 20
-0.0239428760885057
 42
-0.4142135623731017
 10
0.1674376354665359
 20
-0.0314966652546156
 42
-0.9999999999999998
  0
LWPOLYLINE
  5
465
330
18
100
AcDbEntity
  8
TEXT
100
AcDbPolyline
 90
        2
 70
     0
 43
0.0
 10
0.2886292791693261
 20
-0.0239428760885057
 42
-0.4142135623731017
 10
0.2961830683354396
 20
-0.0314966652546156
 42
-0.9999999999999998
  0
LINE
  5
466
330
18
100
AcDbEntity
  8
TEXT
100
AcDbLine
 10
0.2344956822483768
 20
-0.0239428760885057
 30
0.0
 11
0.288629279169327
 21
-0.0239428760885057
 31
0.0
  0
TEXT
  5
467
330
18
100
AcDbEntity
  8
TEXT
100
AcDbText
 10
1.113663383406207
 20
-0.2265118327410471
 30
0.0
 40
0.0522247191011236
  1
Phone  1-800-328-2495
 41
1.272321428571429
 72
     5
 11
2.44259596767587
 21
-0.2265118327410471
 31
0.0
100
AcDbText
  0
TEXT
  5
468
330
18
100
AcDbEntity
  8
TEXT
100
AcDbText
 10
1.113663383406207
 20
0.0532634481578294
 30
0.0
 40
0.0522247191011236
  1
Stylmark  Incorporated
 41
1.221428571428571
 72
     5
 11
2.44259596767587
 21
0.0532634481578294
 31
0.0
100
AcDbText
  0
TEXT
  5
469
330
18
100
AcDbEntity
  8
TEXT
100
AcDbText
 10
1.113663383406207
 20
-0.0399949788084628
 30
0.0
 40
0.0522247191011236
  1
6536 Main St. N.E. * P.O. Box 32008
 41
0.8388932496075353
 72
     5
 11
2.44259596767587
 21
-0.0399949788084628
 31
0.0
100
AcDbText
  0
TEXT
  5
46A
330
18
100
AcDbEntity
  8
TEXT
100
AcDbText
 10
1.113663383406207
 20
-0.133253405774755
 30
0.0
 40
0.0522247191011236
  1
Minneapolis, MN 55432-0008
 41
1.11444212721585
 72
     5
 11
2.44259596767587
 21
-0.133253405774755
 31
0.0
100
AcDbText
  0
LINE
  5
46B
330
18
100
AcDbEntity
  8
TEXT
100
AcDbLine
 10
0.8085746966232845
 20
0.1057980243358605
 30
0.0
 11
0.7402598180740112
 21
0.1057980243358605
 31
0.0
  0
LINE
  5
46C
330
18
100
AcDbEntity
  8
TEXT
100
AcDbLine
 10
0.7447397054005114
 20
-0.2261392144202512
 30
0.0
 11
0.8091178897191317
 21
-0.2261392144202512
 31
0.0
  0
LINE
  5
46D
330
18
100
AcDbEntity
  8
TEXT
100
AcDbLine
 10
0.7447397054005061
 20
-0.0239428760885057
 30
0.0
 11
0.7447397054005114
 21
-0.2261392144202512
 31
0.0
  0
LINE
  5
46E
330
18
100
AcDbEntity
  8
TEXT
100
AcDbLine
 10
0.6431858488252891
 20
-0.2261392144202512
 30
0.0
 11
0.6431858488252838
 21
-0.0488487089887828
 31
0.0
  0
LWPOLYLINE
  5
46F
330
18
100
AcDbEntity
  8
TEXT
100
AcDbPolyline
 90
        2
 70
     0
 43
0.0
 10
0.5848306349899542
 20
-0.182648269469813
 42
-0.2901071551932486
 10
0.5417547021223097
 20
-0.2261392144202512
 42
-5.328517124445184
  0
LWPOLYLINE
  5
470
330
18
100
AcDbEntity
  8
TEXT
100
AcDbPolyline
 90
        4
 70
     1
 43
0.0
 10
0.5216322370524172
 20
-0.123175236436226
 10
0.4329719183925587
 20
-0.123175236436226
 42
0.9999999999999998
 10
0.4329719183925587
 20
-0.1655737769400867
 10
0.5216322370524172
 20
-0.1655737769400867
 42
1.0
  0
LWPOLYLINE
  5
471
330
18
100
AcDbEntity
  8
TEXT
100
AcDbPolyline
 90
        2
 70
     0
 43
0.0
 10
0.4077372844909331
 20
-0.2261392144202512
 10
0.5417547021223097
 20
-0.2261392144202512
 42
0.9999999999999998
  0
LWPOLYLINE
  5
472
330
18
100
AcDbEntity
  8
TEXT
100
AcDbPolyline
 90
        2
 70
     0
 43
0.0
 10
0.3646613516232975
 20
-0.182648269469813
 42
0.2901071551932823
 10
0.4077372844909331
 20
-0.2261392144202512
 42
5.328517124445801
  0
LWPOLYLINE
  5
473
330
18
100
AcDbEntity
  8
TEXT
100
AcDbPolyline
 90
        2
 70
     0
 43
0.0
 10
0.5848306349899542
 20
-0.182648269469813
 10
0.5848306349899542
 20
-0.2261392144202512
  0
LWPOLYLINE
  5
474
330
18
100
AcDbEntity
  8
TEXT
100
AcDbPolyline
 90
        2
 70
     0
 43
0.0
 10
0.5848306349899542
 20
-0.2261392144202512
 10
0.6431858488252882
 20
-0.2261392144202512
  0
LINE
  5
475
330
18
100
AcDbEntity
  8
TEXT
100
AcDbLine
 10
0.5808909576849155
 20
-0.0648781599851676
 30
0.0
 11
0.5371401865030139
 21
0.0173721160109777
 31
0.0
  0
LINE
  5
476
330
18
100
AcDbEntity
  8
TEXT
100
AcDbLine
 10
0.472900120465396
 20
-0.0239428760885057
 30
0.0
 11
0.3656938470781066
 21
-0.0239428760885057
 31
0.0
  0
LINE
  5
477
330
18
100
AcDbEntity
  8
TEXT
100
AcDbLine
 10
0.4264132059861341
 20
-0.0612178495506379
 30
0.0
 11
0.5087011957695174
 21
-0.0612178495506379
 31
0.0
  0
LINE
  5
478
330
18
100
AcDbEntity
  8
TEXT
100
AcDbLine
 10
0.5019310188098745
 20
0.0403338185682598
 30
0.0
 11
0.3670991095928153
 21
0.0403338185682598
 31
0.0
  0
LINE
  5
479
330
18
100
AcDbEntity
  8
TEXT
100
AcDbLine
 10
0.3656938470781066
 20
-0.0239428760885057
 30
0.0
 11
0.3656938470781066
 21
-0.0989952821627123
 31
0.0
  0
ARC
  5
47A
330
18
100
AcDbEntity
  8
TEXT
100
AcDbCircle
 10
0.4264132059861332
 20
-0.1289034306947565
 30
0.0
 40
0.0676855811441166
100
AcDbArc
 50
90.0
 51
153.7768192527749
  0
LINE
  5
47B
330
18
100
AcDbEntity
  8
TEXT
100
AcDbLine
 10
0.3670991095928153
 20
0.0403338185682598
 30
0.0
 11
0.3670991095928153
 21
0.0120112727986159
 31
0.0
  0
LWPOLYLINE
  5
47C
330
18
100
AcDbEntity
  8
TEXT
100
AcDbPolyline
 90
        2
 70
     0
 43
0.0
 10
0.3313174188796495
 20
0.0403338185682634
 42
-0.3277054968067132
 10
0.3670991095928144
 20
0.0120112727986195
 42
6.667889725900311
  0
ARC
  5
47D
330
18
100
AcDbEntity
  8
TEXT
100
AcDbCircle
 10
0.4729001204653951
 20
-0.052302251088503
 30
0.0
 40
0.028359375
100
AcDbArc
 50
25.78218179591245
 51
90.0
  0
LINE
  5
47E
330
18
100
AcDbEntity
  8
TEXT
100
AcDbLine
 10
0.5087011957695174
 20
-0.0612178495506379
 30
0.0
 11
0.498436435355953
 21
-0.0399673099779436
 31
0.0
  0
ARC
  5
47F
330
18
100
AcDbEntity
  8
TEXT
100
AcDbCircle
 10
0.499904079032806
 20
-0.0012497485526426
 30
0.0
 40
0.0416329381542859
100
AcDbArc
 50
26.56974201007528
 51
87.20939649401342
  0
LINE
  5
480
330
18
100
AcDbEntity
  8
TEXT
100
AcDbLine
 10
0.7402598180740112
 20
0.1057980243358605
 30
0.0
 11
0.7402598180740059
 21
0.0403338185682598
 31
0.0
  0
LINE
  5
481
330
18
100
AcDbEntity
  8
TEXT
100
AcDbLine
 10
0.7402598180740059
 20
0.0403338185682598
 30
0.0
 11
0.6727601004244895
 21
0.0403338185682598
 31
0.0
  0
LINE
  5
482
330
18
100
AcDbEntity
  8
TEXT
100
AcDbLine
 10
0.6680917241079483
 20
-0.0239428760885057
 30
0.0
 11
0.7447397054005061
 21
-0.0239428760885057
 31
0.0
  0
LINE
  5
483
330
18
100
AcDbEntity
  8
TEXT
100
AcDbLine
 10
0.6447878639844165
 20
0.0127861687073852
 30
0.0
 11
0.6447878639844165
 21
0.0403338185682598
 31
0.0
  0
ARC
  5
484
330
18
100
AcDbEntity
  8
TEXT
100
AcDbCircle
 10
0.6759806810475251
 20
0.009088091285995
 30
0.0
 40
0.0314112657011332
100
AcDbArc
 50
95.88484768694724
 51
173.2388340632136
  0
ARC
  5
485
330
18
100
AcDbEntity
  8
TEXT
100
AcDbCircle
 10
0.6680917241079474
 20
-0.0488487513711684
 30
0.0
 40
0.0249058752826653
100
AcDbArc
 50
89.99971217465335
 51
179.9999999999985
  0
LINE
  5
486
330
18
100
AcDbEntity
  8
TEXT
100
AcDbLine
 10
0.5808909576849155
 20
0.0403338185682598
 30
0.0
 11
0.5808909576849155
 21
-0.0648781599851676
 31
0.0
  0
LINE
  5
487
330
18
100
AcDbEntity
  8
TEXT
100
AcDbLine
 10
0.6447878639844165
 20
0.0403338185682598
 30
0.0
 11
0.5808909576849155
 21
0.0403338185682598
 31
0.0
  0
LINE
  5
488
330
18
100
AcDbEntity
  8
TEXT
100
AcDbLine
 10
0.8091178897191317
 20
-0.094559645944071
 30
0.0
 11
0.8850214229305963
 21
-0.2261392144202512
 31
0.0
  0
LINE
  5
489
330
18
100
AcDbEntity
  8
TEXT
100
AcDbLine
 10
0.8091178897191317
 20
-0.2261392144202512
 30
0.0
 11
0.8091178897191317
 21
-0.094559645944071
 31
0.0
  0
LINE
  5
48A
330
18
100
AcDbEntity
  8
TEXT
100
AcDbLine
 10
0.9615997953068022
 20
-0.2261392144202512
 30
0.0
 11
0.8661075719431918
 21
-0.0695594243727138
 31
0.0
  0
LINE
  5
48B
330
18
100
AcDbEntity
  8
TEXT
100
AcDbLine
 10
0.8850214229305963
 20
-0.2261392144202512
 30
0.0
 11
0.9615997953068022
 21
-0.2261392144202512
 31
0.0
  0
LINE
  5
48C
330
18
100
AcDbEntity
  8
TEXT
100
AcDbLine
 10
0.8085746966232845
 20
-0.0355315078432783
 30
0.0
 11
0.8085746966232845
 21
0.1057980243358605
 31
0.0
  0
LINE
  5
48D
330
18
100
AcDbEntity
  8
TEXT
100
AcDbLine
 10
0.9306646879088971
 20
0.0403338185682598
 30
0.0
 11
0.8556728551792707
 21
0.0403338185682598
 31
0.0
  0
LINE
  5
48E
330
18
100
AcDbEntity
  8
TEXT
100
AcDbLine
 10
0.8661075719431918
 20
-0.0695594243727138
 30
0.0
 11
0.9306646879088971
 21
0.0403338185682598
 31
0.0
  0
LINE
  5
48F
330
18
100
AcDbEntity
  8
TEXT
100
AcDbLine
 10
0.8556728551792689
 20
0.0403338185682598
 30
0.0
 11
0.8085746966232845
 21
-0.0355315078432783
 31
0.0
  0
ENDSEC
  0
SECTION
  2
OBJECTS
  0
DICTIONARY
  5
C
330
0
100
AcDbDictionary
  3
ACAD_GROUP
350
D
  3
ACAD_LAYOUT
350
494
  3
ACAD_MLINESTYLE
350
E
  3
ACAD_PLOTSETTINGS
350
495
  3
ACAD_PLOTSTYLENAME
350
492
  3
ACDBHEADERROUNDTRIPXREC
350
4A0
  3
ACDBVARIABLEDICTIONARY
350
49D
  0
DICTIONARY
  5
4C2
330
18
100
AcDbDictionary
280
     1
  3
ACAD_LAYOUTSELFREF
360
4C3
  0
DICTIONARY
  5
4C0
330
15
100
AcDbDictionary
280
     1
  3
ACAD_LAYOUTSELFREF
360
4C1
  0
DICTIONARY
  5
D
102
{ACAD_REACTORS
330
C
102
}
330
C
100
AcDbDictionary
  0
DICTIONARY
  5
494
102
{ACAD_REACTORS
330
C
102
}
330
C
100
AcDbDictionary
  0
DICTIONARY
  5
E
102
{ACAD_REACTORS
330
C
102
}
330
C
100
AcDbDictionary
  3
STANDARD
350
1B
  0
DICTIONARY
  5
495
102
{ACAD_REACTORS
330
C
102
}
330
C
100
AcDbDictionary
  0
ACDBDICTIONARYWDFLT
  5
492
102
{ACAD_REACTORS
330
C
102
}
330
C
100
AcDbDictionary
281
     1
  3
Normal
350
493
100
AcDbDictionaryWithDefault
340
493
  0
DICTIONARY
  5
4A0
102
{ACAD_REACTORS
330
C
102
}
330
C
100
AcDbDictionary
  3
CEPSNTYPE
350
4AA
  3
FINGERPRINTGUID
350
4AB
  3
HYPERLINKBASE
350
4A3
  3
INSUNITS
350
4A9
  3
LAYOUTDICT
350
4A5
  3
LWETCUNION
350
4A8
  3
PLOTSETDICT
350
4A6
  3
PLOTSTYLNAMDICT
350
4A7
  3
PSVPSCALE
350
4AD
  3
PUCSBASE
350
4B0
  3
PUCSORGBACK
350
4B6
  3
PUCSORGBOTTOM
350
4B2
  3
PUCSORGFRONT
350
4B5
  3
PUCSORGLEFT
350
4B3
  3
PUCSORGRIGHT
350
4B4
  3
PUCSORGTOP
350
4B1
  3
PUCSORTHOREF
350
4AE
  3
PUCSORTHOVIEW
350
4AF
  3
STYLESHEET
350
4A4
  3
TSTACKALIGN
350
4A1
  3
TSTACKSIZE
350
4A2
  3
UCSBASE
350
4B9
  3
UCSORGBACK
350
4BF
  3
UCSORGBOTTOM
350
4BB
  3
UCSORGFRONT
350
4BE
  3
UCSORGLEFT
350
4BC
  3
UCSORGRIGHT
350
4BD
  3
UCSORGTOP
350
4BA
  3
UCSORTHOREF
350
4B7
  3
UCSORTHOVIEW
350
4B8
  3
VERSIONGUID
350
4AC
  0
DICTIONARY
  5
49D
102
{ACAD_REACTORS
330
C
102
}
330
C
100
AcDbDictionary
  3
DIMASSOC
350
49E
  0
XRECORD
  5
4C3
102
{ACAD_REACTORS
330
4C2
102
}
330
4C2
100
AcDbXrecord
340
18
  0
XRECORD
  5
4C1
102
{ACAD_REACTORS
330
4C0
102
}
330
4C0
100
AcDbXrecord
340
15
  0
MLINESTYLE
  5
1B
102
{ACAD_REACTORS
330
E
102
}
330
E
100
AcDbMlineStyle
  2
STANDARD
 70
     0
  3

 62
     0
 51
90.0
 52
90.0
 71
     2
 49
0.5
 62
   256
  6
BYLAYER
 49
-0.5
 62
   256
  6
BYLAYER
  0
ACDBPLACEHOLDER
  5
493
102
{ACAD_REACTORS
330
492
102
}
330
492
100
AcDbPlaceHolder
280
     0
  0
XRECORD
  5
4AA
102
{ACAD_REACTORS
330
4A0
102
}
330
4A0
100
AcDbXrecord
 90
        0
  0
XRECORD
  5
4AB
102
{ACAD_REACTORS
330
4A0
102
}
330
4A0
100
AcDbXrecord
  1
{F0E5E200-8DB9-11D6-88E6-0090279574E7}
  0
XRECORD
  5
4A3
102
{ACAD_REACTORS
330
4A0
102
}
330
4A0
100
AcDbXrecord
  1

  0
XRECORD
  5
4A9
102
{ACAD_REACTORS
330
4A0
102
}
330
4A0
100
AcDbXrecord
 90
        0
  0
XRECORD
  5
4A5
102
{ACAD_REACTORS
330
4A0
102
}
330
4A0
100
AcDbXrecord
340
494
  0
XRECORD
  5
4A8
102
{ACAD_REACTORS
330
4A0
102
}
330
4A0
100
AcDbXrecord
 90
    14877
  0
XRECORD
  5
4A6
102
{ACAD_REACTORS
330
4A0
102
}
330
4A0
100
AcDbXrecord
340
495
  0
XRECORD
  5
4A7
102
{ACAD_REACTORS
330
4A0
102
}
330
4A0
100
AcDbXrecord
340
492
  0
XRECORD
  5
4AD
102
{ACAD_REACTORS
330
4A0
102
}
330
4A0
100
AcDbXrecord
 40
0.0
  0
XRECORD
  5
4B0
102
{ACAD_REACTORS
330
4A0
102
}
330
4A0
100
AcDbXrecord
340
0
  0
XRECORD
  5
4B6
102
{ACAD_REACTORS
330
4A0
102
}
330
4A0
100
AcDbXrecord
 10
0.0
 20
0.0
 30
0.0
  0
XRECORD
  5
4B2
102
{ACAD_REACTORS
330
4A0
102
}
330
4A0
100
AcDbXrecord
 10
0.0
 20
0.0
 30
0.0
  0
XRECORD
  5
4B5
102
{ACAD_REACTORS
330
4A0
102
}
330
4A0
100
AcDbXrecord
 10
0.0
 20
0.0
 30
0.0
  0
XRECORD
  5
4B3
102
{ACAD_REACTORS
330
4A0
102
}
330
4A0
100
AcDbXrecord
 10
0.0
 20
0.0
 30
0.0
  0
XRECORD
  5
4B4
102
{ACAD_REACTORS
330
4A0
102
}
330
4A0
100
AcDbXrecord
 10
0.0
 20
0.0
 30
0.0
  0
XRECORD
  5
4B1
102
{ACAD_REACTORS
330
4A0
102
}
330
4A0
100
AcDbXrecord
 10
0.0
 20
0.0
 30
0.0
  0
XRECORD
  5
4AE
102
{ACAD_REACTORS
330
4A0
102
}
330
4A0
100
AcDbXrecord
340
0
  0
XRECORD
  5
4AF
102
{ACAD_REACTORS
330
4A0
102
}
330
4A0
100
AcDbXrecord
 70
     0
  0
XRECORD
  5
4A4
102
{ACAD_REACTORS
330
4A0
102
}
330
4A0
100
AcDbXrecord
  1

  0
XRECORD
  5
4A1
102
{ACAD_REACTORS
330
4A0
102
}
330
4A0
100
AcDbXrecord
 90
        1
  0
XRECORD
  5
4A2
102
{ACAD_REACTORS
330
4A0
102
}
330
4A0
100
AcDbXrecord
 90
       70
  0
XRECORD
  5
4B9
102
{ACAD_REACTORS
330
4A0
102
}
330
4A0
100
AcDbXrecord
340
0
  0
XRECORD
  5
4BF
102
{ACAD_REACTORS
330
4A0
102
}
330
4A0
100
AcDbXrecord
 10
0.0
 20
0.0
 30
0.0
  0
XRECORD
  5
4BB
102
{ACAD_REACTORS
330
4A0
102
}
330
4A0
100
AcDbXrecord
 10
0.0
 20
0.0
 30
0.0
  0
XRECORD
  5
4BE
102
{ACAD_REACTORS
330
4A0
102
}
330
4A0
100
AcDbXrecord
 10
0.0
 20
0.0
 30
0.0
  0
XRECORD
  5
4BC
102
{ACAD_REACTORS
330
4A0
102
}
330
4A0
100
AcDbXrecord
 10
0.0
 20
0.0
 30
0.0
  0
XRECORD
  5
4BD
102
{ACAD_REACTORS
330
4A0
102
}
330
4A0
100
AcDbXrecord
 10
0.0
 20
0.0
 30
0.0
  0
XRECORD
  5
4BA
102
{ACAD_REACTORS
330
4A0
102
}
330
4A0
100
AcDbXrecord
 10
0.0
 20
0.0
 30
0.0
  0
XRECORD
  5
4B7
102
{ACAD_REACTORS
330
4A0
102
}
330
4A0
100
AcDbXrecord
340
0
  0
XRECORD
  5
4B8
102
{ACAD_REACTORS
330
4A0
102
}
330
4A0
100
AcDbXrecord
 70
     0
  0
XRECORD
  5
4AC
102
{ACAD_REACTORS
330
4A0
102
}
330
4A0
100
AcDbXrecord
  1
{F0E5E202-8DB9-11D6-88E6-0090279574E7}
  0
DICTIONARYVAR
  5
49E
102
{ACAD_REACTORS
330
49D
102
}
330
49D
100
DictionaryVariables
280
     0
  1
1
  0
ENDSEC
  0
EOF
