  0
SECTION
  2
HEADER
  9
$ACADVER
  1
AC1014
  9
$ACADMAINTVER
 70
     9
  9
$DWGCODEPAGE
  3
ANSI_1252
  9
$INSBASE
 10
0.0
 20
0.0
 30
0.0
  9
$EXTMIN
 10
-0.7568239082706731
 20
-0.1572523363418658
 30
0.0
  9
$EXTMAX
 10
2.728395413476455
 20
1.396821972971015
 30
0.0
  9
$LIMMIN
 10
0.0
 20
0.0
  9
$LIMMAX
 10
8.5
 20
11.0
  9
$ORTHOMODE
 70
     1
  9
$REGENMODE
 70
     1
  9
$FILLMODE
 70
     1
  9
$QTEXTMODE
 70
     0
  9
$MIRRTEXT
 70
     0
  9
$DRAGMODE
 70
     2
  9
$LTSCALE
 40
1.0
  9
$OSMODE
 70
    39
  9
$ATTMODE
 70
     1
  9
$TEXTSIZE
 40
0.125
  9
$TRACEWID
 40
0.05
  9
$TEXTSTYLE
  7
ROMANS
  9
$CLAYER
  8
DIM
  9
$CELTYPE
  6
BYLAYER
  9
$CECOLOR
 62
   256
  9
$CELTSCALE
 40
1.0
  9
$DELOBJ
 70
     1
  9
$DISPSILH
 70
     1
  9
$DIMSCALE
 40
2.0
  9
$DIMASZ
 40
0.125
  9
$DIMEXO
 40
0.125
  9
$DIMDLI
 40
0.375
  9
$DIMRND
 40
0.0
  9
$DIMDLE
 40
0.0
  9
$DIMEXE
 40
0.125
  9
$DIMTP
 40
0.0
  9
$DIMTM
 40
0.0
  9
$DIMTXT
 40
0.125
  9
$DIMCEN
 40
-0.125
  9
$DIMTSZ
 40
0.0
  9
$DIMTOL
 70
     0
  9
$DIMLIM
 70
     0
  9
$DIMTIH
 70
     1
  9
$DIMTOH
 70
     1
  9
$DIMSE1
 70
     0
  9
$DIMSE2
 70
     0
  9
$DIMTAD
 70
     0
  9
$DIMZIN
 70
     4
  9
$DIMBLK
  1

  9
$DIMASO
 70
     1
  9
$DIMSHO
 70
     1
  9
$DIMPOST
  1

  9
$DIMAPOST
  1

  9
$DIMALT
 70
     0
  9
$DIMALTD
 70
     2
  9
$DIMALTF
 40
25.4
  9
$DIMLFAC
 40
0.25
  9
$DIMTOFL
 70
     0
  9
$DIMTVP
 40
0.0
  9
$DIMTIX
 70
     1
  9
$DIMSOXD
 70
     0
  9
$DIMSAH
 70
     0
  9
$DIMBLK1
  1

  9
$DIMBLK2
  1

  9
$DIMSTYLE
  2
STANDARD
  9
$DIMCLRD
 70
     0
  9
$DIMCLRE
 70
     0
  9
$DIMCLRT
 70
     0
  9
$DIMTFAC
 40
1.0
  9
$DIMGAP
 40
0.09
  9
$DIMJUST
 70
     0
  9
$DIMSD1
 70
     0
  9
$DIMSD2
 70
     0
  9
$DIMTOLJ
 70
     1
  9
$DIMTZIN
 70
     0
  9
$DIMALTZ
 70
     0
  9
$DIMALTTZ
 70
     0
  9
$DIMFIT
 70
     3
  9
$DIMUPT
 70
     0
  9
$DIMUNIT
 70
     2
  9
$DIMDEC
 70
     3
  9
$DIMTDEC
 70
     4
  9
$DIMALTU
 70
     2
  9
$DIMALTTD
 70
     2
  9
$DIMTXSTY
  7
ROMANS
  9
$DIMAUNIT
 70
     0
  9
$LUNITS
 70
     2
  9
$LUPREC
 70
     3
  9
$SKETCHINC
 40
0.1
  9
$FILLETRAD
 40
0.0
  9
$AUNITS
 70
     0
  9
$AUPREC
 70
     0
  9
$MENU
  1
ACAD
  9
$ELEVATION
 40
0.0
  9
$PELEVATION
 40
0.0
  9
$THICKNESS
 40
0.0
  9
$LIMCHECK
 70
     0
  9
$BLIPMODE
 70
     0
  9
$CHAMFERA
 40
0.0
  9
$CHAMFERB
 40
0.0
  9
$CHAMFERC
 40
0.0
  9
$CHAMFERD
 40
0.0
  9
$SKPOLY
 70
     0
  9
$TDCREATE
 40
2448377.551961110
  9
$TDUPDATE
 40
2452458.324913935
  9
$TDINDWG
 40
0.0682243287
  9
$TDUSRTIMER
 40
0.0682243287
  9
$USRTIMER
 70
     1
  9
$ANGBASE
 50
0.0
  9
$ANGDIR
 70
     0
  9
$PDMODE
 70
     0
  9
$PDSIZE
 40
0.0
  9
$PLINEWID
 40
0.0
  9
$COORDS
 70
     2
  9
$SPLFRAME
 70
     0
  9
$SPLINETYPE
 70
     6
  9
$SPLINESEGS
 70
     8
  9
$ATTDIA
 70
     0
  9
$ATTREQ
 70
     1
  9
$HANDLING
 70
 22529
  9
$HANDSEED
  5
42A
  9
$SURFTAB1
 70
     6
  9
$SURFTAB2
 70
     6
  9
$SURFTYPE
 70
     6
  9
$SURFU
 70
     6
  9
$SURFV
 70
     6
  9
$UCSNAME
  2

  9
$UCSORG
 10
0.0
 20
0.0
 30
0.0
  9
$UCSXDIR
 10
1.0
 20
0.0
 30
0.0
  9
$UCSYDIR
 10
0.0
 20
1.0
 30
0.0
  9
$PUCSNAME
  2

  9
$PUCSORG
 10
0.0
 20
0.0
 30
0.0
  9
$PUCSXDIR
 10
1.0
 20
0.0
 30
0.0
  9
$PUCSYDIR
 10
0.0
 20
1.0
 30
0.0
  9
$USERI1
 70
     0
  9
$USERI2
 70
     0
  9
$USERI3
 70
     0
  9
$USERI4
 70
     0
  9
$USERI5
 70
     0
  9
$USERR1
 40
0.0
  9
$USERR2
 40
0.0
  9
$USERR3
 40
0.0
  9
$USERR4
 40
0.0
  9
$USERR5
 40
0.0
  9
$WORLDVIEW
 70
     1
  9
$SHADEDGE
 70
     3
  9
$SHADEDIF
 70
    70
  9
$TILEMODE
 70
     1
  9
$MAXACTVP
 70
    16
  9
$PINSBASE
 10
0.0
 20
0.0
 30
0.0
  9
$PLIMCHECK
 70
     0
  9
$PEXTMIN
 10
1.000000000000000E+20
 20
1.000000000000000E+20
 30
1.000000000000000E+20
  9
$PEXTMAX
 10
-1.000000000000000E+20
 20
-1.000000000000000E+20
 30
-1.000000000000000E+20
  9
$PLIMMIN
 10
0.0
 20
0.0
  9
$PLIMMAX
 10
12.0
 20
9.0
  9
$UNITMODE
 70
     0
  9
$VISRETAIN
 70
     0
  9
$PLINEGEN
 70
     1
  9
$PSLTSCALE
 70
     0
  9
$TREEDEPTH
 70
  3020
  9
$PICKSTYLE
 70
     1
  9
$CMLSTYLE
  2
STANDARD
  9
$CMLJUST
 70
     0
  9
$CMLSCALE
 40
1.0
  9
$PROXYGRAPHICS
 70
     1
  9
$MEASUREMENT
 70
     0
  0
ENDSEC
  0
SECTION
  2
CLASSES
  0
CLASS
  1
LWPOLYLINE
  2
AcDbPolyline
  3
AutoCAD 2000
 90
        0
280
     0
281
     1
  0
CLASS
  1
ACDBDICTIONARYWDFLT
  2
AcDbDictionaryWithDefault
  3
AutoCAD 2000
 90
        0
280
     0
281
     0
  0
CLASS
  1
ACDBPLACEHOLDER
  2
AcDbPlaceHolder
  3
AutoCAD 2000
 90
        0
280
     0
281
     0
  0
CLASS
  1
LAYOUT
  2
AcDbLayout
  3
AutoCAD 2000
 90
        0
280
     0
281
     0
  0
CLASS
  1
DICTIONARYVAR
  2
AcDbDictionaryVar
  3
AutoCAD 2000
 90
        0
280
     0
281
     0
  0
CLASS
  1
LONG_TRANSACTION
  2
AcDbLongTransaction
  3
AutoCAD 2000
 90
        0
280
     0
281
     0
  0
CLASS
  1
LWPOLYLINE
  2
AcDbPolyline
  3
AutoCAD 2000
 90
        0
280
     0
281
     1
  0
CLASS
  1
HATCH
  2
AcDbHatch
  3
AutoCAD 2000
 90
        0
280
     0
281
     1
  0
CLASS
  1
XRECORD
  2
AcDbXrecord
  3
AutoCAD 2000
 90
        0
280
     0
281
     0
  0
ENDSEC
  0
SECTION
  2
TABLES
  0
TABLE
  2
VPORT
  5
8
330
0
100
AcDbSymbolTable
 70
     2
  0
VPORT
  5
405
330
8
100
AcDbSymbolTableRecord
100
AcDbViewportTableRecord
  2
*ACTIVE
 70
     0
 10
0.0
 20
0.0
 11
1.0
 21
1.0
 12
3.907366217180994
 22
0.6197350320353669
 13
0.0
 23
0.0
 14
0.015625
 24
0.015625
 15
0.0
 25
0.0
 16
0.0
 26
0.0
 36
1.0
 17
0.0
 27
0.0
 37
0.0
 40
2.16331827567219
 41
4.320930232558139
 42
50.0
 43
0.0
 44
0.0
 50
0.0
 51
0.0
 71
     0
 72
  2000
 73
     1
 74
     1
 75
     0
 76
     0
 77
     0
 78
     0
  0
ENDTAB
  0
TABLE
  2
LTYPE
  5
5
330
0
100
AcDbSymbolTable
 70
     1
  0
LTYPE
  5
12
330
5
100
AcDbSymbolTableRecord
100
AcDbLinetypeTableRecord
  2
BYBLOCK
 70
     0
  3

 72
    65
 73
     0
 40
0.0
  0
LTYPE
  5
13
330
5
100
AcDbSymbolTableRecord
100
AcDbLinetypeTableRecord
  2
BYLAYER
 70
     0
  3

 72
    65
 73
     0
 40
0.0
  0
LTYPE
  5
14
330
5
100
AcDbSymbolTableRecord
100
AcDbLinetypeTableRecord
  2
CONTINUOUS
 70
     0
  3
Solid line
 72
    65
 73
     0
 40
0.0
  0
ENDTAB
  0
TABLE
  2
LAYER
  5
2
330
0
100
AcDbSymbolTable
 70
     3
  0
LAYER
  5
F
330
2
100
AcDbSymbolTableRecord
100
AcDbLayerTableRecord
  2
0
 70
     0
 62
     7
  6
CONTINUOUS
  0
LAYER
  5
24
330
2
100
AcDbSymbolTableRecord
100
AcDbLayerTableRecord
  2
DIM
 70
     0
 62
     4
  6
CONTINUOUS
  0
LAYER
  5
25
330
2
100
AcDbSymbolTableRecord
100
AcDbLayerTableRecord
  2
TEXT
 70
     0
 62
     3
  6
CONTINUOUS
  0
ENDTAB
  0
TABLE
  2
STYLE
  5
3
330
0
100
AcDbSymbolTable
 70
     3
  0
STYLE
  5
10
330
3
100
AcDbSymbolTableRecord
100
AcDbTextStyleTableRecord
  2
STANDARD
 70
     0
 40
0.0
 41
1.0
 50
0.0
 71
     0
 42
0.25
  3
txt
  4

  0
STYLE
  5
2F2
330
3
100
AcDbSymbolTableRecord
100
AcDbTextStyleTableRecord
  2
ITALICC
 70
     0
 40
0.0
 41
1.0
 50
0.0
 71
     0
 42
0.125
  3
italicc
  4

  0
STYLE
  5
401
330
3
100
AcDbSymbolTableRecord
100
AcDbTextStyleTableRecord
  2
ROMANS
 70
     0
 40
0.0
 41
1.0
 50
0.0
 71
     0
 42
0.125
  3
romans.shx
  4

  0
ENDTAB
  0
TABLE
  2
VIEW
  5
6
330
0
100
AcDbSymbolTable
 70
     0
  0
ENDTAB
  0
TABLE
  2
UCS
  5
7
330
0
100
AcDbSymbolTable
 70
     0
  0
ENDTAB
  0
TABLE
  2
APPID
  5
9
330
0
100
AcDbSymbolTable
 70
     1
  0
APPID
  5
11
330
9
100
AcDbSymbolTableRecord
100
AcDbRegAppTableRecord
  2
ACAD
 70
     0
  0
ENDTAB
  0
TABLE
  2
DIMSTYLE
  5
A
330
0
100
AcDbSymbolTable
 70
     1
  0
DIMSTYLE
105
2EA
330
A
100
AcDbSymbolTableRecord
100
AcDbDimStyleTableRecord
  2
STANDARD
 70
     0
  3

  4

  5

  6

  7

 40
1.0
 41
0.18
 42
0.0625
 43
0.38
 44
0.18
 45
0.0
 46
0.0
 47
0.0
 48
0.0
140
0.18
141
0.09
142
0.0
143
25.4
144
1.0
145
0.0
146
1.0
147
0.09
 71
     0
 72
     0
 73
     1
 74
     1
 75
     0
 76
     0
 77
     0
 78
     0
170
     0
171
     2
172
     0
173
     0
174
     0
175
     0
176
     0
177
     0
178
     0
270
     2
271
     4
272
     4
273
     2
274
     2
340
10
275
     0
280
     0
281
     0
282
     0
283
     1
284
     0
285
     0
286
     0
287
     3
288
     0
  0
ENDTAB
  0
TABLE
  2
BLOCK_RECORD
  5
1
330
0
100
AcDbSymbolTable
 70
     0
  0
BLOCK_RECORD
  5
18
102
{ACAD_XDICTIONARY
360
428
102
}
330
1
100
AcDbSymbolTableRecord
100
AcDbBlockTableRecord
  2
*MODEL_SPACE
  0
BLOCK_RECORD
  5
15
102
{ACAD_XDICTIONARY
360
426
102
}
330
1
100
AcDbSymbolTableRecord
100
AcDbBlockTableRecord
  2
*PAPER_SPACE
  0
ENDTAB
  0
ENDSEC
  0
SECTION
  2
BLOCKS
  0
BLOCK
  5
2B
330
18
100
AcDbEntity
  8
0
100
AcDbBlockBegin
  2
*MODEL_SPACE
 70
     0
 10
0.0
 20
0.0
 30
0.0
  3
*MODEL_SPACE
  1

  0
ENDBLK
  5
2C
330
18
100
AcDbEntity
  8
0
100
AcDbBlockEnd
  0
BLOCK
  5
29
330
15
100
AcDbEntity
 67
     1
  8
0
100
AcDbBlockBegin
  2
*PAPER_SPACE
 70
     0
 10
0.0
 20
0.0
 30
0.0
  3
*PAPER_SPACE
  1

  0
ENDBLK
  5
2A
330
15
100
AcDbEntity
 67
     1
  8
0
100
AcDbBlockEnd
  0
ENDSEC
  0
SECTION
  2
ENTITIES
  0
LWPOLYLINE
  5
3A
330
18
100
AcDbEntity
  8
0
100
AcDbPolyline
 90
       69
 70
     1
 43
0.0
 10
0.6350528478378721
 20
0.6700583555734659
 42
0.3972781194134768
 10
0.6662500000000094
 20
0.640625
 10
0.7890625000000096
 20
0.640625
 42
0.4142135623730951
 10
0.8046875000000095
 20
0.65625
 10
0.8046875000000095
 20
0.75
 42
0.4142135623730951
 10
0.7890625000000096
 20
0.765625
 10
0.7578125000000096
 20
0.765625
 42
0.4142135623730951
 10
0.7421875000000096
 20
0.75
 10
0.7421875000000096
 20
0.7187500000000005
 42
-0.4142135623730937
 10
0.7265625000000096
 20
0.7031250000000005
 10
0.7066250000000098
 20
0.7031250000000005
 42
-0.4142135623730969
 10
0.6910000000000098
 20
0.7187500000000005
 10
0.6910000000000096
 20
0.96875
 42
-0.4142135623730954
 10
0.7066250000000096
 20
0.984375
 10
0.7265625000000096
 20
0.984375
 42
-0.4142135623730951
 10
0.7421875000000096
 20
0.96875
 10
0.7421875000000096
 20
0.9375
 42
0.4142135623730951
 10
0.7578125000000096
 20
0.921875
 10
0.7890625000000096
 20
0.921875
 42
0.4142135623730951
 10
0.8046875000000095
 20
0.9375
 10
0.8046875000000095
 20
0.96875
 42
-0.4142135623730951
 10
0.8203125000000095
 20
0.984375
 10
1.117187500000009
 20
0.984375
 42
-0.4142135623730951
 10
1.132812500000009
 20
0.96875
 10
1.132812500000009
 20
0.9375
 42
0.4142135623730951
 10
1.148437500000009
 20
0.921875
 10
1.179687500000009
 20
0.921875
 42
0.4142135623730951
 10
1.195312500000009
 20
0.9375
 10
1.195312500000009
 20
0.96875
 42
-0.4142135623730951
 10
1.210937500000009
 20
0.984375
 10
1.230875000000009
 20
0.984375
 42
-0.4142135623730954
 10
1.246500000000009
 20
0.96875
 10
1.246500000000009
 20
0.7187500000000005
 42
-0.4142135623730969
 10
1.230875000000009
 20
0.7031250000000005
 10
1.210937500000009
 20
0.7031250000000005
 42
-0.4142135623730937
 10
1.195312500000009
 20
0.7187500000000005
 10
1.195312500000009
 20
0.75
 42
0.4142135623730951
 10
1.179687500000009
 20
0.765625
 10
1.148437500000009
 20
0.765625
 42
0.4142135623730951
 10
1.132812500000009
 20
0.75
 10
1.132812500000009
 20
0.65625
 42
0.4142135623730951
 10
1.148437500000009
 20
0.640625
 10
1.271250000000009
 20
0.640625
 42
0.3972781194134767
 10
1.302447152162147
 20
0.6700583555734659
 42
0.0290909090909091
 10
1.302447152162147
 20
1.361191644426534
 42
0.3972781194134687
 10
1.271250000000009
 20
1.390625
 10
1.262125000000009
 20
1.390625
 42
0.4142135623730954
 10
1.246500000000009
 20
1.375
 10
1.246500000000009
 20
1.0625
 42
-0.4142135623730951
 10
1.230875000000009
 20
1.046875
 10
1.114375000000009
 20
1.046875
 42
-0.4142135623730951
 10
1.098750000000009
 20
1.0625
 10
1.098750000000009
 20
1.125
 42
0.2679491924311226
 10
1.033750000000009
 20
1.237583302491977
 10
1.003906250000005
 20
1.185892411203584
 42
-3.732050807568854
 10
0.9335937500000095
 20
1.185892411203593
 10
0.9037500000000092
 20
1.237583302491977
 42
0.2679491924311226
 10
0.8387500000000096
 20
1.125
 10
0.8387500000000096
 20
1.0625
 42
-0.4142135623730951
 10
0.8231250000000096
 20
1.046875
 10
0.7066250000000095
 20
1.046875
 42
-0.4142135623730951
 10
0.6910000000000095
 20
1.0625
 10
0.6910000000000096
 20
1.255625
 10
0.6810000000000097
 20
1.265625
 10
0.6910000000000096
 20
1.275624999999999
 10
0.6910000000000098
 20
1.375
 42
0.4142135623730954
 10
0.6753750000000098
 20
1.390625
 10
0.6662500000000096
 20
1.390625
 42
0.3972781194134687
 10
0.6350528478378723
 20
1.361191644426535
 42
0.0290909090909091
  0
TEXT
  5
377
330
18
100
AcDbEntity
  8
TEXT
100
AcDbText
 10
0.2331814804802801
 20
0.3007662677407157
 30
0.0
 40
0.125
  1
PART #130024
  7
ITALICC
 72
     1
 11
0.9861576709564703
 21
0.3007662677407157
 31
0.0
100
AcDbText
  0
LWPOLYLINE
  5
378
330
18
100
AcDbEntity
  8
TEXT
100
AcDbPolyline
 90
        3
 70
     0
 43
0.0
 10
0.6171168646802343
 20
0.120689276377651
 10
0.49881670586419
 20
0.120689276377651
 10
0.49881670586419
 20
0.0935217796167551
 42
-1.960274751411753
  0
LWPOLYLINE
  5
379
330
18
100
AcDbEntity
  8
TEXT
100
AcDbPolyline
 90
        4
 70
     0
 43
0.0
 10
0.5819825141360245
 20
0.0488587925547721
 10
0.5819825141360245
 20
-0.1457837566108635
 10
0.6504607974238823
 20
-0.1457837566108635
 10
0.6504607974238823
 20
-0.1022928116604254
 42
-1.714843617202739
  0
LWPOLYLINE
  5
37A
330
18
100
AcDbEntity
  8
TEXT
100
AcDbPolyline
 90
        2
 70
     0
 43
0.0001332181640625
 10
-0.516698167548018
 20
-0.1191034189348512
 10
-0.5766463413761418
 20
-0.0591552451067257
  0
LWPOLYLINE
  5
37B
330
18
100
AcDbEntity
  8
TEXT
100
AcDbPolyline
 90
        3
 70
     0
 43
0.0006660908203125
 10
-0.6032899741886429
 20
-0.1191034189348512
 10
-0.516698167548018
 20
-0.1191034189348512
 10
-0.516698167548018
 20
-0.0325116122942246
  0
LWPOLYLINE
  5
37C
330
18
100
AcDbEntity
  8
TEXT
100
AcDbPolyline
 90
        3
 70
     0
 43
0.0006660908203125
 10
-0.6032899741886429
 20
-0.1457470517473522
 10
-0.490054534735517
 20
-0.1457470517473522
 10
-0.490054534735517
 20
-0.0325116122942246
  0
LWPOLYLINE
  5
37D
330
18
100
AcDbEntity
  8
TEXT
100
AcDbPolyline
 90
        2
 70
     0
 43
0.0001332181640625
 10
-0.490054534735517
 20
-0.0325116122942246
 10
-0.5633245249698931
 20
-0.0225202499895394
  0
LWPOLYLINE
  5
37E
330
18
100
AcDbEntity
  8
TEXT
100
AcDbPolyline
 90
        2
 70
     0
 43
0.0001332181640625
 10
-0.516698167548018
 20
-0.0325116122942246
 10
-0.5766463413761418
 20
-0.0225202499895394
  0
LWPOLYLINE
  5
37F
330
18
100
AcDbEntity
  8
TEXT
100
AcDbPolyline
 90
        2
 70
     0
 43
0.0001332181640625
 10
-0.7298472300480193
 20
-0.1191034189348512
 10
-0.6698990562198919
 20
-0.0591552451067257
  0
LWPOLYLINE
  5
380
330
18
100
AcDbEntity
  8
TEXT
100
AcDbPolyline
 90
        2
 70
     0
 43
0.0001332181640625
 10
-0.7298472300480193
 20
-0.0325116122942246
 10
-0.6698990562198919
 20
-0.0225202499895394
  0
LWPOLYLINE
  5
381
330
18
100
AcDbEntity
  8
TEXT
100
AcDbPolyline
 90
        3
 70
     0
 43
0.0006660908203125
 10
-0.7564908628605167
 20
-0.0325116122942246
 10
-0.7564908628605167
 20
-0.1457470517473522
 10
-0.6432554234073944
 20
-0.1457470517473522
  0
LWPOLYLINE
  5
382
330
18
100
AcDbEntity
  8
TEXT
100
AcDbPolyline
 90
        3
 70
     0
 43
0.0006660908203125
 10
-0.7298472300480193
 20
-0.0325116122942246
 10
-0.7298472300480193
 20
-0.1191034189348512
 10
-0.6432554234073944
 20
-0.1191034189348512
  0
LWPOLYLINE
  5
383
330
18
100
AcDbEntity
  8
TEXT
100
AcDbPolyline
 90
        5
 70
     0
 43
0.0001332181640625
 10
-0.6332640611027039
 20
-0.0724770615129762
 10
-0.6332640611027039
 20
-0.0591552451067257
 10
-0.6698990562198919
 20
-0.0591552451067257
 10
-0.6698990562198919
 20
-0.0225202499895394
 10
-0.6832208726261424
 20
-0.0225202499895394
  0
LWPOLYLINE
  5
384
330
18
100
AcDbEntity
  8
TEXT
100
AcDbPolyline
 90
        2
 70
     0
 43
0.0006660908203125
 10
-0.7298472300480193
 20
-0.0325116122942246
 10
-0.7564908628605167
 20
-0.0325116122942246
  0
LWPOLYLINE
  5
385
330
18
100
AcDbEntity
  8
TEXT
100
AcDbPolyline
 90
        2
 70
     0
 43
0.0001332181640625
 10
-0.6832208726261424
 20
-0.0225202499895394
 10
-0.7564908628605167
 20
-0.0325116122942246
  0
LWPOLYLINE
  5
386
330
18
100
AcDbEntity
  8
TEXT
100
AcDbPolyline
 90
        2
 70
     0
 43
0.0006660908203125
 10
-0.6432554234073944
 20
-0.1191034189348512
 10
-0.6432554234073944
 20
-0.1457470517473522
  0
LWPOLYLINE
  5
387
330
18
100
AcDbEntity
  8
TEXT
100
AcDbPolyline
 90
        2
 70
     0
 43
0.0001332181640625
 10
-0.6432554234073944
 20
-0.1191034189348512
 10
-0.6332640611027039
 20
-0.0591552451067257
  0
LWPOLYLINE
  5
388
330
18
100
AcDbEntity
  8
TEXT
100
AcDbPolyline
 90
        2
 70
     0
 43
0.0001332181640625
 10
-0.6432554234073944
 20
-0.1457470517473522
 10
-0.6332640611027039
 20
-0.0724770615129762
  0
LWPOLYLINE
  5
389
330
18
100
AcDbEntity
  8
TEXT
100
AcDbPolyline
 90
        2
 70
     0
 43
0.0001332181640625
 10
-0.6032899741886429
 20
-0.1191034189348512
 10
-0.6132813364933316
 20
-0.0591552451067257
  0
LWPOLYLINE
  5
38A
330
18
100
AcDbEntity
  8
TEXT
100
AcDbPolyline
 90
        2
 70
     0
 43
0.0001332181640625
 10
-0.6132813364933316
 20
-0.0724770615129762
 10
-0.6032899741886429
 20
-0.1457470517473522
  0
LWPOLYLINE
  5
38B
330
18
100
AcDbEntity
  8
TEXT
100
AcDbPolyline
 90
        2
 70
     0
 43
0.0006660908203125
 10
-0.6032899741886429
 20
-0.1191034189348512
 10
-0.6032899741886429
 20
-0.1457470517473522
  0
LWPOLYLINE
  5
38C
330
18
100
AcDbEntity
  8
TEXT
100
AcDbPolyline
 90
        5
 70
     0
 43
0.0001332181640625
 10
-0.5633245249698931
 20
-0.0225202499895394
 10
-0.5766463413761418
 20
-0.0225202499895394
 10
-0.5766463413761418
 20
-0.0591552451067257
 10
-0.6132813364933316
 20
-0.0591552451067257
 10
-0.6132813364933316
 20
-0.0724770615129762
  0
LWPOLYLINE
  5
38D
330
18
100
AcDbEntity
  8
TEXT
100
AcDbPolyline
 90
        2
 70
     0
 43
0.0006660908203125
 10
-0.516698167548018
 20
-0.0325116122942246
 10
-0.490054534735517
 20
-0.0325116122942246
  0
LWPOLYLINE
  5
38E
330
18
100
AcDbEntity
  8
TEXT
100
AcDbPolyline
 90
        3
 70
     0
 43
0.0006660908203125
 10
-0.490054534735517
 20
0.0074538369245234
 10
-0.490054534735517
 20
0.120689276377651
 10
-0.6032899741886429
 20
0.120689276377651
  0
LWPOLYLINE
  5
38F
330
18
100
AcDbEntity
  8
TEXT
100
AcDbPolyline
 90
        3
 70
     0
 43
0.0006660908203125
 10
-0.516698167548018
 20
0.0074538369245234
 10
-0.516698167548018
 20
0.09404564356515
 10
-0.6032899741886429
 20
0.09404564356515
  0
LWPOLYLINE
  5
390
330
18
100
AcDbEntity
  8
TEXT
100
AcDbPolyline
 90
        2
 70
     0
 43
0.0001332181640625
 10
-0.5633245249698931
 20
-0.0025375253801654
 10
-0.490054534735517
 20
0.0074538369245234
  0
LWPOLYLINE
  5
391
330
18
100
AcDbEntity
  8
TEXT
100
AcDbPolyline
 90
        2
 70
     0
 43
0.0001332181640625
 10
-0.516698167548018
 20
0.0074538369245234
 10
-0.5766463413761418
 20
-0.0025375253801654
  0
LWPOLYLINE
  5
392
330
18
100
AcDbEntity
  8
TEXT
100
AcDbPolyline
 90
        2
 70
     0
 43
0.0001332181640625
 10
-0.516698167548018
 20
0.09404564356515
 10
-0.5766463413761418
 20
0.0340974697370244
  0
LWPOLYLINE
  5
393
330
18
100
AcDbEntity
  8
TEXT
100
AcDbPolyline
 90
        2
 70
     0
 43
0.0001332181640625
 10
-0.7298472300480193
 20
0.09404564356515
 10
-0.6698990562198937
 20
0.0340974697370244
  0
LWPOLYLINE
  5
394
330
18
100
AcDbEntity
  8
TEXT
100
AcDbPolyline
 90
        2
 70
     0
 43
0.0001332181640625
 10
-0.7298472300480193
 20
0.0074538369245234
 10
-0.6698990562198937
 20
-0.0025375253801654
  0
LWPOLYLINE
  5
395
330
18
100
AcDbEntity
  8
TEXT
100
AcDbPolyline
 90
        3
 70
     0
 43
0.0006660908203125
 10
-0.6432554234073944
 20
0.120689276377651
 10
-0.7564908628605167
 20
0.120689276377651
 10
-0.7564908628605167
 20
0.0074538369245234
  0
LWPOLYLINE
  5
396
330
18
100
AcDbEntity
  8
TEXT
100
AcDbPolyline
 90
        3
 70
     0
 43
0.0006660908203125
 10
-0.6432554234073944
 20
0.09404564356515
 10
-0.7298472300480193
 20
0.09404564356515
 10
-0.7298472300480193
 20
0.0074538369245234
  0
LWPOLYLINE
  5
397
330
18
100
AcDbEntity
  8
TEXT
100
AcDbPolyline
 90
        5
 70
     0
 43
0.0001332181640625
 10
-0.6832208726261424
 20
-0.0025375253801654
 10
-0.6698990562198937
 20
-0.0025375253801654
 10
-0.6698990562198937
 20
0.0340974697370244
 10
-0.6332640611027039
 20
0.0340974697370244
 10
-0.6332640611027039
 20
0.0474192861432714
  0
LWPOLYLINE
  5
398
330
18
100
AcDbEntity
  8
TEXT
100
AcDbPolyline
 90
        2
 70
     0
 43
0.0001332181640625
 10
-0.7564908628605167
 20
0.0074538369245234
 10
-0.6832208726261424
 20
-0.0025375253801654
  0
LWPOLYLINE
  5
399
330
18
100
AcDbEntity
  8
TEXT
100
AcDbPolyline
 90
        2
 70
     0
 43
0.0006660908203125
 10
-0.7298472300480193
 20
0.0074538369245234
 10
-0.7564908628605167
 20
0.0074538369245234
  0
LWPOLYLINE
  5
39A
330
18
100
AcDbEntity
  8
TEXT
100
AcDbPolyline
 90
        2
 70
     0
 43
0.0006660908203125
 10
-0.6432554234073944
 20
0.09404564356515
 10
-0.6432554234073944
 20
0.120689276377651
  0
LWPOLYLINE
  5
39B
330
18
100
AcDbEntity
  8
TEXT
100
AcDbPolyline
 90
        2
 70
     0
 43
0.0001332181640625
 10
-0.6332640611027039
 20
0.0474192861432714
 10
-0.6432554234073944
 20
0.120689276377651
  0
LWPOLYLINE
  5
39C
330
18
100
AcDbEntity
  8
TEXT
100
AcDbPolyline
 90
        2
 70
     0
 43
0.0001332181640625
 10
-0.6432554234073944
 20
0.09404564356515
 10
-0.6332640611027039
 20
0.0340974697370244
  0
LWPOLYLINE
  5
39D
330
18
100
AcDbEntity
  8
TEXT
100
AcDbPolyline
 90
        5
 70
     0
 43
0.0001332181640625
 10
-0.6132813364933316
 20
0.0474192861432714
 10
-0.6132813364933316
 20
0.0340974697370244
 10
-0.5766463413761418
 20
0.0340974697370244
 10
-0.5766463413761418
 20
-0.0025375253801654
 10
-0.5633245249698931
 20
-0.0025375253801654
  0
LWPOLYLINE
  5
39E
330
18
100
AcDbEntity
  8
TEXT
100
AcDbPolyline
 90
        2
 70
     0
 43
0.0006660908203125
 10
-0.6032899741886429
 20
0.09404564356515
 10
-0.6032899741886429
 20
0.120689276377651
  0
LWPOLYLINE
  5
39F
330
18
100
AcDbEntity
  8
TEXT
100
AcDbPolyline
 90
        2
 70
     0
 43
0.0001332181640625
 10
-0.6032899741886429
 20
0.09404564356515
 10
-0.6132813364933316
 20
0.0340974697370244
  0
LWPOLYLINE
  5
3A0
330
18
100
AcDbEntity
  8
TEXT
100
AcDbPolyline
 90
        2
 70
     0
 43
0.0001332181640625
 10
-0.6032899741886429
 20
0.120689276377651
 10
-0.6132813364933316
 20
0.0474192861432714
  0
LWPOLYLINE
  5
3A1
330
18
100
AcDbEntity
  8
TEXT
100
AcDbPolyline
 90
        2
 70
     0
 43
0.0006660908203125
 10
-0.516698167548018
 20
0.0074538369245234
 10
-0.490054534735517
 20
0.0074538369245234
  0
LINE
  5
3A2
330
18
100
AcDbEntity
  8
TEXT
100
AcDbLine
 10
0.13142567991967
 20
-0.1258252505058506
 30
0.0
 11
0.2287253860131146
 21
0.0385249604294176
 31
0.0
  0
LINE
  5
3A3
330
18
100
AcDbEntity
  8
TEXT
100
AcDbLine
 10
0.1410259169166244
 20
0.0198172802645269
 30
0.0
 11
0.0823955958846865
 21
0.1206892763776475
 31
0.0
  0
LINE
  5
3A4
330
18
100
AcDbEntity
  8
TEXT
100
AcDbLine
 10
-0.0530347438585208
 20
0.0564125817208821
 30
0.0
 11
-0.0530347438585208
 21
-0.0859913652728137
 31
0.0
  0
LWPOLYLINE
  5
3A5
330
18
100
AcDbEntity
  8
TEXT
100
AcDbPolyline
 90
        6
 70
     1
 43
0.0
 10
0.0433756671967345
 20
0.0564125817208821
 10
0.0130590729765263
 20
0.0564125817208821
 10
0.0130590729765263
 20
-0.0666984163340123
 42
0.407328721240804
 10
0.0246027241380027
 20
-0.0785173310103984
 10
0.0852244231827335
 20
-0.0785173310103984
 10
0.1026897635900514
 20
-0.0457051019669192
  0
ARC
  5
3A6
330
18
100
AcDbEntity
  8
TEXT
100
AcDbCircle
 10
-0.2251777280017393
 20
0.0386018169311457
 30
0.0
 40
0.0820874594465043
100
AcDbArc
 50
90.0
 51
270.0
  0
ARC
  5
3A7
330
18
100
AcDbEntity
  8
TEXT
100
AcDbCircle
 10
-0.1543402616431901
 20
-0.0625879482503065
 30
0.0
 40
0.0831958083605586
100
AcDbArc
 50
270.0
 51
90.0
  0
LINE
  5
3A8
330
18
100
AcDbEntity
  8
TEXT
100
AcDbLine
 10
-0.2251777280017393
 20
-0.0434856425153596
 30
0.0
 11
-0.1493998877369105
 21
-0.0434856425153596
 31
0.0
  0
LINE
  5
3A9
330
18
100
AcDbEntity
  8
TEXT
100
AcDbLine
 10
-0.3072651874482428
 20
-0.1457837566108635
 30
0.0
 11
-0.1543402616431901
 21
-0.1457837566108635
 31
0.0
  0
LINE
  5
3AA
330
18
100
AcDbEntity
  8
TEXT
100
AcDbLine
 10
-0.1493998877369105
 20
-0.0774267502774242
 30
0.0
 11
-0.3072651874482446
 21
-0.0774267502774242
 31
0.0
  0
LINE
  5
3AB
330
18
100
AcDbEntity
  8
TEXT
100
AcDbLine
 10
-0.3072651874482446
 20
-0.0774267502774242
 30
0.0
 11
-0.3072651874482428
 21
-0.1457837566108635
 31
0.0
  0
ARC
  5
3AC
330
18
100
AcDbEntity
  8
TEXT
100
AcDbCircle
 10
-0.1493998877369105
 20
-0.0604561963963901
 30
0.0
 40
0.0169705538810321
100
AcDbArc
 50
270.0
 51
90.0
  0
LINE
  5
3AD
330
18
100
AcDbEntity
  8
TEXT
100
AcDbLine
 10
0.0008518636215848
 20
-0.1457837566108635
 30
0.0
 11
0.0974921146965793
 21
-0.1455131175125812
 31
0.0
  0
ARC
  5
3AE
330
18
100
AcDbEntity
  8
TEXT
100
AcDbCircle
 10
0.0070812741152313
 20
-0.0859913652728137
 30
0.0
 40
0.0601160179737537
100
AcDbArc
 50
180.0000000000003
 51
264.0521544866073
  0
ARC
  5
3AF
330
18
100
AcDbEntity
  8
TEXT
100
AcDbCircle
 10
0.0973821200074561
 20
-0.1062360343371678
 30
0.0
 40
0.0392772371940762
100
AcDbArc
 50
270.1604552698595
 51
330.0831797321295
  0
LINE
  5
3B0
330
18
100
AcDbEntity
  8
TEXT
100
AcDbLine
 10
-0.2199403978874912
 20
0.0564125817208821
 30
0.0
 11
-0.0530347438585208
 21
0.0564125817208821
 31
0.0
  0
LINE
  5
3B1
330
18
100
AcDbEntity
  8
TEXT
100
AcDbLine
 10
-0.0494459751032279
 20
0.1206892763776475
 30
0.0
 11
-0.2251777280017393
 21
0.1206892763776475
 31
0.0
  0
LINE
  5
3B2
330
18
100
AcDbEntity
  8
TEXT
100
AcDbLine
 10
-0.1543402616431901
 20
0.0206078601102542
 30
0.0
 11
-0.2199403978874912
 21
0.0206078601102542
 31
0.0
  0
ARC
  5
3B3
330
18
100
AcDbEntity
  8
TEXT
100
AcDbCircle
 10
-0.2199403978874912
 20
0.0385102209155699
 30
0.0
 40
0.017902360805315
100
AcDbArc
 50
90.0
 51
270.0
  0
LINE
  5
3B4
330
18
100
AcDbEntity
  8
TEXT
100
AcDbLine
 10
0.0823955958846865
 20
0.1206892763776475
 30
0.0
 11
0.0105966297407791
 21
0.1206892763776475
 31
0.0
  0
LINE
  5
3B5
330
18
100
AcDbEntity
  8
TEXT
100
AcDbLine
 10
0.0105966297407791
 20
0.1206892763776475
 30
0.0
 11
0.0105966297407791
 21
0.1550771939717856
 31
0.0
  0
LINE
  5
3B6
330
18
100
AcDbEntity
  8
TEXT
100
AcDbLine
 10
-0.0494459751032279
 20
0.1550771939717856
 30
0.0
 11
-0.0494459751032279
 21
0.1206892763776475
 31
0.0
  0
LINE
  5
3B7
330
18
100
AcDbEntity
  8
TEXT
100
AcDbLine
 10
0.0105966297407791
 20
0.1550771939717856
 30
0.0
 11
-0.0494459751032279
 21
0.1550771939717856
 31
0.0
  0
LINE
  5
3B8
330
18
100
AcDbEntity
  8
TEXT
100
AcDbLine
 10
0.5202951280489616
 20
-0.1457837566108635
 30
0.0
 11
0.5202951280489616
 21
0.0564125817208821
 31
0.0
  0
LINE
  5
3B9
330
18
100
AcDbEntity
  8
TEXT
100
AcDbLine
 10
0.4532370812671216
 20
0.0488587925547721
 30
0.0
 11
0.4532370812671216
 21
-0.1457837566108635
 31
0.0
  0
LINE
  5
3BA
330
18
100
AcDbEntity
  8
TEXT
100
AcDbLine
 10
0.2967051050822311
 20
-0.0633959185078643
 30
0.0
 11
0.2967051050822311
 21
0.188700754116458
 31
0.0
  0
LINE
  5
3BB
330
18
100
AcDbEntity
  8
TEXT
100
AcDbLine
 10
0.3290169592198913
 20
0.1206892763776475
 30
0.0
 11
0.3290169592198913
 21
-0.0801749303547608
 31
0.0
  0
LINE
  5
3BC
330
18
100
AcDbEntity
  8
TEXT
100
AcDbLine
 10
0.3958480122778605
 20
-0.1457837566108635
 30
0.0
 11
0.3958480122778605
 21
0.0564125817208821
 31
0.0
  0
LINE
  5
3BD
330
18
100
AcDbEntity
  8
TEXT
100
AcDbLine
 10
0.2287253860131146
 20
0.0385249604294176
 30
0.0
 11
0.2287253860131146
 21
-0.0942324143959388
 31
0.0
  0
LINE
  5
3BE
330
18
100
AcDbEntity
  8
TEXT
100
AcDbLine
 10
0.2978446785784259
 20
-0.1457837566108635
 30
0.0
 11
0.3958480122778605
 21
-0.1457837566108635
 31
0.0
  0
LWPOLYLINE
  5
3BF
330
18
100
AcDbEntity
  8
TEXT
100
AcDbPolyline
 90
        2
 70
     0
 43
0.0
 10
0.2287253860131138
 20
-0.0942324143959352
 42
0.3318488747599744
 10
0.2978446785784268
 20
-0.1457837566108635
 42
-6.868794160588311
  0
ARC
  5
3C0
330
18
100
AcDbEntity
  8
TEXT
100
AcDbCircle
 10
0.3120233223352891
 20
-0.0647931241113353
 30
0.0
 40
0.0153818062434269
100
AcDbArc
 50
174.7883570302258
 51
270.0
  0
LINE
  5
3C1
330
18
100
AcDbEntity
  8
TEXT
100
AcDbLine
 10
0.3290169592198913
 20
-0.0801749303547608
 30
0.0
 11
0.3120233223352899
 21
-0.0801749303547608
 31
0.0
  0
LINE
  5
3C2
330
18
100
AcDbEntity
  8
TEXT
100
AcDbLine
 10
0.4532370812671216
 20
-0.1457837566108635
 30
0.0
 11
0.5202951280489616
 21
-0.1457837566108635
 31
0.0
  0
LINE
  5
3C3
330
18
100
AcDbEntity
  8
TEXT
100
AcDbLine
 10
0.4630350151510277
 20
0.1206892763776475
 30
0.0
 11
0.3290169592198913
 21
0.1206892763776475
 31
0.0
  0
LINE
  5
3C4
330
18
100
AcDbEntity
  8
TEXT
100
AcDbLine
 10
0.2298963925158661
 20
0.188700754116458
 30
0.0
 11
0.2298963925158661
 21
0.1206892763776475
 31
0.0
  0
LINE
  5
3C5
330
18
100
AcDbEntity
  8
TEXT
100
AcDbLine
 10
0.2298963925158661
 20
0.1206892763776475
 30
0.0
 11
0.1997744797224898
 21
0.1206892763776475
 31
0.0
  0
LINE
  5
3C6
330
18
100
AcDbEntity
  8
TEXT
100
AcDbLine
 10
0.1997744797224898
 20
0.1206892763776475
 30
0.0
 11
0.1410259169166244
 21
0.0198172802645269
 31
0.0
  0
LINE
  5
3C7
330
18
100
AcDbEntity
  8
TEXT
100
AcDbLine
 10
0.2967051050822311
 20
0.188700754116458
 30
0.0
 11
0.2298963925158661
 21
0.188700754116458
 31
0.0
  0
LWPOLYLINE
  5
3C8
330
18
100
AcDbEntity
  8
TEXT
100
AcDbPolyline
 90
        2
 70
     0
 43
0.0
 10
0.4630350151510286
 20
0.120689276377651
 42
-0.3328679258950098
 10
0.49881670586419
 20
0.0935217796167551
 42
6.772930709997214
  0
LINE
  5
3C9
330
18
100
AcDbEntity
  8
TEXT
100
AcDbLine
 10
0.3958480122778605
 20
0.0564125817208821
 30
0.0
 11
0.4456832921010081
 21
0.0564125817208821
 31
0.0
  0
LWPOLYLINE
  5
3CA
330
18
100
AcDbEntity
  8
TEXT
100
AcDbPolyline
 90
        2
 70
     0
 43
0.0
 10
0.4456832921010073
 20
0.0564125817208821
 42
-0.4142135623731017
 10
0.4532370812671207
 20
0.0488587925547721
 42
-0.9999999999999998
  0
LWPOLYLINE
  5
3CB
330
18
100
AcDbEntity
  8
TEXT
100
AcDbPolyline
 90
        2
 70
     0
 43
0.0
 10
0.574428724969911
 20
0.0564125817208821
 42
-0.4142135623731017
 10
0.5819825141360245
 20
0.0488587925547721
 42
-0.9999999999999998
  0
LINE
  5
3CC
330
18
100
AcDbEntity
  8
TEXT
100
AcDbLine
 10
0.5202951280489616
 20
0.0564125817208821
 30
0.0
 11
0.5744287249699119
 21
0.0564125817208821
 31
0.0
  0
TEXT
  5
3CD
330
18
100
AcDbEntity
  8
TEXT
100
AcDbText
 10
1.399462829206791
 20
-0.1461563749316594
 30
0.0
 40
0.0522247191011236
  1
Phone  1-800-328-2495
 41
1.272321428571429
 72
     5
 11
2.728395413476455
 21
-0.1461563749316594
 31
0.0
100
AcDbText
  0
TEXT
  5
3CE
330
18
100
AcDbEntity
  8
TEXT
100
AcDbText
 10
1.399462829206791
 20
0.133618905967217
 30
0.0
 40
0.0522247191011236
  1
Stylmark  Incorporated
 41
1.221428571428571
 72
     5
 11
2.728395413476455
 21
0.133618905967217
 31
0.0
100
AcDbText
  0
TEXT
  5
3CF
330
18
100
AcDbEntity
  8
TEXT
100
AcDbText
 10
1.399462829206791
 20
0.0403604790009249
 30
0.0
 40
0.0522247191011236
  1
6536 Main St. N.E. * P.O. Box 32008
 41
0.8388932496075353
 72
     5
 11
2.728395413476455
 21
0.0403604790009249
 31
0.0
100
AcDbText
  0
TEXT
  5
3D0
330
18
100
AcDbEntity
  8
TEXT
100
AcDbText
 10
1.399462829206791
 20
-0.0528979479653673
 30
0.0
 40
0.0522247191011236
  1
Minneapolis, MN 55432-0008
 41
1.11444212721585
 72
     5
 11
2.728395413476455
 21
-0.0528979479653673
 31
0.0
100
AcDbText
  0
LINE
  5
3D1
330
18
100
AcDbEntity
  8
TEXT
100
AcDbLine
 10
1.094374142423869
 20
0.1861534821452482
 30
0.0
 11
1.026059263874596
 21
0.1861534821452482
 31
0.0
  0
LINE
  5
3D2
330
18
100
AcDbEntity
  8
TEXT
100
AcDbLine
 10
1.030539151201096
 20
-0.1457837566108635
 30
0.0
 11
1.094917335519716
 21
-0.1457837566108635
 31
0.0
  0
LINE
  5
3D3
330
18
100
AcDbEntity
  8
TEXT
100
AcDbLine
 10
1.03053915120109
 20
0.0564125817208821
 30
0.0
 11
1.030539151201096
 21
-0.1457837566108635
 31
0.0
  0
LINE
  5
3D4
330
18
100
AcDbEntity
  8
TEXT
100
AcDbLine
 10
0.9289852946258738
 20
-0.1457837566108635
 30
0.0
 11
0.9289852946258685
 21
0.0315067488206049
 31
0.0
  0
LWPOLYLINE
  5
3D5
330
18
100
AcDbEntity
  8
TEXT
100
AcDbPolyline
 90
        2
 70
     0
 43
0.0
 10
0.8706300807905389
 20
-0.1022928116604254
 42
-0.2901071551932486
 10
0.8275541479228945
 20
-0.1457837566108635
 42
-5.328517124445184
  0
LWPOLYLINE
  5
3D6
330
18
100
AcDbEntity
  8
TEXT
100
AcDbPolyline
 90
        4
 70
     1
 43
0.0
 10
0.8074316828530019
 20
-0.0428197786268383
 10
0.7187713641931435
 20
-0.0428197786268383
 42
0.9999999999999998
 10
0.7187713641931435
 20
-0.085218319130699
 10
0.8074316828530019
 20
-0.085218319130699
 42
1.0
  0
LWPOLYLINE
  5
3D7
330
18
100
AcDbEntity
  8
TEXT
100
AcDbPolyline
 90
        2
 70
     0
 43
0.0
 10
0.6935367302915179
 20
-0.1457837566108635
 10
0.8275541479228945
 20
-0.1457837566108635
 42
0.9999999999999998
  0
LWPOLYLINE
  5
3D8
330
18
100
AcDbEntity
  8
TEXT
100
AcDbPolyline
 90
        2
 70
     0
 43
0.0
 10
0.6504607974238823
 20
-0.1022928116604254
 42
0.2901071551932823
 10
0.6935367302915179
 20
-0.1457837566108635
 42
5.328517124445801
  0
LWPOLYLINE
  5
3D9
330
18
100
AcDbEntity
  8
TEXT
100
AcDbPolyline
 90
        2
 70
     0
 43
0.0
 10
0.8706300807905389
 20
-0.1022928116604254
 10
0.8706300807905389
 20
-0.1457837566108635
  0
LWPOLYLINE
  5
3DA
330
18
100
AcDbEntity
  8
TEXT
100
AcDbPolyline
 90
        2
 70
     0
 43
0.0
 10
0.8706300807905389
 20
-0.1457837566108635
 10
0.9289852946258729
 20
-0.1457837566108635
  0
LINE
  5
3DB
330
18
100
AcDbEntity
  8
TEXT
100
AcDbLine
 10
0.8666904034855003
 20
0.0154772978242202
 30
0.0
 11
0.8229396323035986
 21
0.0977275738203654
 31
0.0
  0
LINE
  5
3DC
330
18
100
AcDbEntity
  8
TEXT
100
AcDbLine
 10
0.7586995662659808
 20
0.0564125817208821
 30
0.0
 11
0.6514932928786914
 21
0.0564125817208821
 31
0.0
  0
LINE
  5
3DD
330
18
100
AcDbEntity
  8
TEXT
100
AcDbLine
 10
0.7122126517867189
 20
0.0191376082587498
 30
0.0
 11
0.7945006415701022
 21
0.0191376082587498
 31
0.0
  0
LINE
  5
3DE
330
18
100
AcDbEntity
  8
TEXT
100
AcDbLine
 10
0.7877304646104593
 20
0.1206892763776475
 30
0.0
 11
0.6528985553934002
 21
0.1206892763776475
 31
0.0
  0
LINE
  5
3DF
330
18
100
AcDbEntity
  8
TEXT
100
AcDbLine
 10
0.6514932928786914
 20
0.0564125817208821
 30
0.0
 11
0.6514932928786914
 21
-0.0186398243533246
 31
0.0
  0
ARC
  5
3E0
330
18
100
AcDbEntity
  8
TEXT
100
AcDbCircle
 10
0.712212651786718
 20
-0.0485479728853688
 30
0.0
 40
0.0676855811441166
100
AcDbArc
 50
90.0
 51
153.7768192527749
  0
LINE
  5
3E1
330
18
100
AcDbEntity
  8
TEXT
100
AcDbLine
 10
0.6528985553934002
 20
0.1206892763776475
 30
0.0
 11
0.6528985553934002
 21
0.0923667306080036
 31
0.0
  0
LWPOLYLINE
  5
3E2
330
18
100
AcDbEntity
  8
TEXT
100
AcDbPolyline
 90
        2
 70
     0
 43
0.0
 10
0.6171168646802343
 20
0.120689276377651
 42
-0.3277054968067132
 10
0.6528985553933993
 20
0.0923667306080072
 42
6.667889725900311
  0
ARC
  5
3E3
330
18
100
AcDbEntity
  8
TEXT
100
AcDbCircle
 10
0.7586995662659799
 20
0.0280532067208848
 30
0.0
 40
0.028359375
100
AcDbArc
 50
25.78218179591245
 51
90.0
  0
LINE
  5
3E4
330
18
100
AcDbEntity
  8
TEXT
100
AcDbLine
 10
0.7945006415701022
 20
0.0191376082587498
 30
0.0
 11
0.7842358811565378
 21
0.0403881478314441
 31
0.0
  0
ARC
  5
3E5
330
18
100
AcDbEntity
  8
TEXT
100
AcDbCircle
 10
0.7857035248333908
 20
0.0791057092567451
 30
0.0
 40
0.0416329381542859
100
AcDbArc
 50
26.56974201007528
 51
87.20939649401342
  0
LINE
  5
3E6
330
18
100
AcDbEntity
  8
TEXT
100
AcDbLine
 10
1.026059263874596
 20
0.1861534821452482
 30
0.0
 11
1.02605926387459
 21
0.1206892763776475
 31
0.0
  0
LINE
  5
3E7
330
18
100
AcDbEntity
  8
TEXT
100
AcDbLine
 10
1.02605926387459
 20
0.1206892763776475
 30
0.0
 11
0.9585595462250742
 21
0.1206892763776475
 31
0.0
  0
LINE
  5
3E8
330
18
100
AcDbEntity
  8
TEXT
100
AcDbLine
 10
0.953891169908533
 20
0.0564125817208821
 30
0.0
 11
1.03053915120109
 21
0.0564125817208821
 31
0.0
  0
LINE
  5
3E9
330
18
100
AcDbEntity
  8
TEXT
100
AcDbLine
 10
0.9305873097850012
 20
0.0931416265167728
 30
0.0
 11
0.9305873097850012
 21
0.1206892763776475
 31
0.0
  0
ARC
  5
3EA
330
18
100
AcDbEntity
  8
TEXT
100
AcDbCircle
 10
0.9617801268481098
 20
0.0894435490953827
 30
0.0
 40
0.0314112657011332
100
AcDbArc
 50
95.88484768694724
 51
173.2388340632136
  0
ARC
  5
3EB
330
18
100
AcDbEntity
  8
TEXT
100
AcDbCircle
 10
0.9538911699085321
 20
0.0315067064382193
 30
0.0
 40
0.0249058752826653
100
AcDbArc
 50
89.99971217465335
 51
179.9999999999985
  0
LINE
  5
3EC
330
18
100
AcDbEntity
  8
TEXT
100
AcDbLine
 10
0.8666904034855003
 20
0.1206892763776475
 30
0.0
 11
0.8666904034855003
 21
0.0154772978242202
 31
0.0
  0
LINE
  5
3ED
330
18
100
AcDbEntity
  8
TEXT
100
AcDbLine
 10
0.9305873097850012
 20
0.1206892763776475
 30
0.0
 11
0.8666904034855003
 21
0.1206892763776475
 31
0.0
  0
LINE
  5
3EE
330
18
100
AcDbEntity
  8
TEXT
100
AcDbLine
 10
1.094917335519716
 20
-0.0142041881346833
 30
0.0
 11
1.170820868731181
 21
-0.1457837566108635
 31
0.0
  0
LINE
  5
3EF
330
18
100
AcDbEntity
  8
TEXT
100
AcDbLine
 10
1.094917335519716
 20
-0.1457837566108635
 30
0.0
 11
1.094917335519716
 21
-0.0142041881346833
 31
0.0
  0
LINE
  5
3F0
330
18
100
AcDbEntity
  8
TEXT
100
AcDbLine
 10
1.247399241107387
 20
-0.1457837566108635
 30
0.0
 11
1.151907017743776
 21
0.0107960334366739
 31
0.0
  0
LINE
  5
3F1
330
18
100
AcDbEntity
  8
TEXT
100
AcDbLine
 10
1.170820868731181
 20
-0.1457837566108635
 30
0.0
 11
1.247399241107387
 21
-0.1457837566108635
 31
0.0
  0
LINE
  5
3F2
330
18
100
AcDbEntity
  8
TEXT
100
AcDbLine
 10
1.094374142423869
 20
0.0448239499661094
 30
0.0
 11
1.094374142423869
 21
0.1861534821452482
 31
0.0
  0
LINE
  5
3F3
330
18
100
AcDbEntity
  8
TEXT
100
AcDbLine
 10
1.216464133709481
 20
0.1206892763776475
 30
0.0
 11
1.141472300979855
 21
0.1206892763776475
 31
0.0
  0
LINE
  5
3F4
330
18
100
AcDbEntity
  8
TEXT
100
AcDbLine
 10
1.151907017743776
 20
0.0107960334366739
 30
0.0
 11
1.216464133709481
 21
0.1206892763776475
 31
0.0
  0
LINE
  5
3F5
330
18
100
AcDbEntity
  8
TEXT
100
AcDbLine
 10
1.141472300979853
 20
0.1206892763776475
 30
0.0
 11
1.094374142423869
 21
0.0448239499661094
 31
0.0
  0
ENDSEC
  0
SECTION
  2
OBJECTS
  0
DICTIONARY
  5
C
330
0
100
AcDbDictionary
  3
ACAD_GROUP
350
D
  3
ACAD_LAYOUT
350
3FA
  3
ACAD_MLINESTYLE
350
E
  3
ACAD_PLOTSETTINGS
350
3FB
  3
ACAD_PLOTSTYLENAME
350
3F8
  3
ACDBHEADERROUNDTRIPXREC
350
406
  3
ACDBVARIABLEDICTIONARY
350
403
  0
DICTIONARY
  5
428
330
18
100
AcDbDictionary
280
     1
  3
ACAD_LAYOUTSELFREF
360
429
  0
DICTIONARY
  5
426
330
15
100
AcDbDictionary
280
     1
  3
ACAD_LAYOUTSELFREF
360
427
  0
DICTIONARY
  5
D
102
{ACAD_REACTORS
330
C
102
}
330
C
100
AcDbDictionary
  0
DICTIONARY
  5
3FA
102
{ACAD_REACTORS
330
C
102
}
330
C
100
AcDbDictionary
  0
DICTIONARY
  5
E
102
{ACAD_REACTORS
330
C
102
}
330
C
100
AcDbDictionary
  3
STANDARD
350
1B
  0
DICTIONARY
  5
3FB
102
{ACAD_REACTORS
330
C
102
}
330
C
100
AcDbDictionary
  0
ACDBDICTIONARYWDFLT
  5
3F8
102
{ACAD_REACTORS
330
C
102
}
330
C
100
AcDbDictionary
281
     1
  3
Normal
350
3F9
100
AcDbDictionaryWithDefault
340
3F9
  0
DICTIONARY
  5
406
102
{ACAD_REACTORS
330
C
102
}
330
C
100
AcDbDictionary
  3
CEPSNTYPE
350
410
  3
FINGERPRINTGUID
350
411
  3
HYPERLINKBASE
350
409
  3
INSUNITS
350
40F
  3
LAYOUTDICT
350
40B
  3
LWETCUNION
350
40E
  3
PLOTSETDICT
350
40C
  3
PLOTSTYLNAMDICT
350
40D
  3
PSVPSCALE
350
413
  3
PUCSBASE
350
416
  3
PUCSORGBACK
350
41C
  3
PUCSORGBOTTOM
350
418
  3
PUCSORGFRONT
350
41B
  3
PUCSORGLEFT
350
419
  3
PUCSORGRIGHT
350
41A
  3
PUCSORGTOP
350
417
  3
PUCSORTHOREF
350
414
  3
PUCSORTHOVIEW
350
415
  3
STYLESHEET
350
40A
  3
TSTACKALIGN
350
407
  3
TSTACKSIZE
350
408
  3
UCSBASE
350
41F
  3
UCSORGBACK
350
425
  3
UCSORGBOTTOM
350
421
  3
UCSORGFRONT
350
424
  3
UCSORGLEFT
350
422
  3
UCSORGRIGHT
350
423
  3
UCSORGTOP
350
420
  3
UCSORTHOREF
350
41D
  3
UCSORTHOVIEW
350
41E
  3
VERSIONGUID
350
412
  0
DICTIONARY
  5
403
102
{ACAD_REACTORS
330
C
102
}
330
C
100
AcDbDictionary
  3
DIMASSOC
350
404
  0
XRECORD
  5
429
102
{ACAD_REACTORS
330
428
102
}
330
428
100
AcDbXrecord
340
18
  0
XRECORD
  5
427
102
{ACAD_REACTORS
330
426
102
}
330
426
100
AcDbXrecord
340
15
  0
MLINESTYLE
  5
1B
102
{ACAD_REACTORS
330
E
102
}
330
E
100
AcDbMlineStyle
  2
STANDARD
 70
     0
  3

 62
     0
 51
90.0
 52
90.0
 71
     2
 49
0.5
 62
   256
  6
BYLAYER
 49
-0.5
 62
   256
  6
BYLAYER
  0
ACDBPLACEHOLDER
  5
3F9
102
{ACAD_REACTORS
330
3F8
102
}
330
3F8
100
AcDbPlaceHolder
280
     0
  0
XRECORD
  5
410
102
{ACAD_REACTORS
330
406
102
}
330
406
100
AcDbXrecord
 90
        0
  0
XRECORD
  5
411
102
{ACAD_REACTORS
330
406
102
}
330
406
100
AcDbXrecord
  1
{EA7B3370-8DB9-11D6-88E6-0090279574E7}
  0
XRECORD
  5
409
102
{ACAD_REACTORS
330
406
102
}
330
406
100
AcDbXrecord
  1

  0
XRECORD
  5
40F
102
{ACAD_REACTORS
330
406
102
}
330
406
100
AcDbXrecord
 90
        0
  0
XRECORD
  5
40B
102
{ACAD_REACTORS
330
406
102
}
330
406
100
AcDbXrecord
340
3FA
  0
XRECORD
  5
40E
102
{ACAD_REACTORS
330
406
102
}
330
406
100
AcDbXrecord
 90
    14877
  0
XRECORD
  5
40C
102
{ACAD_REACTORS
330
406
102
}
330
406
100
AcDbXrecord
340
3FB
  0
XRECORD
  5
40D
102
{ACAD_REACTORS
330
406
102
}
330
406
100
AcDbXrecord
340
3F8
  0
XRECORD
  5
413
102
{ACAD_REACTORS
330
406
102
}
330
406
100
AcDbXrecord
 40
0.0
  0
XRECORD
  5
416
102
{ACAD_REACTORS
330
406
102
}
330
406
100
AcDbXrecord
340
0
  0
XRECORD
  5
41C
102
{ACAD_REACTORS
330
406
102
}
330
406
100
AcDbXrecord
 10
0.0
 20
0.0
 30
0.0
  0
XRECORD
  5
418
102
{ACAD_REACTORS
330
406
102
}
330
406
100
AcDbXrecord
 10
0.0
 20
0.0
 30
0.0
  0
XRECORD
  5
41B
102
{ACAD_REACTORS
330
406
102
}
330
406
100
AcDbXrecord
 10
0.0
 20
0.0
 30
0.0
  0
XRECORD
  5
419
102
{ACAD_REACTORS
330
406
102
}
330
406
100
AcDbXrecord
 10
0.0
 20
0.0
 30
0.0
  0
XRECORD
  5
41A
102
{ACAD_REACTORS
330
406
102
}
330
406
100
AcDbXrecord
 10
0.0
 20
0.0
 30
0.0
  0
XRECORD
  5
417
102
{ACAD_REACTORS
330
406
102
}
330
406
100
AcDbXrecord
 10
0.0
 20
0.0
 30
0.0
  0
XRECORD
  5
414
102
{ACAD_REACTORS
330
406
102
}
330
406
100
AcDbXrecord
340
0
  0
XRECORD
  5
415
102
{ACAD_REACTORS
330
406
102
}
330
406
100
AcDbXrecord
 70
     0
  0
XRECORD
  5
40A
102
{ACAD_REACTORS
330
406
102
}
330
406
100
AcDbXrecord
  1

  0
XRECORD
  5
407
102
{ACAD_REACTORS
330
406
102
}
330
406
100
AcDbXrecord
 90
        1
  0
XRECORD
  5
408
102
{ACAD_REACTORS
330
406
102
}
330
406
100
AcDbXrecord
 90
       70
  0
XRECORD
  5
41F
102
{ACAD_REACTORS
330
406
102
}
330
406
100
AcDbXrecord
340
0
  0
XRECORD
  5
425
102
{ACAD_REACTORS
330
406
102
}
330
406
100
AcDbXrecord
 10
0.0
 20
0.0
 30
0.0
  0
XRECORD
  5
421
102
{ACAD_REACTORS
330
406
102
}
330
406
100
AcDbXrecord
 10
0.0
 20
0.0
 30
0.0
  0
XRECORD
  5
424
102
{ACAD_REACTORS
330
406
102
}
330
406
100
AcDbXrecord
 10
0.0
 20
0.0
 30
0.0
  0
XRECORD
  5
422
102
{ACAD_REACTORS
330
406
102
}
330
406
100
AcDbXrecord
 10
0.0
 20
0.0
 30
0.0
  0
XRECORD
  5
423
102
{ACAD_REACTORS
330
406
102
}
330
406
100
AcDbXrecord
 10
0.0
 20
0.0
 30
0.0
  0
XRECORD
  5
420
102
{ACAD_REACTORS
330
406
102
}
330
406
100
AcDbXrecord
 10
0.0
 20
0.0
 30
0.0
  0
XRECORD
  5
41D
102
{ACAD_REACTORS
330
406
102
}
330
406
100
AcDbXrecord
340
0
  0
XRECORD
  5
41E
102
{ACAD_REACTORS
330
406
102
}
330
406
100
AcDbXrecord
 70
     0
  0
XRECORD
  5
412
102
{ACAD_REACTORS
330
406
102
}
330
406
100
AcDbXrecord
  1
{EA7B3372-8DB9-11D6-88E6-0090279574E7}
  0
DICTIONARYVAR
  5
404
102
{ACAD_REACTORS
330
403
102
}
330
403
100
DictionaryVariables
280
     0
  1
1
  0
ENDSEC
  0
EOF
