  0
SECTION
  2
HEADER
  9
$ACADVER
  1
AC1014
  9
$ACADMAINTVER
 70
     9
  9
$DWGCODEPAGE
  3
ANSI_1252
  9
$INSBASE
 10
1.798589930367015
 20
1.39910577741255
 30
0.0
  9
$EXTMIN
 10
0.0556083511398726
 20
0.5731392261247495
 30
0.0
  9
$EXTMAX
 10
3.540827672887
 20
1.7187811429913
 30
0.0
  9
$LIMMIN
 10
0.0
 20
0.0
  9
$LIMMAX
 10
18.0
 20
12.0
  9
$ORTHOMODE
 70
     1
  9
$REGENMODE
 70
     1
  9
$FILLMODE
 70
     1
  9
$QTEXTMODE
 70
     0
  9
$MIRRTEXT
 70
     0
  9
$DRAGMODE
 70
     2
  9
$LTSCALE
 40
1.0
  9
$OSMODE
 70
    39
  9
$ATTMODE
 70
     1
  9
$TEXTSIZE
 40
0.125
  9
$TRACEWID
 40
0.05
  9
$TEXTSTYLE
  7
ROMANS
  9
$CLAYER
  8
0
  9
$CELTYPE
  6
BYLAYER
  9
$CECOLOR
 62
   256
  9
$CELTSCALE
 40
1.0
  9
$DELOBJ
 70
     1
  9
$DISPSILH
 70
     1
  9
$DIMSCALE
 40
1.0
  9
$DIMASZ
 40
0.125
  9
$DIMEXO
 40
0.125
  9
$DIMDLI
 40
0.375
  9
$DIMRND
 40
0.0
  9
$DIMDLE
 40
0.0
  9
$DIMEXE
 40
0.125
  9
$DIMTP
 40
0.0
  9
$DIMTM
 40
0.0
  9
$DIMTXT
 40
0.125
  9
$DIMCEN
 40
-0.125
  9
$DIMTSZ
 40
0.0
  9
$DIMTOL
 70
     0
  9
$DIMLIM
 70
     0
  9
$DIMTIH
 70
     1
  9
$DIMTOH
 70
     1
  9
$DIMSE1
 70
     0
  9
$DIMSE2
 70
     0
  9
$DIMTAD
 70
     0
  9
$DIMZIN
 70
     4
  9
$DIMBLK
  1

  9
$DIMASO
 70
     1
  9
$DIMSHO
 70
     1
  9
$DIMPOST
  1

  9
$DIMAPOST
  1

  9
$DIMALT
 70
     0
  9
$DIMALTD
 70
     2
  9
$DIMALTF
 40
25.4
  9
$DIMLFAC
 40
1.0
  9
$DIMTOFL
 70
     0
  9
$DIMTVP
 40
0.0
  9
$DIMTIX
 70
     1
  9
$DIMSOXD
 70
     0
  9
$DIMSAH
 70
     0
  9
$DIMBLK1
  1

  9
$DIMBLK2
  1

  9
$DIMSTYLE
  2
STANDARD
  9
$DIMCLRD
 70
     0
  9
$DIMCLRE
 70
     0
  9
$DIMCLRT
 70
     0
  9
$DIMTFAC
 40
1.0
  9
$DIMGAP
 40
0.09
  9
$DIMJUST
 70
     0
  9
$DIMSD1
 70
     0
  9
$DIMSD2
 70
     0
  9
$DIMTOLJ
 70
     1
  9
$DIMTZIN
 70
     4
  9
$DIMALTZ
 70
     0
  9
$DIMALTTZ
 70
     0
  9
$DIMFIT
 70
     3
  9
$DIMUPT
 70
     0
  9
$DIMUNIT
 70
     2
  9
$DIMDEC
 70
     3
  9
$DIMTDEC
 70
     3
  9
$DIMALTU
 70
     2
  9
$DIMALTTD
 70
     2
  9
$DIMTXSTY
  7
ROMANS
  9
$DIMAUNIT
 70
     0
  9
$LUNITS
 70
     2
  9
$LUPREC
 70
     3
  9
$SKETCHINC
 40
0.1
  9
$FILLETRAD
 40
0.03125
  9
$AUNITS
 70
     0
  9
$AUPREC
 70
     0
  9
$MENU
  1
ACAD
  9
$ELEVATION
 40
0.0
  9
$PELEVATION
 40
0.0
  9
$THICKNESS
 40
0.0
  9
$LIMCHECK
 70
     0
  9
$BLIPMODE
 70
     0
  9
$CHAMFERA
 40
0.0
  9
$CHAMFERB
 40
0.0
  9
$CHAMFERC
 40
0.0
  9
$CHAMFERD
 40
0.0
  9
$SKPOLY
 70
     0
  9
$TDCREATE
 40
2448994.699813078
  9
$TDUPDATE
 40
2452458.324806493
  9
$TDINDWG
 40
0.0004921991
  9
$TDUSRTIMER
 40
0.0004921991
  9
$USRTIMER
 70
     1
  9
$ANGBASE
 50
0.0
  9
$ANGDIR
 70
     0
  9
$PDMODE
 70
     0
  9
$PDSIZE
 40
0.0
  9
$PLINEWID
 40
0.0
  9
$COORDS
 70
     2
  9
$SPLFRAME
 70
     0
  9
$SPLINETYPE
 70
     6
  9
$SPLINESEGS
 70
     8
  9
$ATTDIA
 70
     0
  9
$ATTREQ
 70
     1
  9
$HANDLING
 70
 22529
  9
$HANDSEED
  5
7DE1B343D9E00C0
  9
$SURFTAB1
 70
     6
  9
$SURFTAB2
 70
     6
  9
$SURFTYPE
 70
     6
  9
$SURFU
 70
     6
  9
$SURFV
 70
     6
  9
$UCSNAME
  2

  9
$UCSORG
 10
0.0
 20
0.0
 30
0.0
  9
$UCSXDIR
 10
1.0
 20
0.0
 30
0.0
  9
$UCSYDIR
 10
0.0
 20
1.0
 30
0.0
  9
$PUCSNAME
  2

  9
$PUCSORG
 10
0.0
 20
0.0
 30
0.0
  9
$PUCSXDIR
 10
1.0
 20
0.0
 30
0.0
  9
$PUCSYDIR
 10
0.0
 20
1.0
 30
0.0
  9
$USERI1
 70
     0
  9
$USERI2
 70
     0
  9
$USERI3
 70
     0
  9
$USERI4
 70
     0
  9
$USERI5
 70
     0
  9
$USERR1
 40
0.0
  9
$USERR2
 40
0.0
  9
$USERR3
 40
0.0
  9
$USERR4
 40
0.0
  9
$USERR5
 40
0.0
  9
$WORLDVIEW
 70
     1
  9
$SHADEDGE
 70
     3
  9
$SHADEDIF
 70
    70
  9
$TILEMODE
 70
     1
  9
$MAXACTVP
 70
    16
  9
$PINSBASE
 10
0.0
 20
0.0
 30
0.0
  9
$PLIMCHECK
 70
     0
  9
$PEXTMIN
 10
1.000000000000000E+20
 20
1.000000000000000E+20
 30
1.000000000000000E+20
  9
$PEXTMAX
 10
-1.000000000000000E+20
 20
-1.000000000000000E+20
 30
-1.000000000000000E+20
  9
$PLIMMIN
 10
0.0
 20
0.0
  9
$PLIMMAX
 10
12.0
 20
9.0
  9
$UNITMODE
 70
     0
  9
$VISRETAIN
 70
     0
  9
$PLINEGEN
 70
     1
  9
$PSLTSCALE
 70
     0
  9
$TREEDEPTH
 70
  3020
  9
$PICKSTYLE
 70
     1
  9
$CMLSTYLE
  2
STANDARD
  9
$CMLJUST
 70
     0
  9
$CMLSCALE
 40
1.0
  9
$PROXYGRAPHICS
 70
     1
  9
$MEASUREMENT
 70
     0
  0
ENDSEC
  0
SECTION
  2
CLASSES
  0
CLASS
  1
LWPOLYLINE
  2
AcDbPolyline
  3
AutoCAD 2000
 90
        0
280
     0
281
     1
  0
CLASS
  1
ACDBDICTIONARYWDFLT
  2
AcDbDictionaryWithDefault
  3
AutoCAD 2000
 90
        0
280
     0
281
     0
  0
CLASS
  1
ACDBPLACEHOLDER
  2
AcDbPlaceHolder
  3
AutoCAD 2000
 90
        0
280
     0
281
     0
  0
CLASS
  1
LAYOUT
  2
AcDbLayout
  3
AutoCAD 2000
 90
        0
280
     0
281
     0
  0
CLASS
  1
DICTIONARYVAR
  2
AcDbDictionaryVar
  3
AutoCAD 2000
 90
        0
280
     0
281
     0
  0
CLASS
  1
LONG_TRANSACTION
  2
AcDbLongTransaction
  3
AutoCAD 2000
 90
        0
280
     0
281
     0
  0
CLASS
  1
LWPOLYLINE
  2
AcDbPolyline
  3
AutoCAD 2000
 90
        0
280
     0
281
     1
  0
CLASS
  1
HATCH
  2
AcDbHatch
  3
AutoCAD 2000
 90
        0
280
     0
281
     1
  0
CLASS
  1
XRECORD
  2
AcDbXrecord
  3
AutoCAD 2000
 90
        0
280
     0
281
     0
  0
ENDSEC
  0
SECTION
  2
TABLES
  0
TABLE
  2
VPORT
  5
7DE1B343D9E0067
330
0
100
AcDbSymbolTable
 70
     2
  0
VPORT
  5
7DE1B343D9E009B
330
7DE1B343D9E0067
100
AcDbSymbolTableRecord
100
AcDbViewportTableRecord
  2
*ACTIVE
 70
     0
 10
0.0
 20
0.0
 11
1.0
 21
1.0
 12
4.774111591118316
 22
1.14587404572623
 13
0.0
 23
0.0
 14
0.015625
 24
0.015625
 15
0.0
 25
0.0
 16
0.0
 26
0.0
 36
1.0
 17
0.0
 27
0.0
 37
0.0
 40
2.282647215150728
 41
4.320930232558139
 42
50.0
 43
0.0
 44
0.0
 50
0.0
 51
0.0
 71
     0
 72
  2000
 73
     1
 74
     0
 75
     0
 76
     0
 77
     0
 78
     0
  0
ENDTAB
  0
TABLE
  2
LTYPE
  5
7DE1B343D9E0064
330
0
100
AcDbSymbolTable
 70
     1
  0
LTYPE
  5
7DE1B343D9E0071
330
7DE1B343D9E0064
100
AcDbSymbolTableRecord
100
AcDbLinetypeTableRecord
  2
BYBLOCK
 70
     0
  3

 72
    65
 73
     0
 40
0.0
  0
LTYPE
  5
7DE1B343D9E0072
330
7DE1B343D9E0064
100
AcDbSymbolTableRecord
100
AcDbLinetypeTableRecord
  2
BYLAYER
 70
     0
  3

 72
    65
 73
     0
 40
0.0
  0
LTYPE
  5
7DE1B343D9E0073
330
7DE1B343D9E0064
100
AcDbSymbolTableRecord
100
AcDbLinetypeTableRecord
  2
CONTINUOUS
 70
     0
  3
Solid line
 72
    65
 73
     0
 40
0.0
  0
ENDTAB
  0
TABLE
  2
LAYER
  5
7DE1B343D9E0061
330
0
100
AcDbSymbolTable
 70
     2
  0
LAYER
  5
7DE1B343D9E006E
330
7DE1B343D9E0061
100
AcDbSymbolTableRecord
100
AcDbLayerTableRecord
  2
0
 70
     0
 62
     7
  6
CONTINUOUS
  0
LAYER
  5
7DE1B343D9E007E
330
7DE1B343D9E0061
100
AcDbSymbolTableRecord
100
AcDbLayerTableRecord
  2
TEXT
 70
     0
 62
     3
  6
CONTINUOUS
  0
ENDTAB
  0
TABLE
  2
STYLE
  5
7DE1B343D9E0062
330
0
100
AcDbSymbolTable
 70
     3
  0
STYLE
  5
7DE1B343D9E006F
330
7DE1B343D9E0062
100
AcDbSymbolTableRecord
100
AcDbTextStyleTableRecord
  2
STANDARD
 70
     0
 40
0.0
 41
1.0
 50
0.0
 71
     0
 42
0.3125
  3
txt
  4

  0
STYLE
  5
7DE1B343D9E007B
330
7DE1B343D9E0062
100
AcDbSymbolTableRecord
100
AcDbTextStyleTableRecord
  2
ITALICC
 70
     0
 40
0.0
 41
1.0
 50
0.0
 71
     0
 42
0.125
  3
italicc
  4

  0
STYLE
  5
7DE1B343D9E008B
330
7DE1B343D9E0062
100
AcDbSymbolTableRecord
100
AcDbTextStyleTableRecord
  2
ROMANS
 70
     0
 40
0.0
 41
1.0
 50
0.0
 71
     0
 42
0.125
  3
romans.shx
  4

  0
ENDTAB
  0
TABLE
  2
VIEW
  5
7DE1B343D9E0065
330
0
100
AcDbSymbolTable
 70
     0
  0
ENDTAB
  0
TABLE
  2
UCS
  5
7DE1B343D9E0066
330
0
100
AcDbSymbolTable
 70
     0
  0
ENDTAB
  0
TABLE
  2
APPID
  5
7DE1B343D9E0068
330
0
100
AcDbSymbolTable
 70
     1
  0
APPID
  5
7DE1B343D9E0070
330
7DE1B343D9E0068
100
AcDbSymbolTableRecord
100
AcDbRegAppTableRecord
  2
ACAD
 70
     0
  0
ENDTAB
  0
TABLE
  2
DIMSTYLE
  5
7DE1B343D9E0069
330
0
100
AcDbSymbolTable
 70
     1
  0
DIMSTYLE
105
7DE1B343D9E0083
330
7DE1B343D9E0069
100
AcDbSymbolTableRecord
100
AcDbDimStyleTableRecord
  2
STANDARD
 70
     0
  3

  4

  5

  6

  7

 40
1.0
 41
0.125
 42
0.125
 43
0.375
 44
0.125
 45
0.0
 46
0.0
 47
0.0
 48
0.0
140
0.125
141
-0.125
142
0.0
143
25.4
144
1.0
145
0.0
146
1.0
147
0.09
 71
     0
 72
     0
 73
     1
 74
     1
 75
     0
 76
     0
 77
     0
 78
     4
170
     0
171
     2
172
     0
173
     0
174
     1
175
     0
176
     0
177
     0
178
     0
270
     2
271
     3
272
     3
273
     2
274
     2
340
7DE1B343D9E008B
275
     0
280
     0
281
     0
282
     0
283
     1
284
     4
285
     0
286
     0
287
     3
288
     0
  0
ENDTAB
  0
TABLE
  2
BLOCK_RECORD
  5
7DE1B343D9E0060
330
0
100
AcDbSymbolTable
 70
     0
  0
BLOCK_RECORD
  5
7DE1B343D9E0077
102
{ACAD_XDICTIONARY
360
7DE1B343D9E00BE
102
}
330
7DE1B343D9E0060
100
AcDbSymbolTableRecord
100
AcDbBlockTableRecord
  2
*MODEL_SPACE
  0
BLOCK_RECORD
  5
7DE1B343D9E0074
102
{ACAD_XDICTIONARY
360
7DE1B343D9E00BC
102
}
330
7DE1B343D9E0060
100
AcDbSymbolTableRecord
100
AcDbBlockTableRecord
  2
*PAPER_SPACE
  0
ENDTAB
  0
ENDSEC
  0
SECTION
  2
BLOCKS
  0
BLOCK
  5
7DE1B343D9E0081
330
7DE1B343D9E0077
100
AcDbEntity
  8
0
100
AcDbBlockBegin
  2
*MODEL_SPACE
 70
     0
 10
0.0
 20
0.0
 30
0.0
  3
*MODEL_SPACE
  1

  0
ENDBLK
  5
7DE1B343D9E0082
330
7DE1B343D9E0077
100
AcDbEntity
  8
0
100
AcDbBlockEnd
  0
BLOCK
  5
7DE1B343D9E007F
330
7DE1B343D9E0074
100
AcDbEntity
 67
     1
  8
0
100
AcDbBlockBegin
  2
*PAPER_SPACE
 70
     0
 10
0.0
 20
0.0
 30
0.0
  3
*PAPER_SPACE
  1

  0
ENDBLK
  5
7DE1B343D9E0080
330
7DE1B343D9E0074
100
AcDbEntity
 67
     1
  8
0
100
AcDbBlockEnd
  0
ENDSEC
  0
SECTION
  2
ENTITIES
  0
LWPOLYLINE
  5
7DE1B343D9DEC0C
330
7DE1B343D9E0077
100
AcDbEntity
  8
0
100
AcDbPolyline
 90
       79
 70
     1
 43
0.0
 10
1.419728852145566
 20
1.39910577741255
 10
1.530791137820568
 20
1.39910577741255
 42
-0.3639702342662019
 10
1.546178758961384
 20
1.386194030188596
 10
1.554922505851992
 20
1.33660577741255
 10
1.618386669094852
 20
1.33660577741255
 10
1.610599761544041
 20
1.380767524636504
 42
-0.4663076581549991
 10
1.625987382684857
 20
1.39910577741255
 10
1.971192478049174
 20
1.39910577741255
 42
-0.4663076581549991
 10
1.986580099189989
 20
1.380767524636504
 10
1.978793191639179
 20
1.33660577741255
 10
2.042257354882038
 20
1.33660577741255
 10
2.051001101772647
 20
1.386194030188596
 42
-0.3639702342662019
 10
2.066388722913463
 20
1.39910577741255
 10
2.177451008588465
 20
1.39910577741255
 42
-0.4663076581549991
 10
2.192838629729281
 20
1.380767524636504
 10
2.18505172217847
 20
1.33660577741255
 10
2.24851588542133
 20
1.33660577741255
 10
2.299064688085384
 20
1.623282282964642
 42
-0.8390996311772816
 10
2.360615172648646
 20
1.623282282964642
 10
2.4111639753127
 20
1.33660577741255
 10
2.47462813855556
 20
1.33660577741255
 10
2.46684123100475
 20
1.380767524636504
 42
-0.4663076581549991
 10
2.482228852145566
 20
1.39910577741255
 10
2.804163082565609
 20
1.39910577741255
 42
-0.4663076581550075
 10
2.819550703706425
 20
1.380767524636504
 10
2.811763796155613
 20
1.33660577741255
 10
2.875227959398474
 20
1.33660577741255
 10
2.928053451466198
 20
1.636194030188596
 42
-0.3639702342662026
 10
2.943441072607014
 20
1.64910577741255
 10
3.102101480714162
 20
1.64910577741255
 42
-0.4663076581549983
 10
3.117489101854977
 20
1.630767524636504
 10
3.065620449127052
 20
1.33660577741255
 10
3.12908461236991
 20
1.33660577741255
 10
3.188740172648647
 20
1.674929271860458
 42
0.4663076581549975
 10
3.157964930367016
 20
1.71160577741255
 10
2.90410827739558
 20
1.71160577741255
 42
0.3639702342662019
 10
2.873333035113948
 20
1.685782282964642
 10
2.836081358147843
 20
1.474517524636505
 42
-0.3639702342662016
 10
2.820693737007028
 20
1.46160577741255
 10
2.465698197704147
 20
1.46160577741255
 42
-0.3639702342662016
 10
2.450310576563332
 20
1.474517524636504
 10
2.42216565721191
 20
1.634135294068825
 42
0.8390996311772761
 10
2.23751420352212
 20
1.634135294068825
 10
2.209369284170699
 20
1.474517524636504
 42
-0.3639702342662016
 10
2.193981663029884
 20
1.46160577741255
 10
1.808589930367016
 20
1.46160577741255
 10
1.798589930367015
 20
1.45160577741255
 10
1.788589930367016
 20
1.46160577741255
 10
1.403198197704147
 20
1.46160577741255
 42
-0.3639702342662016
 10
1.387810576563331
 20
1.474517524636504
 10
1.35966565721191
 20
1.634135294068825
 42
0.8390996311772761
 10
1.175014203522121
 20
1.634135294068825
 10
1.146869284170699
 20
1.474517524636504
 42
-0.3639702342662016
 10
1.131481663029884
 20
1.46160577741255
 10
0.7764861237270038
 20
1.46160577741255
 42
-0.3639702342662016
 10
0.7610985025861881
 20
1.474517524636505
 10
0.7238468256200836
 20
1.685782282964642
 42
0.3639702342662019
 10
0.6930715833384522
 20
1.71160577741255
 10
0.4392149303670159
 20
1.71160577741255
 42
0.4663076581549976
 10
0.4084396880853845
 20
1.674929271860458
 10
0.4680952483641214
 20
1.33660577741255
 10
0.53155941160698
 20
1.33660577741255
 10
0.4796907588790538
 20
1.630767524636504
 42
-0.4663076581549983
 10
0.4950783800198695
 20
1.64910577741255
 10
0.6537387881270178
 20
1.64910577741255
 42
-0.3639702342662026
 10
0.6691264092678335
 20
1.636194030188596
 10
0.7219519013355578
 20
1.33660577741255
 10
0.7854160645784186
 20
1.33660577741255
 10
0.7776291570276069
 20
1.380767524636504
 42
-0.4663076581550075
 10
0.7930167781684226
 20
1.39910577741255
 10
1.114951008588465
 20
1.39910577741255
 42
-0.4663076581549991
 10
1.130338629729281
 20
1.380767524636504
 10
1.122551722178471
 20
1.33660577741255
 10
1.18601588542133
 20
1.33660577741255
 10
1.236564688085384
 20
1.623282282964642
 42
-0.8390996311772816
 10
1.298115172648647
 20
1.623282282964642
 10
1.348663975312701
 20
1.33660577741255
 10
1.412128138555561
 20
1.33660577741255
 10
1.40434123100475
 20
1.380767524636504
 42
-0.4663076581549991
  0
TEXT
  5
7DE1B343D9DFF22
330
7DE1B343D9E0077
100
AcDbEntity
  8
TEXT
100
AcDbText
 10
1.045613739890825
 20
1.03115783020733
 30
0.0
 40
0.125
  1
PART #130023
  7
ITALICC
 72
     1
 11
1.798589930367015
 21
1.03115783020733
 31
0.0
100
AcDbText
  0
TEXT
  5
7DE1B343D9DFF23
330
7DE1B343D9E0077
100
AcDbEntity
  8
TEXT
100
AcDbText
 10
2.211895088617336
 20
0.5842351875349559
 30
0.0
 40
0.0522247191011236
  1
Phone  1-800-328-2495
 41
1.272321428571429
 72
     5
 11
3.540827672887
 21
0.5842351875349559
 31
0.0
100
AcDbText
  0
TEXT
  5
7DE1B343D9DFF24
330
7DE1B343D9E0077
100
AcDbEntity
  8
TEXT
100
AcDbText
 10
2.211895088617336
 20
0.8640104684338323
 30
0.0
 40
0.0522247191011236
  1
Stylmark  Incorporated
 41
1.221428571428573
 72
     5
 11
3.540827672887
 21
0.8640104684338323
 31
0.0
100
AcDbText
  0
TEXT
  5
7DE1B343D9DFF25
330
7DE1B343D9E0077
100
AcDbEntity
  8
TEXT
100
AcDbText
 10
2.211895088617336
 20
0.7707520414675403
 30
0.0
 40
0.0522247191011236
  1
6536 Main St. N.E. * P.O. Box 32008
 41
0.8388932496075366
 72
     5
 11
3.540827672887
 21
0.7707520414675403
 31
0.0
100
AcDbText
  0
TEXT
  5
7DE1B343D9DFF26
330
7DE1B343D9E0077
100
AcDbEntity
  8
TEXT
100
AcDbText
 10
2.211895088617336
 20
0.6774936145012481
 30
0.0
 40
0.0522247191011236
  1
Minneapolis, MN 55432-0008
 41
1.11444212721585
 72
     5
 11
3.540827672887
 21
0.6774936145012481
 31
0.0
100
AcDbText
  0
LWPOLYLINE
  5
7DE1B343D9DFF27
330
7DE1B343D9E0077
100
AcDbEntity
  8
TEXT
100
AcDbPolyline
 90
        3
 70
     0
 43
0.0006660908203125
 10
0.0559413965500288
 20
0.6978799501723908
 10
0.0559413965500288
 20
0.5846445107192631
 10
0.1691768360031511
 20
0.5846445107192631
  0
LWPOLYLINE
  5
7DE1B343D9DFF2C
330
7DE1B343D9E0077
100
AcDbEntity
  8
TEXT
100
AcDbPolyline
 90
        3
 70
     0
 43
0.0006660908203125
 10
0.0825850293625263
 20
0.6978799501723908
 10
0.0825850293625263
 20
0.6112881435317642
 10
0.1691768360031511
 20
0.6112881435317642
  0
LWPOLYLINE
  5
7DE1B343D9DFF31
330
7DE1B343D9E0077
100
AcDbEntity
  8
TEXT
100
AcDbPolyline
 90
        2
 70
     0
 43
0.0001332181640625
 10
0.1292113867844031
 20
0.707871312477076
 10
0.0559413965500288
 20
0.6978799501723908
  0
LWPOLYLINE
  5
7DE1B343D9DFF35
330
7DE1B343D9E0077
100
AcDbEntity
  8
TEXT
100
AcDbPolyline
 90
        2
 70
     0
 43
0.0001332181640625
 10
0.0825850293625263
 20
0.6978799501723908
 10
0.1425332031906537
 20
0.707871312477076
  0
LWPOLYLINE
  5
7DE1B343D9DFF39
330
7DE1B343D9E0077
100
AcDbEntity
  8
TEXT
100
AcDbPolyline
 90
        2
 70
     0
 43
0.0001332181640625
 10
0.0825850293625263
 20
0.6112881435317642
 10
0.1425332031906537
 20
0.6712363173598897
  0
LWPOLYLINE
  5
7DE1B343D9DFF3D
330
7DE1B343D9E0077
100
AcDbEntity
  8
TEXT
100
AcDbPolyline
 90
        3
 70
     0
 43
0.0006660908203125
 10
0.1691768360031511
 20
0.8510808388442663
 10
0.0559413965500288
 20
0.8510808388442663
 10
0.0559413965500288
 20
0.7378453993911388
  0
LWPOLYLINE
  5
7DE1B343D9DFF42
330
7DE1B343D9E0077
100
AcDbEntity
  8
TEXT
100
AcDbPolyline
 90
        3
 70
     0
 43
0.0006660908203125
 10
0.1691768360031511
 20
0.8244372060317653
 10
0.0825850293625263
 20
0.8244372060317653
 10
0.0825850293625263
 20
0.7378453993911388
  0
LWPOLYLINE
  5
7DE1B343D9DFF47
330
7DE1B343D9E0077
100
AcDbEntity
  8
TEXT
100
AcDbPolyline
 90
        2
 70
     0
 43
0.0001332181640625
 10
0.0825850293625263
 20
0.8244372060317653
 10
0.1425332031906519
 20
0.7644890322036398
  0
LWPOLYLINE
  5
7DE1B343D9DFF4B
330
7DE1B343D9E0077
100
AcDbEntity
  8
TEXT
100
AcDbPolyline
 90
        2
 70
     0
 43
0.0001332181640625
 10
0.0825850293625263
 20
0.7378453993911388
 10
0.1425332031906519
 20
0.72785403708645
  0
LWPOLYLINE
  5
7DE1B343D9DFF4F
330
7DE1B343D9E0077
100
AcDbEntity
  8
TEXT
100
AcDbPolyline
 90
        2
 70
     0
 43
0.0001332181640625
 10
0.0559413965500288
 20
0.7378453993911388
 10
0.1292113867844031
 20
0.72785403708645
  0
LWPOLYLINE
  5
7DE1B343D9DFF53
330
7DE1B343D9E0077
100
AcDbEntity
  8
TEXT
100
AcDbPolyline
 90
        2
 70
     0
 43
0.0006660908203125
 10
0.0825850293625263
 20
0.6978799501723908
 10
0.0559413965500288
 20
0.6978799501723908
  0
LWPOLYLINE
  5
7DE1B343D9DFF57
330
7DE1B343D9E0077
100
AcDbEntity
  8
TEXT
100
AcDbPolyline
 90
        2
 70
     0
 43
0.0006660908203125
 10
0.0825850293625263
 20
0.7378453993911388
 10
0.0559413965500288
 20
0.7378453993911388
  0
LINE
  5
7DE1B343D9DFF5B
330
7DE1B343D9E0077
100
AcDbEntity
  8
TEXT
100
AcDbLine
 10
1.571131825676526
 20
0.7868041441874974
 30
0.0
 11
1.463925552289236
 21
0.7868041441874974
 31
0.0
  0
LINE
  5
7DE1B343D9DFF5C
330
7DE1B343D9E0077
100
AcDbEntity
  8
TEXT
100
AcDbLine
 10
1.600162724021004
 20
0.8510808388442628
 30
0.0
 11
1.465330814803945
 21
0.8510808388442628
 31
0.0
  0
ARC
  5
7DE1B343D9DFF5D
330
7DE1B343D9E0077
100
AcDbEntity
  8
TEXT
100
AcDbCircle
 10
1.524644911197262
 20
0.6818435895812466
 30
0.0
 40
0.0676855811441166
100
AcDbArc
 50
90.0
 51
153.7768192527749
  0
LWPOLYLINE
  5
7DE1B343D9DFF5E
330
7DE1B343D9E0077
100
AcDbEntity
  8
TEXT
100
AcDbPolyline
 90
        2
 70
     0
 43
0.0
 10
1.462893056834426
 20
0.62809875080619
 42
0.2901071551932823
 10
1.505968989702062
 20
0.5846078058557519
 42
5.328517124445801
  0
ARC
  5
7DE1B343D9DFF62
330
7DE1B343D9E0077
100
AcDbEntity
  8
TEXT
100
AcDbCircle
 10
0.8195135335257768
 20
0.6444001971938017
 30
0.0
 40
0.0601160179737537
100
AcDbArc
 50
180.0000000000003
 51
264.0521544866073
  0
LINE
  5
7DE1B343D9DFF63
330
7DE1B343D9E0077
100
AcDbEntity
  8
TEXT
100
AcDbLine
 10
0.8230288891513247
 20
0.8854687564384009
 30
0.0
 11
0.7629862843073177
 21
0.8854687564384009
 31
0.0
  0
ARC
  5
7DE1B343D9DFF64
330
7DE1B343D9E0077
100
AcDbEntity
  8
TEXT
100
AcDbCircle
 10
0.5872545314088063
 20
0.7689933793977611
 30
0.0
 40
0.0820874594465043
100
AcDbArc
 50
90.0
 51
270.0
  0
LWPOLYLINE
  5
7DE1B343D9DFF65
330
7DE1B343D9E0077
100
AcDbEntity
  8
TEXT
100
AcDbPolyline
 90
        2
 70
     0
 43
0.0001332181640625
 10
0.1791681983078417
 20
0.7778108486098868
 10
0.1691768360031511
 20
0.8510808388442663
  0
LWPOLYLINE
  5
7DE1B343D9DFF69
330
7DE1B343D9E0077
100
AcDbEntity
  8
TEXT
100
AcDbPolyline
 90
        2
 70
     0
 43
0.0001332181640625
 10
0.1691768360031511
 20
0.8244372060317653
 10
0.1791681983078417
 20
0.7644890322036398
  0
LWPOLYLINE
  5
7DE1B343D9DFF6D
330
7DE1B343D9E0077
100
AcDbEntity
  8
TEXT
100
AcDbPolyline
 90
        3
 70
     0
 43
0.0006660908203125
 10
0.3223777246750286
 20
0.7378453993911388
 10
0.3223777246750286
 20
0.8510808388442663
 10
0.2091422852219027
 20
0.8510808388442663
  0
LWPOLYLINE
  5
7DE1B343D9DFF72
330
7DE1B343D9E0077
100
AcDbEntity
  8
TEXT
100
AcDbPolyline
 90
        3
 70
     0
 43
0.0006660908203125
 10
0.2957340918625275
 20
0.7378453993911388
 10
0.2957340918625275
 20
0.8244372060317653
 10
0.2091422852219027
 20
0.8244372060317653
  0
LWPOLYLINE
  5
7DE1B343D9DFF77
330
7DE1B343D9E0077
100
AcDbEntity
  8
TEXT
100
AcDbPolyline
 90
        2
 70
     0
 43
0.0001332181640625
 10
0.2957340918625275
 20
0.8244372060317653
 10
0.2357859180344037
 20
0.7644890322036398
  0
LWPOLYLINE
  5
7DE1B343D9DFF7B
330
7DE1B343D9E0077
100
AcDbEntity
  8
TEXT
100
AcDbPolyline
 90
        2
 70
     0
 43
0.0001332181640625
 10
0.2091422852219027
 20
0.8244372060317653
 10
0.1991509229172139
 20
0.7644890322036398
  0
LWPOLYLINE
  5
7DE1B343D9DFF7F
330
7DE1B343D9E0077
100
AcDbEntity
  8
TEXT
100
AcDbPolyline
 90
        2
 70
     0
 43
0.0001332181640625
 10
0.2091422852219027
 20
0.8510808388442663
 10
0.1991509229172139
 20
0.7778108486098868
  0
LWPOLYLINE
  5
7DE1B343D9DFF83
330
7DE1B343D9E0077
100
AcDbEntity
  8
TEXT
100
AcDbPolyline
 90
        2
 70
     0
 43
0.0001332181640625
 10
0.2491077344406525
 20
0.72785403708645
 10
0.3223777246750286
 20
0.7378453993911388
  0
LWPOLYLINE
  5
7DE1B343D9DFF87
330
7DE1B343D9E0077
100
AcDbEntity
  8
TEXT
100
AcDbPolyline
 90
        2
 70
     0
 43
0.0001332181640625
 10
0.2957340918625275
 20
0.7378453993911388
 10
0.2357859180344037
 20
0.72785403708645
  0
LWPOLYLINE
  5
7DE1B343D9DFF8B
330
7DE1B343D9E0077
100
AcDbEntity
  8
TEXT
100
AcDbPolyline
 90
        2
 70
     0
 43
0.0001332181640625
 10
0.3223777246750286
 20
0.6978799501723908
 10
0.2491077344406525
 20
0.707871312477076
  0
LWPOLYLINE
  5
7DE1B343D9DFF8F
330
7DE1B343D9E0077
100
AcDbEntity
  8
TEXT
100
AcDbPolyline
 90
        2
 70
     0
 43
0.0001332181640625
 10
0.2957340918625275
 20
0.6978799501723908
 10
0.2357859180344037
 20
0.707871312477076
  0
LWPOLYLINE
  5
7DE1B343D9DFF93
330
7DE1B343D9E0077
100
AcDbEntity
  8
TEXT
100
AcDbPolyline
 90
        2
 70
     0
 43
0.0001332181640625
 10
0.2957340918625275
 20
0.6112881435317642
 10
0.2357859180344037
 20
0.6712363173598897
  0
LWPOLYLINE
  5
7DE1B343D9DFF97
330
7DE1B343D9E0077
100
AcDbEntity
  8
TEXT
100
AcDbPolyline
 90
        3
 70
     0
 43
0.0006660908203125
 10
0.2091422852219027
 20
0.6112881435317642
 10
0.2957340918625275
 20
0.6112881435317642
 10
0.2957340918625275
 20
0.6978799501723908
  0
LWPOLYLINE
  5
7DE1B343D9DFF9C
330
7DE1B343D9E0077
100
AcDbEntity
  8
TEXT
100
AcDbPolyline
 90
        3
 70
     0
 43
0.0006660908203125
 10
0.2091422852219027
 20
0.5846445107192631
 10
0.3223777246750286
 20
0.5846445107192631
 10
0.3223777246750286
 20
0.6978799501723908
  0
LWPOLYLINE
  5
7DE1B343D9DFFA1
330
7DE1B343D9E0077
100
AcDbEntity
  8
TEXT
100
AcDbPolyline
 90
        5
 70
     0
 43
0.0001332181640625
 10
0.1791681983078417
 20
0.6579145009536392
 10
0.1791681983078417
 20
0.6712363173598897
 10
0.1425332031906537
 20
0.6712363173598897
 10
0.1425332031906537
 20
0.707871312477076
 10
0.1292113867844031
 20
0.707871312477076
  0
LWPOLYLINE
  5
7DE1B343D9DFFA8
330
7DE1B343D9E0077
100
AcDbEntity
  8
TEXT
100
AcDbPolyline
 90
        2
 70
     0
 43
0.0006660908203125
 10
0.1691768360031511
 20
0.6112881435317642
 10
0.1691768360031511
 20
0.5846445107192631
  0
LWPOLYLINE
  5
7DE1B343D9DFFAC
330
7DE1B343D9E0077
100
AcDbEntity
  8
TEXT
100
AcDbPolyline
 90
        2
 70
     0
 43
0.0001332181640625
 10
0.1691768360031511
 20
0.6112881435317642
 10
0.1791681983078417
 20
0.6712363173598897
  0
LWPOLYLINE
  5
7DE1B343D9DFFB0
330
7DE1B343D9E0077
100
AcDbEntity
  8
TEXT
100
AcDbPolyline
 90
        2
 70
     0
 43
0.0001332181640625
 10
0.1691768360031511
 20
0.5846445107192631
 10
0.1791681983078417
 20
0.6579145009536392
  0
LWPOLYLINE
  5
7DE1B343D9DFFB4
330
7DE1B343D9E0077
100
AcDbEntity
  8
TEXT
100
AcDbPolyline
 90
        5
 70
     0
 43
0.0001332181640625
 10
0.1292113867844031
 20
0.72785403708645
 10
0.1425332031906519
 20
0.72785403708645
 10
0.1425332031906519
 20
0.7644890322036398
 10
0.1791681983078417
 20
0.7644890322036398
 10
0.1791681983078417
 20
0.7778108486098868
  0
LWPOLYLINE
  5
7DE1B343D9DFFBB
330
7DE1B343D9E0077
100
AcDbEntity
  8
TEXT
100
AcDbPolyline
 90
        5
 70
     0
 43
0.0001332181640625
 10
0.1991509229172139
 20
0.7778108486098868
 10
0.1991509229172139
 20
0.7644890322036398
 10
0.2357859180344037
 20
0.7644890322036398
 10
0.2357859180344037
 20
0.72785403708645
 10
0.2491077344406525
 20
0.72785403708645
  0
LWPOLYLINE
  5
7DE1B343D9DFFC2
330
7DE1B343D9E0077
100
AcDbEntity
  8
TEXT
100
AcDbPolyline
 90
        2
 70
     0
 43
0.0001332181640625
 10
0.2091422852219027
 20
0.6112881435317642
 10
0.1991509229172139
 20
0.6712363173598897
  0
LWPOLYLINE
  5
7DE1B343D9DFFC6
330
7DE1B343D9E0077
100
AcDbEntity
  8
TEXT
100
AcDbPolyline
 90
        2
 70
     0
 43
0.0001332181640625
 10
0.1991509229172139
 20
0.6579145009536392
 10
0.2091422852219027
 20
0.5846445107192631
  0
LWPOLYLINE
  5
7DE1B343D9DFFCA
330
7DE1B343D9E0077
100
AcDbEntity
  8
TEXT
100
AcDbPolyline
 90
        2
 70
     0
 43
0.0006660908203125
 10
0.2091422852219027
 20
0.6112881435317642
 10
0.2091422852219027
 20
0.5846445107192631
  0
LWPOLYLINE
  5
7DE1B343D9DFFCE
330
7DE1B343D9E0077
100
AcDbEntity
  8
TEXT
100
AcDbPolyline
 90
        5
 70
     0
 43
0.0001332181640625
 10
0.2491077344406525
 20
0.707871312477076
 10
0.2357859180344037
 20
0.707871312477076
 10
0.2357859180344037
 20
0.6712363173598897
 10
0.1991509229172139
 20
0.6712363173598897
 10
0.1991509229172139
 20
0.6579145009536392
  0
LWPOLYLINE
  5
7DE1B343D9DFFD5
330
7DE1B343D9E0077
100
AcDbEntity
  8
TEXT
100
AcDbPolyline
 90
        2
 70
     0
 43
0.0006660908203125
 10
0.2957340918625275
 20
0.7378453993911388
 10
0.3223777246750286
 20
0.7378453993911388
  0
LWPOLYLINE
  5
7DE1B343D9DFFD9
330
7DE1B343D9E0077
100
AcDbEntity
  8
TEXT
100
AcDbPolyline
 90
        2
 70
     0
 43
0.0006660908203125
 10
0.2957340918625275
 20
0.6978799501723908
 10
0.3223777246750286
 20
0.6978799501723908
  0
LINE
  5
7DE1B343D9DFFDD
330
7DE1B343D9E0077
100
AcDbEntity
  8
TEXT
100
AcDbLine
 10
0.5924918615230535
 20
0.7868041441874974
 30
0.0
 11
0.7593975155520248
 21
0.7868041441874974
 31
0.0
  0
LINE
  5
7DE1B343D9DFFDE
330
7DE1B343D9E0077
100
AcDbEntity
  8
TEXT
100
AcDbLine
 10
0.6580919977673546
 20
0.7509994225768696
 30
0.0
 11
0.5924918615230535
 21
0.7509994225768696
 31
0.0
  0
LINE
  5
7DE1B343D9DFFDF
330
7DE1B343D9E0077
100
AcDbEntity
  8
TEXT
100
AcDbLine
 10
0.5051670719623019
 20
0.5846078058557519
 30
0.0
 11
0.6580919977673546
 21
0.5846078058557519
 31
0.0
  0
LINE
  5
7DE1B343D9DFFE0
330
7DE1B343D9E0077
100
AcDbEntity
  8
TEXT
100
AcDbLine
 10
0.6630323716736342
 20
0.6529648121891912
 30
0.0
 11
0.5051670719623001
 21
0.6529648121891912
 31
0.0
  0
LINE
  5
7DE1B343D9DFFE1
330
7DE1B343D9E0077
100
AcDbEntity
  8
TEXT
100
AcDbLine
 10
0.5872545314088054
 20
0.6869059199512558
 30
0.0
 11
0.6630323716736342
 21
0.6869059199512558
 31
0.0
  0
ARC
  5
7DE1B343D9DFFE2
330
7DE1B343D9E0077
100
AcDbEntity
  8
TEXT
100
AcDbCircle
 10
0.5924918615230544
 20
0.7689017833821853
 30
0.0
 40
0.017902360805315
100
AcDbArc
 50
90.0
 51
270.0
  0
LINE
  5
7DE1B343D9DFFE3
330
7DE1B343D9E0077
100
AcDbEntity
  8
TEXT
100
AcDbLine
 10
0.5051670719623001
 20
0.6529648121891912
 30
0.0
 11
0.5051670719623019
 21
0.5846078058557519
 31
0.0
  0
LINE
  5
7DE1B343D9DFFE4
330
7DE1B343D9E0077
100
AcDbEntity
  8
TEXT
100
AcDbLine
 10
0.7593975155520248
 20
0.7868041441874974
 30
0.0
 11
0.7593975155520248
 21
0.6444001971938017
 31
0.0
  0
ARC
  5
7DE1B343D9DFFE5
330
7DE1B343D9E0077
100
AcDbEntity
  8
TEXT
100
AcDbCircle
 10
0.6580919977673555
 20
0.6678036142163089
 30
0.0
 40
0.0831958083605586
100
AcDbArc
 50
270.0
 51
90.0
  0
ARC
  5
7DE1B343D9DFFE6
330
7DE1B343D9E0077
100
AcDbEntity
  8
TEXT
100
AcDbCircle
 10
0.6630323716736351
 20
0.6699353660702253
 30
0.0
 40
0.0169705538810321
100
AcDbArc
 50
270.0
 51
90.0
  0
LWPOLYLINE
  5
7DE1B343D9DFFE7
330
7DE1B343D9E0077
100
AcDbEntity
  8
TEXT
100
AcDbPolyline
 90
        2
 70
     0
 43
0.0006660908203125
 10
0.1691768360031511
 20
0.8244372060317653
 10
0.1691768360031511
 20
0.8510808388442663
  0
LWPOLYLINE
  5
7DE1B343D9DFFEB
330
7DE1B343D9E0077
100
AcDbEntity
  8
TEXT
100
AcDbPolyline
 90
        2
 70
     0
 43
0.0006660908203125
 10
0.2091422852219027
 20
0.8244372060317653
 10
0.2091422852219027
 20
0.8510808388442663
  0
LINE
  5
7DE1B343D9DFFEF
330
7DE1B343D9E0077
100
AcDbEntity
  8
TEXT
100
AcDbLine
 10
0.7629862843073177
 20
0.8510808388442628
 30
0.0
 11
0.5872545314088054
 21
0.8510808388442628
 31
0.0
  0
LINE
  5
7DE1B343D9DFFF0
330
7DE1B343D9E0077
100
AcDbEntity
  8
TEXT
100
AcDbLine
 10
0.7629862843073177
 20
0.8854687564384009
 30
0.0
 11
0.7629862843073177
 21
0.8510808388442628
 31
0.0
  0
LINE
  5
7DE1B343D9DFFF1
330
7DE1B343D9E0077
100
AcDbEntity
  8
TEXT
100
AcDbLine
 10
0.9534581763271699
 20
0.7502088427311423
 30
0.0
 11
0.894827855295232
 21
0.8510808388442628
 31
0.0
  0
LINE
  5
7DE1B343D9DFFF2
330
7DE1B343D9E0077
100
AcDbEntity
  8
TEXT
100
AcDbLine
 10
1.012206739133035
 20
0.8510808388442628
 30
0.0
 11
0.9534581763271699
 21
0.7502088427311423
 31
0.0
  0
LINE
  5
7DE1B343D9DFFF3
330
7DE1B343D9E0077
100
AcDbEntity
  8
TEXT
100
AcDbLine
 10
1.109137364492776
 20
0.6669956439587511
 30
0.0
 11
1.109137364492776
 21
0.9190923165830733
 31
0.0
  0
LINE
  5
7DE1B343D9DFFF4
330
7DE1B343D9E0077
100
AcDbEntity
  8
TEXT
100
AcDbLine
 10
1.141449218630436
 20
0.8510808388442628
 30
0.0
 11
1.141449218630436
 21
0.6502166321118546
 31
0.0
  0
LINE
  5
7DE1B343D9DFFF5
330
7DE1B343D9E0077
100
AcDbEntity
  8
TEXT
100
AcDbLine
 10
1.141449218630436
 20
0.6502166321118546
 30
0.0
 11
1.124455581745835
 21
0.6502166321118546
 31
0.0
  0
LINE
  5
7DE1B343D9DFFF6
330
7DE1B343D9E0077
100
AcDbEntity
  8
TEXT
100
AcDbLine
 10
1.110276937988971
 20
0.5846078058557519
 30
0.0
 11
1.208280271688406
 21
0.5846078058557519
 31
0.0
  0
LINE
  5
7DE1B343D9DFFF7
330
7DE1B343D9E0077
100
AcDbEntity
  8
TEXT
100
AcDbLine
 10
0.9438579393302156
 20
0.6045663119607648
 30
0.0
 11
1.04115764542366
 21
0.7689165228960329
 31
0.0
  0
ARC
  5
7DE1B343D9DFFF8
330
7DE1B343D9E0077
100
AcDbEntity
  8
TEXT
100
AcDbCircle
 10
0.9098143794180016
 20
0.6241555281294476
 30
0.0
 40
0.0392772371940762
100
AcDbArc
 50
270.1604552698595
 51
330.0831797321295
  0
LINE
  5
7DE1B343D9DFFF9
330
7DE1B343D9E0077
100
AcDbEntity
  8
TEXT
100
AcDbLine
 10
0.8132841230321304
 20
0.5846078058557519
 30
0.0
 11
0.9099243741071248
 21
0.5848784449540342
 31
0.0
  0
LWPOLYLINE
  5
7DE1B343D9DFFFA
330
7DE1B343D9E0077
100
AcDbEntity
  8
TEXT
100
AcDbPolyline
 90
        6
 70
     1
 43
0.0
 10
0.85580792660728
 20
0.7868041441874974
 10
0.8254913323870718
 20
0.7868041441874974
 10
0.8254913323870718
 20
0.6636931461326031
 42
0.407328721240804
 10
0.8370349835485482
 20
0.651874231456217
 10
0.897656682593279
 20
0.651874231456217
 10
0.915122023000597
 20
0.6846864604996961
  0
LINE
  5
7DE1B343D9E0002
330
7DE1B343D9E0077
100
AcDbEntity
  8
TEXT
100
AcDbLine
 10
1.04115764542366
 20
0.7689165228960329
 30
0.0
 11
1.04115764542366
 21
0.6361591480706766
 31
0.0
  0
ARC
  5
7DE1B343D9E0003
330
7DE1B343D9E0077
100
AcDbEntity
  8
TEXT
100
AcDbCircle
 10
1.124455581745833
 20
0.6655984383552801
 30
0.0
 40
0.0153818062434269
100
AcDbArc
 50
174.7883570302258
 51
270.0
  0
LWPOLYLINE
  5
7DE1B343D9E0004
330
7DE1B343D9E0077
100
AcDbEntity
  8
TEXT
100
AcDbPolyline
 90
        2
 70
     0
 43
0.0
 10
1.041157645423658
 20
0.6361591480706802
 42
0.3318488747599744
 10
1.110276937988971
 20
0.5846078058557519
 42
-6.868794160588311
  0
LINE
  5
7DE1B343D9E0008
330
7DE1B343D9E0077
100
AcDbEntity
  8
TEXT
100
AcDbLine
 10
1.265669340677667
 20
0.5846078058557519
 30
0.0
 11
1.332727387459507
 21
0.5846078058557519
 31
0.0
  0
LINE
  5
7DE1B343D9E0009
330
7DE1B343D9E0077
100
AcDbEntity
  8
TEXT
100
AcDbLine
 10
1.265669340677667
 20
0.7792503550213875
 30
0.0
 11
1.265669340677667
 21
0.5846078058557519
 31
0.0
  0
LINE
  5
7DE1B343D9E000A
330
7DE1B343D9E0077
100
AcDbEntity
  8
TEXT
100
AcDbLine
 10
1.208280271688406
 20
0.7868041441874974
 30
0.0
 11
1.258115551511553
 21
0.7868041441874974
 31
0.0
  0
LINE
  5
7DE1B343D9E000B
330
7DE1B343D9E0077
100
AcDbEntity
  8
TEXT
100
AcDbLine
 10
1.208280271688406
 20
0.5846078058557519
 30
0.0
 11
1.208280271688406
 21
0.7868041441874974
 31
0.0
  0
LWPOLYLINE
  5
7DE1B343D9E000C
330
7DE1B343D9E0077
100
AcDbEntity
  8
TEXT
100
AcDbPolyline
 90
        2
 70
     0
 43
0.0
 10
1.258115551511551
 20
0.7868041441874974
 42
-0.4142135623731017
 10
1.265669340677665
 20
0.7792503550213875
 42
-0.9999999999999998
  0
LINE
  5
7DE1B343D9E0010
330
7DE1B343D9E0077
100
AcDbEntity
  8
TEXT
100
AcDbLine
 10
1.463925552289236
 20
0.7868041441874974
 30
0.0
 11
1.463925552289236
 21
0.7117517381132908
 31
0.0
  0
LINE
  5
7DE1B343D9E0011
330
7DE1B343D9E0077
100
AcDbEntity
  8
TEXT
100
AcDbLine
 10
1.332727387459507
 20
0.7868041441874974
 30
0.0
 11
1.386860984380457
 21
0.7868041441874974
 31
0.0
  0
LINE
  5
7DE1B343D9E0012
330
7DE1B343D9E0077
100
AcDbEntity
  8
TEXT
100
AcDbLine
 10
1.332727387459507
 20
0.5846078058557519
 30
0.0
 11
1.332727387459507
 21
0.7868041441874974
 31
0.0
  0
LWPOLYLINE
  5
7DE1B343D9E0013
330
7DE1B343D9E0077
100
AcDbEntity
  8
TEXT
100
AcDbPolyline
 90
        2
 70
     0
 43
0.0
 10
1.386860984380455
 20
0.7868041441874974
 42
-0.4142135623731017
 10
1.394414773546569
 20
0.7792503550213875
 42
-0.9999999999999998
  0
LWPOLYLINE
  5
7DE1B343D9E0017
330
7DE1B343D9E0077
100
AcDbEntity
  8
TEXT
100
AcDbPolyline
 90
        4
 70
     0
 43
0.0
 10
1.394414773546569
 20
0.7792503550213875
 10
1.394414773546569
 20
0.5846078058557519
 10
1.462893056834426
 20
0.5846078058557519
 10
1.462893056834426
 20
0.62809875080619
 42
-1.714843617202739
  0
LINE
  5
7DE1B343D9E001D
330
7DE1B343D9E0077
100
AcDbEntity
  8
TEXT
100
AcDbLine
 10
0.8230288891513247
 20
0.8510808388442628
 30
0.0
 11
0.8230288891513247
 21
0.8854687564384009
 31
0.0
  0
LINE
  5
7DE1B343D9E001E
330
7DE1B343D9E0077
100
AcDbEntity
  8
TEXT
100
AcDbLine
 10
0.894827855295232
 20
0.8510808388442628
 30
0.0
 11
0.8230288891513247
 21
0.8510808388442628
 31
0.0
  0
LINE
  5
7DE1B343D9E001F
330
7DE1B343D9E0077
100
AcDbEntity
  8
TEXT
100
AcDbLine
 10
1.042328651926411
 20
0.8510808388442628
 30
0.0
 11
1.012206739133035
 21
0.8510808388442628
 31
0.0
  0
LINE
  5
7DE1B343D9E0020
330
7DE1B343D9E0077
100
AcDbEntity
  8
TEXT
100
AcDbLine
 10
1.042328651926411
 20
0.9190923165830733
 30
0.0
 11
1.042328651926411
 21
0.8510808388442628
 31
0.0
  0
LINE
  5
7DE1B343D9E0021
330
7DE1B343D9E0077
100
AcDbEntity
  8
TEXT
100
AcDbLine
 10
1.109137364492776
 20
0.9190923165830733
 30
0.0
 11
1.042328651926411
 21
0.9190923165830733
 31
0.0
  0
LWPOLYLINE
  5
7DE1B343D9E0022
330
7DE1B343D9E0077
100
AcDbEntity
  8
TEXT
100
AcDbPolyline
 90
        3
 70
     0
 43
0.0
 10
1.429549124090778
 20
0.8510808388442663
 10
1.311248965274734
 20
0.8510808388442663
 10
1.311248965274734
 20
0.8239133420833704
 42
-1.960274751411753
  0
LINE
  5
7DE1B343D9E0027
330
7DE1B343D9E0077
100
AcDbEntity
  8
TEXT
100
AcDbLine
 10
1.275467274561573
 20
0.8510808388442628
 30
0.0
 11
1.141449218630436
 21
0.8510808388442628
 31
0.0
  0
LWPOLYLINE
  5
7DE1B343D9E0028
330
7DE1B343D9E0077
100
AcDbEntity
  8
TEXT
100
AcDbPolyline
 90
        2
 70
     0
 43
0.0
 10
1.275467274561573
 20
0.8510808388442663
 42
-0.3328679258950098
 10
1.311248965274734
 20
0.8239133420833704
 42
6.772930709997214
  0
LINE
  5
7DE1B343D9E002C
330
7DE1B343D9E0077
100
AcDbEntity
  8
TEXT
100
AcDbLine
 10
1.465330814803945
 20
0.8510808388442628
 30
0.0
 11
1.465330814803945
 21
0.8227582930746189
 31
0.0
  0
LWPOLYLINE
  5
7DE1B343D9E002D
330
7DE1B343D9E0077
100
AcDbEntity
  8
TEXT
100
AcDbPolyline
 90
        2
 70
     0
 43
0.0
 10
1.429549124090778
 20
0.8510808388442663
 42
-0.3277054968067132
 10
1.465330814803943
 20
0.8227582930746224
 42
6.667889725900311
  0
LINE
  5
7DE1B343D9E0031
330
7DE1B343D9E0077
100
AcDbEntity
  8
TEXT
100
AcDbLine
 10
1.679122662896045
 20
0.7458688602908355
 30
0.0
 11
1.635371891714144
 21
0.8281191362869806
 31
0.0
  0
LINE
  5
7DE1B343D9E0032
330
7DE1B343D9E0077
100
AcDbEntity
  8
TEXT
100
AcDbLine
 10
1.679122662896045
 20
0.8510808388442628
 30
0.0
 11
1.679122662896045
 21
0.7458688602908355
 31
0.0
  0
LINE
  5
7DE1B343D9E0033
330
7DE1B343D9E0077
100
AcDbEntity
  8
TEXT
100
AcDbLine
 10
1.906806401834414
 20
0.7752155124327248
 30
0.0
 11
1.906806401834414
 21
0.9165450446118635
 31
0.0
  0
LINE
  5
7DE1B343D9E0034
330
7DE1B343D9E0077
100
AcDbEntity
  8
TEXT
100
AcDbLine
 10
1.953904560390399
 20
0.8510808388442628
 30
0.0
 11
1.906806401834414
 21
0.7752155124327248
 31
0.0
  0
LINE
  5
7DE1B343D9E0035
330
7DE1B343D9E0077
100
AcDbEntity
  8
TEXT
100
AcDbLine
 10
1.964339277154322
 20
0.7411875959032893
 30
0.0
 11
2.028896393120027
 21
0.8510808388442628
 31
0.0
  0
LINE
  5
7DE1B343D9E0036
330
7DE1B343D9E0077
100
AcDbEntity
  8
TEXT
100
AcDbLine
 10
1.842971410611641
 20
0.5846078058557519
 30
0.0
 11
1.907349594930262
 21
0.5846078058557519
 31
0.0
  0
LWPOLYLINE
  5
7DE1B343D9E0037
330
7DE1B343D9E0077
100
AcDbEntity
  8
TEXT
100
AcDbPolyline
 90
        2
 70
     0
 43
0.0
 10
1.683062340201083
 20
0.62809875080619
 42
-0.2901071551932486
 10
1.639986407333439
 20
0.5846078058557519
 42
-5.328517124445184
  0
ARC
  5
7DE1B343D9E003B
330
7DE1B343D9E0077
100
AcDbEntity
  8
TEXT
100
AcDbCircle
 10
1.571131825676524
 20
0.7584447691875001
 30
0.0
 40
0.028359375
100
AcDbArc
 50
25.78218179591245
 51
90.0
  0
LINE
  5
7DE1B343D9E003C
330
7DE1B343D9E0077
100
AcDbEntity
  8
TEXT
100
AcDbLine
 10
1.606932900980647
 20
0.7495291707253652
 30
0.0
 11
1.596668140567083
 21
0.7707797102980594
 31
0.0
  0
LINE
  5
7DE1B343D9E003D
330
7DE1B343D9E0077
100
AcDbEntity
  8
TEXT
100
AcDbLine
 10
1.524644911197264
 20
0.7495291707253652
 30
0.0
 11
1.606932900980647
 21
0.7495291707253652
 31
0.0
  0
LWPOLYLINE
  5
7DE1B343D9E003E
330
7DE1B343D9E0077
100
AcDbEntity
  8
TEXT
100
AcDbPolyline
 90
        4
 70
     1
 43
0.0
 10
1.619863942263546
 20
0.6875717838397771
 10
1.531203623603688
 20
0.6875717838397771
 42
0.9999999999999998
 10
1.531203623603688
 20
0.6451732433359164
 10
1.619863942263546
 20
0.6451732433359164
 42
1.0
  0
LWPOLYLINE
  5
7DE1B343D9E0044
330
7DE1B343D9E0077
100
AcDbEntity
  8
TEXT
100
AcDbPolyline
 90
        2
 70
     0
 43
0.0
 10
1.505968989702062
 20
0.5846078058557519
 10
1.639986407333439
 20
0.5846078058557519
 42
0.9999999999999998
  0
LINE
  5
7DE1B343D9E0048
330
7DE1B343D9E0077
100
AcDbEntity
  8
TEXT
100
AcDbLine
 10
1.766323429319078
 20
0.7868041441874974
 30
0.0
 11
1.842971410611636
 21
0.7868041441874974
 31
0.0
  0
LINE
  5
7DE1B343D9E0049
330
7DE1B343D9E0077
100
AcDbEntity
  8
TEXT
100
AcDbLine
 10
1.842971410611636
 20
0.7868041441874974
 30
0.0
 11
1.842971410611641
 21
0.5846078058557519
 31
0.0
  0
ARC
  5
7DE1B343D9E004A
330
7DE1B343D9E0077
100
AcDbEntity
  8
TEXT
100
AcDbCircle
 10
1.766323429319076
 20
0.7618982689048347
 30
0.0
 40
0.0249058752826653
100
AcDbArc
 50
89.99971217465335
 51
179.9999999999985
  0
LINE
  5
7DE1B343D9E004B
330
7DE1B343D9E0077
100
AcDbEntity
  8
TEXT
100
AcDbLine
 10
1.741417554036419
 20
0.5846078058557519
 30
0.0
 11
1.741417554036414
 21
0.7618983112872203
 31
0.0
  0
LWPOLYLINE
  5
7DE1B343D9E004C
330
7DE1B343D9E0077
100
AcDbEntity
  8
TEXT
100
AcDbPolyline
 90
        2
 70
     0
 43
0.0
 10
1.683062340201083
 20
0.5846078058557519
 10
1.741417554036417
 20
0.5846078058557519
  0
LWPOLYLINE
  5
7DE1B343D9E0050
330
7DE1B343D9E0077
100
AcDbEntity
  8
TEXT
100
AcDbPolyline
 90
        2
 70
     0
 43
0.0
 10
1.683062340201083
 20
0.62809875080619
 10
1.683062340201083
 20
0.5846078058557519
  0
LINE
  5
7DE1B343D9E0054
330
7DE1B343D9E0077
100
AcDbEntity
  8
TEXT
100
AcDbLine
 10
2.059831500517932
 20
0.5846078058557519
 30
0.0
 11
1.964339277154322
 21
0.7411875959032893
 31
0.0
  0
LINE
  5
7DE1B343D9E0055
330
7DE1B343D9E0077
100
AcDbEntity
  8
TEXT
100
AcDbLine
 10
1.983253128141726
 20
0.5846078058557519
 30
0.0
 11
2.059831500517932
 21
0.5846078058557519
 31
0.0
  0
LINE
  5
7DE1B343D9E0056
330
7DE1B343D9E0077
100
AcDbEntity
  8
TEXT
100
AcDbLine
 10
1.907349594930262
 20
0.7161873743319321
 30
0.0
 11
1.983253128141726
 21
0.5846078058557519
 31
0.0
  0
LINE
  5
7DE1B343D9E0057
330
7DE1B343D9E0077
100
AcDbEntity
  8
TEXT
100
AcDbLine
 10
1.907349594930262
 20
0.5846078058557519
 30
0.0
 11
1.907349594930262
 21
0.7161873743319321
 31
0.0
  0
LINE
  5
7DE1B343D9E0058
330
7DE1B343D9E0077
100
AcDbEntity
  8
TEXT
100
AcDbLine
 10
1.906806401834414
 20
0.9165450446118635
 30
0.0
 11
1.838491523285141
 21
0.9165450446118635
 31
0.0
  0
ARC
  5
7DE1B343D9E0059
330
7DE1B343D9E0077
100
AcDbEntity
  8
TEXT
100
AcDbCircle
 10
1.598135784243935
 20
0.8094972717233604
 30
0.0
 40
0.0416329381542859
100
AcDbArc
 50
26.56974201007528
 51
87.20939649401342
  0
LINE
  5
7DE1B343D9E005A
330
7DE1B343D9E0077
100
AcDbEntity
  8
TEXT
100
AcDbLine
 10
1.743019569195546
 20
0.8510808388442628
 30
0.0
 11
1.679122662896045
 21
0.8510808388442628
 31
0.0
  0
LINE
  5
7DE1B343D9E005B
330
7DE1B343D9E0077
100
AcDbEntity
  8
TEXT
100
AcDbLine
 10
1.743019569195546
 20
0.8235331889833881
 30
0.0
 11
1.743019569195546
 21
0.8510808388442628
 31
0.0
  0
ARC
  5
7DE1B343D9E005C
330
7DE1B343D9E0077
100
AcDbEntity
  8
TEXT
100
AcDbCircle
 10
1.774212386258654
 20
0.8198351115619979
 30
0.0
 40
0.0314112657011332
100
AcDbArc
 50
95.88484768694724
 51
173.2388340632136
  0
LINE
  5
7DE1B343D9E005D
330
7DE1B343D9E0077
100
AcDbEntity
  8
TEXT
100
AcDbLine
 10
1.838491523285136
 20
0.8510808388442628
 30
0.0
 11
1.770991805635619
 21
0.8510808388442628
 31
0.0
  0
LINE
  5
7DE1B343D9E005E
330
7DE1B343D9E0077
100
AcDbEntity
  8
TEXT
100
AcDbLine
 10
1.838491523285141
 20
0.9165450446118635
 30
0.0
 11
1.838491523285136
 21
0.8510808388442628
 31
0.0
  0
LINE
  5
7DE1B343D9E005F
330
7DE1B343D9E0077
100
AcDbEntity
  8
TEXT
100
AcDbLine
 10
2.028896393120027
 20
0.8510808388442628
 30
0.0
 11
1.953904560390401
 21
0.8510808388442628
 31
0.0
  0
ENDSEC
  0
SECTION
  2
OBJECTS
  0
DICTIONARY
  5
7DE1B343D9E006B
330
0
100
AcDbDictionary
  3
ACAD_GROUP
350
7DE1B343D9E006C
  3
ACAD_LAYOUT
350
7DE1B343D9E0091
  3
ACAD_MLINESTYLE
350
7DE1B343D9E006D
  3
ACAD_PLOTSETTINGS
350
7DE1B343D9E0092
  3
ACAD_PLOTSTYLENAME
350
7DE1B343D9E008F
  3
ACDBHEADERROUNDTRIPXREC
350
7DE1B343D9E009C
  3
ACDBVARIABLEDICTIONARY
350
7DE1B343D9E0099
  0
DICTIONARY
  5
7DE1B343D9E00BE
330
7DE1B343D9E0077
100
AcDbDictionary
280
     1
  3
ACAD_LAYOUTSELFREF
360
7DE1B343D9E00BF
  0
DICTIONARY
  5
7DE1B343D9E00BC
330
7DE1B343D9E0074
100
AcDbDictionary
280
     1
  3
ACAD_LAYOUTSELFREF
360
7DE1B343D9E00BD
  0
DICTIONARY
  5
7DE1B343D9E006C
102
{ACAD_REACTORS
330
7DE1B343D9E006B
102
}
330
7DE1B343D9E006B
100
AcDbDictionary
  0
DICTIONARY
  5
7DE1B343D9E0091
102
{ACAD_REACTORS
330
7DE1B343D9E006B
102
}
330
7DE1B343D9E006B
100
AcDbDictionary
  0
DICTIONARY
  5
7DE1B343D9E006D
102
{ACAD_REACTORS
330
7DE1B343D9E006B
102
}
330
7DE1B343D9E006B
100
AcDbDictionary
  3
STANDARD
350
7DE1B343D9E007A
  0
DICTIONARY
  5
7DE1B343D9E0092
102
{ACAD_REACTORS
330
7DE1B343D9E006B
102
}
330
7DE1B343D9E006B
100
AcDbDictionary
  0
ACDBDICTIONARYWDFLT
  5
7DE1B343D9E008F
102
{ACAD_REACTORS
330
7DE1B343D9E006B
102
}
330
7DE1B343D9E006B
100
AcDbDictionary
281
     1
  3
Normal
350
7DE1B343D9E0090
100
AcDbDictionaryWithDefault
340
7DE1B343D9E0090
  0
DICTIONARY
  5
7DE1B343D9E009C
102
{ACAD_REACTORS
330
7DE1B343D9E006B
102
}
330
7DE1B343D9E006B
100
AcDbDictionary
  3
CEPSNTYPE
350
7DE1B343D9E00A6
  3
FINGERPRINTGUID
350
7DE1B343D9E00A7
  3
HYPERLINKBASE
350
7DE1B343D9E009F
  3
INSUNITS
350
7DE1B343D9E00A5
  3
LAYOUTDICT
350
7DE1B343D9E00A1
  3
LWETCUNION
350
7DE1B343D9E00A4
  3
PLOTSETDICT
350
7DE1B343D9E00A2
  3
PLOTSTYLNAMDICT
350
7DE1B343D9E00A3
  3
PSVPSCALE
350
7DE1B343D9E00A9
  3
PUCSBASE
350
7DE1B343D9E00AC
  3
PUCSORGBACK
350
7DE1B343D9E00B2
  3
PUCSORGBOTTOM
350
7DE1B343D9E00AE
  3
PUCSORGFRONT
350
7DE1B343D9E00B1
  3
PUCSORGLEFT
350
7DE1B343D9E00AF
  3
PUCSORGRIGHT
350
7DE1B343D9E00B0
  3
PUCSORGTOP
350
7DE1B343D9E00AD
  3
PUCSORTHOREF
350
7DE1B343D9E00AA
  3
PUCSORTHOVIEW
350
7DE1B343D9E00AB
  3
STYLESHEET
350
7DE1B343D9E00A0
  3
TSTACKALIGN
350
7DE1B343D9E009D
  3
TSTACKSIZE
350
7DE1B343D9E009E
  3
UCSBASE
350
7DE1B343D9E00B5
  3
UCSORGBACK
350
7DE1B343D9E00BB
  3
UCSORGBOTTOM
350
7DE1B343D9E00B7
  3
UCSORGFRONT
350
7DE1B343D9E00BA
  3
UCSORGLEFT
350
7DE1B343D9E00B8
  3
UCSORGRIGHT
350
7DE1B343D9E00B9
  3
UCSORGTOP
350
7DE1B343D9E00B6
  3
UCSORTHOREF
350
7DE1B343D9E00B3
  3
UCSORTHOVIEW
350
7DE1B343D9E00B4
  3
VERSIONGUID
350
7DE1B343D9E00A8
  0
DICTIONARY
  5
7DE1B343D9E0099
102
{ACAD_REACTORS
330
7DE1B343D9E006B
102
}
330
7DE1B343D9E006B
100
AcDbDictionary
  3
DIMASSOC
350
7DE1B343D9E009A
  0
XRECORD
  5
7DE1B343D9E00BF
102
{ACAD_REACTORS
330
7DE1B343D9E00BE
102
}
330
7DE1B343D9E00BE
100
AcDbXrecord
340
7DE1B343D9E0077
  0
XRECORD
  5
7DE1B343D9E00BD
102
{ACAD_REACTORS
330
7DE1B343D9E00BC
102
}
330
7DE1B343D9E00BC
100
AcDbXrecord
340
7DE1B343D9E0074
  0
MLINESTYLE
  5
7DE1B343D9E007A
102
{ACAD_REACTORS
330
7DE1B343D9E006D
102
}
330
7DE1B343D9E006D
100
AcDbMlineStyle
  2
STANDARD
 70
     0
  3

 62
     0
 51
90.0
 52
90.0
 71
     2
 49
0.5
 62
   256
  6
BYLAYER
 49
-0.5
 62
   256
  6
BYLAYER
  0
ACDBPLACEHOLDER
  5
7DE1B343D9E0090
102
{ACAD_REACTORS
330
7DE1B343D9E008F
102
}
330
7DE1B343D9E008F
100
AcDbPlaceHolder
280
     0
  0
XRECORD
  5
7DE1B343D9E00A6
102
{ACAD_REACTORS
330
7DE1B343D9E009C
102
}
330
7DE1B343D9E009C
100
AcDbXrecord
 90
        0
  0
XRECORD
  5
7DE1B343D9E00A7
102
{ACAD_REACTORS
330
7DE1B343D9E009C
102
}
330
7DE1B343D9E009C
100
AcDbXrecord
  1
{E4F2ACA0-8DB9-11D6-88E6-0090279574E7}
  0
XRECORD
  5
7DE1B343D9E009F
102
{ACAD_REACTORS
330
7DE1B343D9E009C
102
}
330
7DE1B343D9E009C
100
AcDbXrecord
  1

  0
XRECORD
  5
7DE1B343D9E00A5
102
{ACAD_REACTORS
330
7DE1B343D9E009C
102
}
330
7DE1B343D9E009C
100
AcDbXrecord
 90
        0
  0
XRECORD
  5
7DE1B343D9E00A1
102
{ACAD_REACTORS
330
7DE1B343D9E009C
102
}
330
7DE1B343D9E009C
100
AcDbXrecord
340
7DE1B343D9E0091
  0
XRECORD
  5
7DE1B343D9E00A4
102
{ACAD_REACTORS
330
7DE1B343D9E009C
102
}
330
7DE1B343D9E009C
100
AcDbXrecord
 90
    14877
  0
XRECORD
  5
7DE1B343D9E00A2
102
{ACAD_REACTORS
330
7DE1B343D9E009C
102
}
330
7DE1B343D9E009C
100
AcDbXrecord
340
7DE1B343D9E0092
  0
XRECORD
  5
7DE1B343D9E00A3
102
{ACAD_REACTORS
330
7DE1B343D9E009C
102
}
330
7DE1B343D9E009C
100
AcDbXrecord
340
7DE1B343D9E008F
  0
XRECORD
  5
7DE1B343D9E00A9
102
{ACAD_REACTORS
330
7DE1B343D9E009C
102
}
330
7DE1B343D9E009C
100
AcDbXrecord
 40
0.0
  0
XRECORD
  5
7DE1B343D9E00AC
102
{ACAD_REACTORS
330
7DE1B343D9E009C
102
}
330
7DE1B343D9E009C
100
AcDbXrecord
340
0
  0
XRECORD
  5
7DE1B343D9E00B2
102
{ACAD_REACTORS
330
7DE1B343D9E009C
102
}
330
7DE1B343D9E009C
100
AcDbXrecord
 10
0.0
 20
0.0
 30
0.0
  0
XRECORD
  5
7DE1B343D9E00AE
102
{ACAD_REACTORS
330
7DE1B343D9E009C
102
}
330
7DE1B343D9E009C
100
AcDbXrecord
 10
0.0
 20
0.0
 30
0.0
  0
XRECORD
  5
7DE1B343D9E00B1
102
{ACAD_REACTORS
330
7DE1B343D9E009C
102
}
330
7DE1B343D9E009C
100
AcDbXrecord
 10
0.0
 20
0.0
 30
0.0
  0
XRECORD
  5
7DE1B343D9E00AF
102
{ACAD_REACTORS
330
7DE1B343D9E009C
102
}
330
7DE1B343D9E009C
100
AcDbXrecord
 10
0.0
 20
0.0
 30
0.0
  0
XRECORD
  5
7DE1B343D9E00B0
102
{ACAD_REACTORS
330
7DE1B343D9E009C
102
}
330
7DE1B343D9E009C
100
AcDbXrecord
 10
0.0
 20
0.0
 30
0.0
  0
XRECORD
  5
7DE1B343D9E00AD
102
{ACAD_REACTORS
330
7DE1B343D9E009C
102
}
330
7DE1B343D9E009C
100
AcDbXrecord
 10
0.0
 20
0.0
 30
0.0
  0
XRECORD
  5
7DE1B343D9E00AA
102
{ACAD_REACTORS
330
7DE1B343D9E009C
102
}
330
7DE1B343D9E009C
100
AcDbXrecord
340
0
  0
XRECORD
  5
7DE1B343D9E00AB
102
{ACAD_REACTORS
330
7DE1B343D9E009C
102
}
330
7DE1B343D9E009C
100
AcDbXrecord
 70
     0
  0
XRECORD
  5
7DE1B343D9E00A0
102
{ACAD_REACTORS
330
7DE1B343D9E009C
102
}
330
7DE1B343D9E009C
100
AcDbXrecord
  1

  0
XRECORD
  5
7DE1B343D9E009D
102
{ACAD_REACTORS
330
7DE1B343D9E009C
102
}
330
7DE1B343D9E009C
100
AcDbXrecord
 90
        1
  0
XRECORD
  5
7DE1B343D9E009E
102
{ACAD_REACTORS
330
7DE1B343D9E009C
102
}
330
7DE1B343D9E009C
100
AcDbXrecord
 90
       70
  0
XRECORD
  5
7DE1B343D9E00B5
102
{ACAD_REACTORS
330
7DE1B343D9E009C
102
}
330
7DE1B343D9E009C
100
AcDbXrecord
340
0
  0
XRECORD
  5
7DE1B343D9E00BB
102
{ACAD_REACTORS
330
7DE1B343D9E009C
102
}
330
7DE1B343D9E009C
100
AcDbXrecord
 10
0.0
 20
0.0
 30
0.0
  0
XRECORD
  5
7DE1B343D9E00B7
102
{ACAD_REACTORS
330
7DE1B343D9E009C
102
}
330
7DE1B343D9E009C
100
AcDbXrecord
 10
0.0
 20
0.0
 30
0.0
  0
XRECORD
  5
7DE1B343D9E00BA
102
{ACAD_REACTORS
330
7DE1B343D9E009C
102
}
330
7DE1B343D9E009C
100
AcDbXrecord
 10
0.0
 20
0.0
 30
0.0
  0
XRECORD
  5
7DE1B343D9E00B8
102
{ACAD_REACTORS
330
7DE1B343D9E009C
102
}
330
7DE1B343D9E009C
100
AcDbXrecord
 10
0.0
 20
0.0
 30
0.0
  0
XRECORD
  5
7DE1B343D9E00B9
102
{ACAD_REACTORS
330
7DE1B343D9E009C
102
}
330
7DE1B343D9E009C
100
AcDbXrecord
 10
0.0
 20
0.0
 30
0.0
  0
XRECORD
  5
7DE1B343D9E00B6
102
{ACAD_REACTORS
330
7DE1B343D9E009C
102
}
330
7DE1B343D9E009C
100
AcDbXrecord
 10
0.0
 20
0.0
 30
0.0
  0
XRECORD
  5
7DE1B343D9E00B3
102
{ACAD_REACTORS
330
7DE1B343D9E009C
102
}
330
7DE1B343D9E009C
100
AcDbXrecord
340
0
  0
XRECORD
  5
7DE1B343D9E00B4
102
{ACAD_REACTORS
330
7DE1B343D9E009C
102
}
330
7DE1B343D9E009C
100
AcDbXrecord
 70
     0
  0
XRECORD
  5
7DE1B343D9E00A8
102
{ACAD_REACTORS
330
7DE1B343D9E009C
102
}
330
7DE1B343D9E009C
100
AcDbXrecord
  1
{E4F2ACA2-8DB9-11D6-88E6-0090279574E7}
  0
DICTIONARYVAR
  5
7DE1B343D9E009A
102
{ACAD_REACTORS
330
7DE1B343D9E0099
102
}
330
7DE1B343D9E0099
100
DictionaryVariables
280
     0
  1
1
  0
ENDSEC
  0
EOF
