  0
SECTION
  2
HEADER
  9
$ACADVER
  1
AC1014
  9
$ACADMAINTVER
 70
     9
  9
$DWGCODEPAGE
  3
ANSI_1252
  9
$INSBASE
 10
4.357088408750911
 20
5.209748276688761
 30
0.0
  9
$EXTMIN
 10
2.614106829523767
 20
2.256794099261461
 30
0.0
  9
$EXTMAX
 10
6.099326151270902
 20
5.216133256747382
 30
0.0
  9
$LIMMIN
 10
0.0
 20
0.0
  9
$LIMMAX
 10
18.0
 20
12.0
  9
$ORTHOMODE
 70
     1
  9
$REGENMODE
 70
     1
  9
$FILLMODE
 70
     1
  9
$QTEXTMODE
 70
     0
  9
$MIRRTEXT
 70
     0
  9
$DRAGMODE
 70
     2
  9
$LTSCALE
 40
1.0
  9
$OSMODE
 70
    39
  9
$ATTMODE
 70
     1
  9
$TEXTSIZE
 40
0.125
  9
$TRACEWID
 40
0.05
  9
$TEXTSTYLE
  7
ROMANS
  9
$CLAYER
  8
0
  9
$CELTYPE
  6
BYLAYER
  9
$CECOLOR
 62
   256
  9
$CELTSCALE
 40
1.0
  9
$DELOBJ
 70
     1
  9
$DISPSILH
 70
     1
  9
$DIMSCALE
 40
1.0
  9
$DIMASZ
 40
0.125
  9
$DIMEXO
 40
0.125
  9
$DIMDLI
 40
0.375
  9
$DIMRND
 40
0.0
  9
$DIMDLE
 40
0.0
  9
$DIMEXE
 40
0.125
  9
$DIMTP
 40
0.0
  9
$DIMTM
 40
0.0
  9
$DIMTXT
 40
0.125
  9
$DIMCEN
 40
-0.125
  9
$DIMTSZ
 40
0.0
  9
$DIMTOL
 70
     0
  9
$DIMLIM
 70
     0
  9
$DIMTIH
 70
     1
  9
$DIMTOH
 70
     1
  9
$DIMSE1
 70
     0
  9
$DIMSE2
 70
     0
  9
$DIMTAD
 70
     0
  9
$DIMZIN
 70
     4
  9
$DIMBLK
  1

  9
$DIMASO
 70
     1
  9
$DIMSHO
 70
     1
  9
$DIMPOST
  1

  9
$DIMAPOST
  1

  9
$DIMALT
 70
     0
  9
$DIMALTD
 70
     2
  9
$DIMALTF
 40
25.4
  9
$DIMLFAC
 40
1.0
  9
$DIMTOFL
 70
     0
  9
$DIMTVP
 40
0.0
  9
$DIMTIX
 70
     1
  9
$DIMSOXD
 70
     0
  9
$DIMSAH
 70
     0
  9
$DIMBLK1
  1

  9
$DIMBLK2
  1

  9
$DIMSTYLE
  2
STANDARD
  9
$DIMCLRD
 70
     0
  9
$DIMCLRE
 70
     0
  9
$DIMCLRT
 70
     0
  9
$DIMTFAC
 40
1.0
  9
$DIMGAP
 40
0.09
  9
$DIMJUST
 70
     0
  9
$DIMSD1
 70
     0
  9
$DIMSD2
 70
     0
  9
$DIMTOLJ
 70
     1
  9
$DIMTZIN
 70
     4
  9
$DIMALTZ
 70
     0
  9
$DIMALTTZ
 70
     0
  9
$DIMFIT
 70
     3
  9
$DIMUPT
 70
     0
  9
$DIMUNIT
 70
     2
  9
$DIMDEC
 70
     3
  9
$DIMTDEC
 70
     3
  9
$DIMALTU
 70
     2
  9
$DIMALTTD
 70
     2
  9
$DIMTXSTY
  7
ROMANS
  9
$DIMAUNIT
 70
     0
  9
$LUNITS
 70
     2
  9
$LUPREC
 70
     3
  9
$SKETCHINC
 40
0.1
  9
$FILLETRAD
 40
0.03125
  9
$AUNITS
 70
     0
  9
$AUPREC
 70
     0
  9
$MENU
  1
ACAD
  9
$ELEVATION
 40
0.0
  9
$PELEVATION
 40
0.0
  9
$THICKNESS
 40
0.0
  9
$LIMCHECK
 70
     0
  9
$BLIPMODE
 70
     0
  9
$CHAMFERA
 40
0.0
  9
$CHAMFERB
 40
0.0
  9
$CHAMFERC
 40
0.0
  9
$CHAMFERD
 40
0.0
  9
$SKPOLY
 70
     0
  9
$TDCREATE
 40
2448994.699057754
  9
$TDUPDATE
 40
2452458.324685717
  9
$TDINDWG
 40
0.0012816667
  9
$TDUSRTIMER
 40
0.0012816667
  9
$USRTIMER
 70
     1
  9
$ANGBASE
 50
0.0
  9
$ANGDIR
 70
     0
  9
$PDMODE
 70
     0
  9
$PDSIZE
 40
0.0
  9
$PLINEWID
 40
0.0
  9
$COORDS
 70
     2
  9
$SPLFRAME
 70
     0
  9
$SPLINETYPE
 70
     6
  9
$SPLINESEGS
 70
     8
  9
$ATTDIA
 70
     0
  9
$ATTREQ
 70
     1
  9
$HANDLING
 70
 22529
  9
$HANDSEED
  5
7DE1B343D9DFA05
  9
$SURFTAB1
 70
     6
  9
$SURFTAB2
 70
     6
  9
$SURFTYPE
 70
     6
  9
$SURFU
 70
     6
  9
$SURFV
 70
     6
  9
$UCSNAME
  2

  9
$UCSORG
 10
0.0
 20
0.0
 30
0.0
  9
$UCSXDIR
 10
1.0
 20
0.0
 30
0.0
  9
$UCSYDIR
 10
0.0
 20
1.0
 30
0.0
  9
$PUCSNAME
  2

  9
$PUCSORG
 10
0.0
 20
0.0
 30
0.0
  9
$PUCSXDIR
 10
1.0
 20
0.0
 30
0.0
  9
$PUCSYDIR
 10
0.0
 20
1.0
 30
0.0
  9
$USERI1
 70
     0
  9
$USERI2
 70
     0
  9
$USERI3
 70
     0
  9
$USERI4
 70
     0
  9
$USERI5
 70
     0
  9
$USERR1
 40
0.0
  9
$USERR2
 40
0.0
  9
$USERR3
 40
0.0
  9
$USERR4
 40
0.0
  9
$USERR5
 40
0.0
  9
$WORLDVIEW
 70
     1
  9
$SHADEDGE
 70
     3
  9
$SHADEDIF
 70
    70
  9
$TILEMODE
 70
     1
  9
$MAXACTVP
 70
    16
  9
$PINSBASE
 10
0.0
 20
0.0
 30
0.0
  9
$PLIMCHECK
 70
     0
  9
$PEXTMIN
 10
1.000000000000000E+20
 20
1.000000000000000E+20
 30
1.000000000000000E+20
  9
$PEXTMAX
 10
-1.000000000000000E+20
 20
-1.000000000000000E+20
 30
-1.000000000000000E+20
  9
$PLIMMIN
 10
0.0
 20
0.0
  9
$PLIMMAX
 10
12.0
 20
9.0
  9
$UNITMODE
 70
     0
  9
$VISRETAIN
 70
     0
  9
$PLINEGEN
 70
     1
  9
$PSLTSCALE
 70
     0
  9
$TREEDEPTH
 70
  3020
  9
$PICKSTYLE
 70
     1
  9
$CMLSTYLE
  2
STANDARD
  9
$CMLJUST
 70
     0
  9
$CMLSCALE
 40
1.0
  9
$PROXYGRAPHICS
 70
     1
  9
$MEASUREMENT
 70
     0
  0
ENDSEC
  0
SECTION
  2
CLASSES
  0
CLASS
  1
LWPOLYLINE
  2
AcDbPolyline
  3
AutoCAD 2000
 90
        0
280
     0
281
     1
  0
CLASS
  1
ACDBDICTIONARYWDFLT
  2
AcDbDictionaryWithDefault
  3
AutoCAD 2000
 90
        0
280
     0
281
     0
  0
CLASS
  1
ACDBPLACEHOLDER
  2
AcDbPlaceHolder
  3
AutoCAD 2000
 90
        0
280
     0
281
     0
  0
CLASS
  1
LAYOUT
  2
AcDbLayout
  3
AutoCAD 2000
 90
        0
280
     0
281
     0
  0
CLASS
  1
DICTIONARYVAR
  2
AcDbDictionaryVar
  3
AutoCAD 2000
 90
        0
280
     0
281
     0
  0
CLASS
  1
LONG_TRANSACTION
  2
AcDbLongTransaction
  3
AutoCAD 2000
 90
        0
280
     0
281
     0
  0
CLASS
  1
LWPOLYLINE
  2
AcDbPolyline
  3
AutoCAD 2000
 90
        0
280
     0
281
     1
  0
CLASS
  1
HATCH
  2
AcDbHatch
  3
AutoCAD 2000
 90
        0
280
     0
281
     1
  0
CLASS
  1
XRECORD
  2
AcDbXrecord
  3
AutoCAD 2000
 90
        0
280
     0
281
     0
  0
ENDSEC
  0
SECTION
  2
TABLES
  0
TABLE
  2
VPORT
  5
7DE1B343D9DF9AB
330
0
100
AcDbSymbolTable
 70
     2
  0
VPORT
  5
7DE1B343D9DF9E0
330
7DE1B343D9DF9AB
100
AcDbSymbolTableRecord
100
AcDbViewportTableRecord
  2
*ACTIVE
 70
     0
 10
0.0
 20
0.0
 11
1.0
 21
1.0
 12
8.713238049455457
 22
3.736358667882576
 13
0.0
 23
0.0
 14
0.015625
 24
0.015625
 15
0.0
 25
0.0
 16
0.0
 26
0.0
 36
1.0
 17
0.0
 27
0.0
 37
0.0
 40
3.341538796469048
 41
4.320930232558139
 42
50.0
 43
0.0
 44
0.0
 50
0.0
 51
0.0
 71
     0
 72
  2000
 73
     1
 74
     0
 75
     0
 76
     0
 77
     0
 78
     0
  0
ENDTAB
  0
TABLE
  2
LTYPE
  5
7DE1B343D9DF9A8
330
0
100
AcDbSymbolTable
 70
     1
  0
LTYPE
  5
7DE1B343D9DF9B5
330
7DE1B343D9DF9A8
100
AcDbSymbolTableRecord
100
AcDbLinetypeTableRecord
  2
BYBLOCK
 70
     0
  3

 72
    65
 73
     0
 40
0.0
  0
LTYPE
  5
7DE1B343D9DF9B6
330
7DE1B343D9DF9A8
100
AcDbSymbolTableRecord
100
AcDbLinetypeTableRecord
  2
BYLAYER
 70
     0
  3

 72
    65
 73
     0
 40
0.0
  0
LTYPE
  5
7DE1B343D9DF9B7
330
7DE1B343D9DF9A8
100
AcDbSymbolTableRecord
100
AcDbLinetypeTableRecord
  2
CONTINUOUS
 70
     0
  3
Solid line
 72
    65
 73
     0
 40
0.0
  0
ENDTAB
  0
TABLE
  2
LAYER
  5
7DE1B343D9DF9A5
330
0
100
AcDbSymbolTable
 70
     3
  0
LAYER
  5
7DE1B343D9DF9B2
330
7DE1B343D9DF9A5
100
AcDbSymbolTableRecord
100
AcDbLayerTableRecord
  2
0
 70
     0
 62
     7
  6
CONTINUOUS
  0
LAYER
  5
7DE1B343D9DF9C2
330
7DE1B343D9DF9A5
100
AcDbSymbolTableRecord
100
AcDbLayerTableRecord
  2
SCALE
 70
     0
 62
     7
  6
CONTINUOUS
  0
LAYER
  5
7DE1B343D9DF9C3
330
7DE1B343D9DF9A5
100
AcDbSymbolTableRecord
100
AcDbLayerTableRecord
  2
TEXT
 70
     0
 62
     3
  6
CONTINUOUS
  0
ENDTAB
  0
TABLE
  2
STYLE
  5
7DE1B343D9DF9A6
330
0
100
AcDbSymbolTable
 70
     3
  0
STYLE
  5
7DE1B343D9DF9B3
330
7DE1B343D9DF9A6
100
AcDbSymbolTableRecord
100
AcDbTextStyleTableRecord
  2
STANDARD
 70
     0
 40
0.0
 41
1.0
 50
0.0
 71
     0
 42
0.3125
  3
txt
  4

  0
STYLE
  5
7DE1B343D9DF9BF
330
7DE1B343D9DF9A6
100
AcDbSymbolTableRecord
100
AcDbTextStyleTableRecord
  2
ITALICC
 70
     0
 40
0.0
 41
1.0
 50
0.0
 71
     0
 42
0.125
  3
italicc
  4

  0
STYLE
  5
7DE1B343D9DF9D0
330
7DE1B343D9DF9A6
100
AcDbSymbolTableRecord
100
AcDbTextStyleTableRecord
  2
ROMANS
 70
     0
 40
0.0
 41
1.0
 50
0.0
 71
     0
 42
0.125
  3
romans.shx
  4

  0
ENDTAB
  0
TABLE
  2
VIEW
  5
7DE1B343D9DF9A9
330
0
100
AcDbSymbolTable
 70
     0
  0
ENDTAB
  0
TABLE
  2
UCS
  5
7DE1B343D9DF9AA
330
0
100
AcDbSymbolTable
 70
     0
  0
ENDTAB
  0
TABLE
  2
APPID
  5
7DE1B343D9DF9AC
330
0
100
AcDbSymbolTable
 70
     1
  0
APPID
  5
7DE1B343D9DF9B4
330
7DE1B343D9DF9AC
100
AcDbSymbolTableRecord
100
AcDbRegAppTableRecord
  2
ACAD
 70
     0
  0
ENDTAB
  0
TABLE
  2
DIMSTYLE
  5
7DE1B343D9DF9AD
330
0
100
AcDbSymbolTable
 70
     1
  0
DIMSTYLE
105
7DE1B343D9DF9C8
330
7DE1B343D9DF9AD
100
AcDbSymbolTableRecord
100
AcDbDimStyleTableRecord
  2
STANDARD
 70
     0
  3

  4

  5

  6

  7

 40
1.0
 41
0.125
 42
0.125
 43
0.375
 44
0.125
 45
0.0
 46
0.0
 47
0.0
 48
0.0
140
0.125
141
-0.125
142
0.0
143
25.4
144
1.0
145
0.0
146
1.0
147
0.09
 71
     0
 72
     0
 73
     1
 74
     1
 75
     0
 76
     0
 77
     0
 78
     4
170
     0
171
     2
172
     0
173
     0
174
     1
175
     0
176
     0
177
     0
178
     0
270
     2
271
     3
272
     3
273
     2
274
     2
340
7DE1B343D9DF9D0
275
     0
280
     0
281
     0
282
     0
283
     1
284
     4
285
     0
286
     0
287
     3
288
     0
  0
ENDTAB
  0
TABLE
  2
BLOCK_RECORD
  5
7DE1B343D9DF9A4
330
0
100
AcDbSymbolTable
 70
     0
  0
BLOCK_RECORD
  5
7DE1B343D9DF9BB
102
{ACAD_XDICTIONARY
360
7DE1B343D9DFA03
102
}
330
7DE1B343D9DF9A4
100
AcDbSymbolTableRecord
100
AcDbBlockTableRecord
  2
*MODEL_SPACE
  0
BLOCK_RECORD
  5
7DE1B343D9DF9B8
102
{ACAD_XDICTIONARY
360
7DE1B343D9DFA01
102
}
330
7DE1B343D9DF9A4
100
AcDbSymbolTableRecord
100
AcDbBlockTableRecord
  2
*PAPER_SPACE
  0
ENDTAB
  0
ENDSEC
  0
SECTION
  2
BLOCKS
  0
BLOCK
  5
7DE1B343D9DF9C6
330
7DE1B343D9DF9BB
100
AcDbEntity
  8
0
100
AcDbBlockBegin
  2
*MODEL_SPACE
 70
     0
 10
0.0
 20
0.0
 30
0.0
  3
*MODEL_SPACE
  1

  0
ENDBLK
  5
7DE1B343D9DF9C7
330
7DE1B343D9DF9BB
100
AcDbEntity
  8
0
100
AcDbBlockEnd
  0
BLOCK
  5
7DE1B343D9DF9C4
330
7DE1B343D9DF9B8
100
AcDbEntity
 67
     1
  8
0
100
AcDbBlockBegin
  2
*PAPER_SPACE
 70
     0
 10
0.0
 20
0.0
 30
0.0
  3
*PAPER_SPACE
  1

  0
ENDBLK
  5
7DE1B343D9DF9C5
330
7DE1B343D9DF9B8
100
AcDbEntity
 67
     1
  8
0
100
AcDbBlockEnd
  0
ENDSEC
  0
SECTION
  2
ENTITIES
  0
LWPOLYLINE
  5
7DE1B343D9DE3FB
330
7DE1B343D9DF9BB
100
AcDbEntity
  8
SCALE
100
AcDbPolyline
 90
       24
 70
     1
 43
0.0
 10
3.35708840875091
 20
5.13774827668876
 10
4.263338408750911
 20
5.13774827668876
 42
-0.4142135623730951
 10
4.325838408750911
 20
5.07524827668876
 10
4.325838408750911
 20
3.053498276688761
 42
1.0
 10
4.388338408750911
 20
3.053498276688761
 10
4.388338408750911
 20
5.07524827668876
 42
-0.4142135623730951
 10
4.450838408750911
 20
5.13774827668876
 10
5.357088408750911
 20
5.13774827668876
 42
-0.4142135623730951
 10
5.419588408750911
 20
5.07524827668876
 10
5.419588408750911
 20
3.053498276688761
 42
0.9906325249707686
 10
5.482082872909101
 20
3.052910093496677
 42
0.0094117647058825
 10
5.482082872909101
 20
5.179086459880845
 42
0.4087111256761466
 10
5.450838408750911
 20
5.209748276688761
 10
4.913963408750911
 20
5.209748276688761
 10
4.903963408750911
 20
5.199748276688761
 10
4.893963408750911
 20
5.209748276688761
 10
3.82021340875091
 20
5.209748276688761
 10
3.810213408750911
 20
5.199748276688761
 10
3.800213408750911
 20
5.209748276688761
 10
3.26333840875091
 20
5.209748276688761
 42
0.4087111256761466
 10
3.232093944592719
 20
5.179086459880838
 42
0.0094117647058825
 10
3.232093944592719
 20
3.052910093496677
 42
0.9906325249707686
 10
3.29458840875091
 20
3.053498276688761
 10
3.29458840875091
 20
5.07524827668876
 42
-0.4142135623730951
  0
TEXT
  5
7DE1B343D9DF866
330
7DE1B343D9DF9BB
100
AcDbEntity
  8
TEXT
100
AcDbText
 10
3.604112218274721
 20
2.714812703344043
 30
0.0
 40
0.125
  1
PART #130022
  7
ITALICC
 72
     1
 11
4.357088408750911
 21
2.714812703344043
 31
0.0
100
AcDbText
  0
TEXT
  5
7DE1B343D9DF867
330
7DE1B343D9DF9BB
100
AcDbEntity
  8
TEXT
100
AcDbText
 10
4.770393567001232
 20
2.267890060671668
 30
0.0
 40
0.0522247191011236
  1
Phone  1-800-328-2495
 41
1.272321428571429
 72
     5
 11
6.099326151270895
 21
2.267890060671668
 31
0.0
100
AcDbText
  0
TEXT
  5
7DE1B343D9DF868
330
7DE1B343D9DF9BB
100
AcDbEntity
  8
TEXT
100
AcDbText
 10
4.770393567001232
 20
2.547665341570544
 30
0.0
 40
0.0522247191011236
  1
Stylmark  Incorporated
 41
1.221428571428573
 72
     5
 11
6.099326151270895
 21
2.547665341570544
 31
0.0
100
AcDbText
  0
TEXT
  5
7DE1B343D9DF869
330
7DE1B343D9DF9BB
100
AcDbEntity
  8
TEXT
100
AcDbText
 10
4.770393567001232
 20
2.454406914604252
 30
0.0
 40
0.0522247191011236
  1
6536 Main St. N.E. * P.O. Box 32008
 41
0.8388932496075366
 72
     5
 11
6.099326151270895
 21
2.454406914604252
 31
0.0
100
AcDbText
  0
TEXT
  5
7DE1B343D9DF86A
330
7DE1B343D9DF9BB
100
AcDbEntity
  8
TEXT
100
AcDbText
 10
4.770393567001232
 20
2.36114848763796
 30
0.0
 40
0.0522247191011236
  1
Minneapolis, MN 55432-0008
 41
1.11444212721585
 72
     5
 11
6.099326151270895
 21
2.36114848763796
 31
0.0
100
AcDbText
  0
LWPOLYLINE
  5
7DE1B343D9DF86B
330
7DE1B343D9DF9BB
100
AcDbEntity
  8
TEXT
100
AcDbPolyline
 90
        3
 70
     0
 43
0.0006660908203125
 10
2.614439874933924
 20
2.381534823309102
 10
2.614439874933924
 20
2.268299383855975
 10
2.727675314387046
 20
2.268299383855975
  0
LWPOLYLINE
  5
7DE1B343D9DF870
330
7DE1B343D9DF9BB
100
AcDbEntity
  8
TEXT
100
AcDbPolyline
 90
        3
 70
     0
 43
0.0006660908203125
 10
2.641083507746421
 20
2.381534823309102
 10
2.641083507746421
 20
2.294943016668476
 10
2.727675314387046
 20
2.294943016668476
  0
LWPOLYLINE
  5
7DE1B343D9DF875
330
7DE1B343D9DF9BB
100
AcDbEntity
  8
TEXT
100
AcDbPolyline
 90
        2
 70
     0
 43
0.0001332181640625
 10
2.687709865168298
 20
2.391526185613788
 10
2.614439874933924
 20
2.381534823309102
  0
LWPOLYLINE
  5
7DE1B343D9DF879
330
7DE1B343D9DF9BB
100
AcDbEntity
  8
TEXT
100
AcDbPolyline
 90
        2
 70
     0
 43
0.0001332181640625
 10
2.641083507746421
 20
2.381534823309102
 10
2.701031681574549
 20
2.391526185613788
  0
LWPOLYLINE
  5
7DE1B343D9DF87D
330
7DE1B343D9DF9BB
100
AcDbEntity
  8
TEXT
100
AcDbPolyline
 90
        2
 70
     0
 43
0.0001332181640625
 10
2.641083507746421
 20
2.294943016668476
 10
2.701031681574549
 20
2.354891190496601
  0
LWPOLYLINE
  5
7DE1B343D9DF881
330
7DE1B343D9DF9BB
100
AcDbEntity
  8
TEXT
100
AcDbPolyline
 90
        3
 70
     0
 43
0.0006660908203125
 10
2.727675314387046
 20
2.534735711980978
 10
2.614439874933924
 20
2.534735711980978
 10
2.614439874933924
 20
2.42150027252785
  0
LWPOLYLINE
  5
7DE1B343D9DF886
330
7DE1B343D9DF9BB
100
AcDbEntity
  8
TEXT
100
AcDbPolyline
 90
        3
 70
     0
 43
0.0006660908203125
 10
2.727675314387046
 20
2.508092079168477
 10
2.641083507746421
 20
2.508092079168477
 10
2.641083507746421
 20
2.42150027252785
  0
LWPOLYLINE
  5
7DE1B343D9DF88B
330
7DE1B343D9DF9BB
100
AcDbEntity
  8
TEXT
100
AcDbPolyline
 90
        2
 70
     0
 43
0.0001332181640625
 10
2.641083507746421
 20
2.508092079168477
 10
2.701031681574547
 20
2.448143905340351
  0
LWPOLYLINE
  5
7DE1B343D9DF88F
330
7DE1B343D9DF9BB
100
AcDbEntity
  8
TEXT
100
AcDbPolyline
 90
        2
 70
     0
 43
0.0001332181640625
 10
2.641083507746421
 20
2.42150027252785
 10
2.701031681574547
 20
2.411508910223162
  0
LWPOLYLINE
  5
7DE1B343D9DF893
330
7DE1B343D9DF9BB
100
AcDbEntity
  8
TEXT
100
AcDbPolyline
 90
        2
 70
     0
 43
0.0001332181640625
 10
2.614439874933924
 20
2.42150027252785
 10
2.687709865168298
 20
2.411508910223162
  0
LWPOLYLINE
  5
7DE1B343D9DF897
330
7DE1B343D9DF9BB
100
AcDbEntity
  8
TEXT
100
AcDbPolyline
 90
        2
 70
     0
 43
0.0006660908203125
 10
2.641083507746421
 20
2.381534823309102
 10
2.614439874933924
 20
2.381534823309102
  0
LWPOLYLINE
  5
7DE1B343D9DF89B
330
7DE1B343D9DF9BB
100
AcDbEntity
  8
TEXT
100
AcDbPolyline
 90
        2
 70
     0
 43
0.0006660908203125
 10
2.641083507746421
 20
2.42150027252785
 10
2.614439874933924
 20
2.42150027252785
  0
LINE
  5
7DE1B343D9DF89F
330
7DE1B343D9DF9BB
100
AcDbEntity
  8
TEXT
100
AcDbLine
 10
4.129630304060421
 20
2.470459017324209
 30
0.0
 11
4.022424030673132
 21
2.470459017324209
 31
0.0
  0
LINE
  5
7DE1B343D9DF8A0
330
7DE1B343D9DF9BB
100
AcDbEntity
  8
TEXT
100
AcDbLine
 10
4.1586612024049
 20
2.534735711980975
 30
0.0
 11
4.023829293187841
 21
2.534735711980975
 31
0.0
  0
ARC
  5
7DE1B343D9DF8A1
330
7DE1B343D9DF9BB
100
AcDbEntity
  8
TEXT
100
AcDbCircle
 10
4.083143389581158
 20
2.365498462717958
 30
0.0
 40
0.0676855811441166
100
AcDbArc
 50
90.0
 51
153.7768192527749
  0
LWPOLYLINE
  5
7DE1B343D9DF8A2
330
7DE1B343D9DF9BB
100
AcDbEntity
  8
TEXT
100
AcDbPolyline
 90
        2
 70
     0
 43
0.0
 10
4.021391535218322
 20
2.311753623942902
 42
0.2901071551932823
 10
4.064467468085958
 20
2.268262678992464
 42
5.328517124445801
  0
ARC
  5
7DE1B343D9DF8A6
330
7DE1B343D9DF9BB
100
AcDbEntity
  8
TEXT
100
AcDbCircle
 10
3.378012011909672
 20
2.328055070330513
 30
0.0
 40
0.0601160179737537
100
AcDbArc
 50
180.0000000000003
 51
264.0521544866073
  0
LINE
  5
7DE1B343D9DF8A7
330
7DE1B343D9DF9BB
100
AcDbEntity
  8
TEXT
100
AcDbLine
 10
3.38152736753522
 20
2.569123629575113
 30
0.0
 11
3.321484762691213
 21
2.569123629575113
 31
0.0
  0
ARC
  5
7DE1B343D9DF8A8
330
7DE1B343D9DF9BB
100
AcDbEntity
  8
TEXT
100
AcDbCircle
 10
3.145753009792701
 20
2.452648252534473
 30
0.0
 40
0.0820874594465043
100
AcDbArc
 50
90.0
 51
270.0
  0
LWPOLYLINE
  5
7DE1B343D9DF8A9
330
7DE1B343D9DF9BB
100
AcDbEntity
  8
TEXT
100
AcDbPolyline
 90
        2
 70
     0
 43
0.0001332181640625
 10
2.737666676691737
 20
2.461465721746598
 10
2.727675314387046
 20
2.534735711980978
  0
LWPOLYLINE
  5
7DE1B343D9DF8AD
330
7DE1B343D9DF9BB
100
AcDbEntity
  8
TEXT
100
AcDbPolyline
 90
        2
 70
     0
 43
0.0001332181640625
 10
2.727675314387046
 20
2.508092079168477
 10
2.737666676691737
 20
2.448143905340351
  0
LWPOLYLINE
  5
7DE1B343D9DF8B1
330
7DE1B343D9DF9BB
100
AcDbEntity
  8
TEXT
100
AcDbPolyline
 90
        3
 70
     0
 43
0.0006660908203125
 10
2.880876203058924
 20
2.42150027252785
 10
2.880876203058924
 20
2.534735711980978
 10
2.767640763605798
 20
2.534735711980978
  0
LWPOLYLINE
  5
7DE1B343D9DF8B6
330
7DE1B343D9DF9BB
100
AcDbEntity
  8
TEXT
100
AcDbPolyline
 90
        3
 70
     0
 43
0.0006660908203125
 10
2.854232570246423
 20
2.42150027252785
 10
2.854232570246423
 20
2.508092079168477
 10
2.767640763605798
 20
2.508092079168477
  0
LWPOLYLINE
  5
7DE1B343D9DF8BB
330
7DE1B343D9DF9BB
100
AcDbEntity
  8
TEXT
100
AcDbPolyline
 90
        2
 70
     0
 43
0.0001332181640625
 10
2.854232570246423
 20
2.508092079168477
 10
2.794284396418299
 20
2.448143905340351
  0
LWPOLYLINE
  5
7DE1B343D9DF8BF
330
7DE1B343D9DF9BB
100
AcDbEntity
  8
TEXT
100
AcDbPolyline
 90
        2
 70
     0
 43
0.0001332181640625
 10
2.767640763605798
 20
2.508092079168477
 10
2.757649401301109
 20
2.448143905340351
  0
LWPOLYLINE
  5
7DE1B343D9DF8C3
330
7DE1B343D9DF9BB
100
AcDbEntity
  8
TEXT
100
AcDbPolyline
 90
        2
 70
     0
 43
0.0001332181640625
 10
2.767640763605798
 20
2.534735711980978
 10
2.757649401301109
 20
2.461465721746598
  0
LWPOLYLINE
  5
7DE1B343D9DF8C7
330
7DE1B343D9DF9BB
100
AcDbEntity
  8
TEXT
100
AcDbPolyline
 90
        2
 70
     0
 43
0.0001332181640625
 10
2.807606212824548
 20
2.411508910223162
 10
2.880876203058924
 20
2.42150027252785
  0
LWPOLYLINE
  5
7DE1B343D9DF8CB
330
7DE1B343D9DF9BB
100
AcDbEntity
  8
TEXT
100
AcDbPolyline
 90
        2
 70
     0
 43
0.0001332181640625
 10
2.854232570246423
 20
2.42150027252785
 10
2.794284396418299
 20
2.411508910223162
  0
LWPOLYLINE
  5
7DE1B343D9DF8CF
330
7DE1B343D9DF9BB
100
AcDbEntity
  8
TEXT
100
AcDbPolyline
 90
        2
 70
     0
 43
0.0001332181640625
 10
2.880876203058924
 20
2.381534823309102
 10
2.807606212824548
 20
2.391526185613788
  0
LWPOLYLINE
  5
7DE1B343D9DF8D3
330
7DE1B343D9DF9BB
100
AcDbEntity
  8
TEXT
100
AcDbPolyline
 90
        2
 70
     0
 43
0.0001332181640625
 10
2.854232570246423
 20
2.381534823309102
 10
2.794284396418299
 20
2.391526185613788
  0
LWPOLYLINE
  5
7DE1B343D9DF8D7
330
7DE1B343D9DF9BB
100
AcDbEntity
  8
TEXT
100
AcDbPolyline
 90
        2
 70
     0
 43
0.0001332181640625
 10
2.854232570246423
 20
2.294943016668476
 10
2.794284396418299
 20
2.354891190496601
  0
LWPOLYLINE
  5
7DE1B343D9DF8DB
330
7DE1B343D9DF9BB
100
AcDbEntity
  8
TEXT
100
AcDbPolyline
 90
        3
 70
     0
 43
0.0006660908203125
 10
2.767640763605798
 20
2.294943016668476
 10
2.854232570246423
 20
2.294943016668476
 10
2.854232570246423
 20
2.381534823309102
  0
LWPOLYLINE
  5
7DE1B343D9DF8E0
330
7DE1B343D9DF9BB
100
AcDbEntity
  8
TEXT
100
AcDbPolyline
 90
        3
 70
     0
 43
0.0006660908203125
 10
2.767640763605798
 20
2.268299383855975
 10
2.880876203058924
 20
2.268299383855975
 10
2.880876203058924
 20
2.381534823309102
  0
LWPOLYLINE
  5
7DE1B343D9DF8E5
330
7DE1B343D9DF9BB
100
AcDbEntity
  8
TEXT
100
AcDbPolyline
 90
        5
 70
     0
 43
0.0001332181640625
 10
2.737666676691737
 20
2.341569374090351
 10
2.737666676691737
 20
2.354891190496601
 10
2.701031681574549
 20
2.354891190496601
 10
2.701031681574549
 20
2.391526185613788
 10
2.687709865168298
 20
2.391526185613788
  0
LWPOLYLINE
  5
7DE1B343D9DF8EC
330
7DE1B343D9DF9BB
100
AcDbEntity
  8
TEXT
100
AcDbPolyline
 90
        2
 70
     0
 43
0.0006660908203125
 10
2.727675314387046
 20
2.294943016668476
 10
2.727675314387046
 20
2.268299383855975
  0
LWPOLYLINE
  5
7DE1B343D9DF8F0
330
7DE1B343D9DF9BB
100
AcDbEntity
  8
TEXT
100
AcDbPolyline
 90
        2
 70
     0
 43
0.0001332181640625
 10
2.727675314387046
 20
2.294943016668476
 10
2.737666676691737
 20
2.354891190496601
  0
LWPOLYLINE
  5
7DE1B343D9DF8F4
330
7DE1B343D9DF9BB
100
AcDbEntity
  8
TEXT
100
AcDbPolyline
 90
        2
 70
     0
 43
0.0001332181640625
 10
2.727675314387046
 20
2.268299383855975
 10
2.737666676691737
 20
2.341569374090351
  0
LWPOLYLINE
  5
7DE1B343D9DF8F8
330
7DE1B343D9DF9BB
100
AcDbEntity
  8
TEXT
100
AcDbPolyline
 90
        5
 70
     0
 43
0.0001332181640625
 10
2.687709865168298
 20
2.411508910223162
 10
2.701031681574547
 20
2.411508910223162
 10
2.701031681574547
 20
2.448143905340351
 10
2.737666676691737
 20
2.448143905340351
 10
2.737666676691737
 20
2.461465721746598
  0
LWPOLYLINE
  5
7DE1B343D9DF8FF
330
7DE1B343D9DF9BB
100
AcDbEntity
  8
TEXT
100
AcDbPolyline
 90
        5
 70
     0
 43
0.0001332181640625
 10
2.757649401301109
 20
2.461465721746598
 10
2.757649401301109
 20
2.448143905340351
 10
2.794284396418299
 20
2.448143905340351
 10
2.794284396418299
 20
2.411508910223162
 10
2.807606212824548
 20
2.411508910223162
  0
LWPOLYLINE
  5
7DE1B343D9DF906
330
7DE1B343D9DF9BB
100
AcDbEntity
  8
TEXT
100
AcDbPolyline
 90
        2
 70
     0
 43
0.0001332181640625
 10
2.767640763605798
 20
2.294943016668476
 10
2.757649401301109
 20
2.354891190496601
  0
LWPOLYLINE
  5
7DE1B343D9DF90A
330
7DE1B343D9DF9BB
100
AcDbEntity
  8
TEXT
100
AcDbPolyline
 90
        2
 70
     0
 43
0.0001332181640625
 10
2.757649401301109
 20
2.341569374090351
 10
2.767640763605798
 20
2.268299383855975
  0
LWPOLYLINE
  5
7DE1B343D9DF90E
330
7DE1B343D9DF9BB
100
AcDbEntity
  8
TEXT
100
AcDbPolyline
 90
        2
 70
     0
 43
0.0006660908203125
 10
2.767640763605798
 20
2.294943016668476
 10
2.767640763605798
 20
2.268299383855975
  0
LWPOLYLINE
  5
7DE1B343D9DF912
330
7DE1B343D9DF9BB
100
AcDbEntity
  8
TEXT
100
AcDbPolyline
 90
        5
 70
     0
 43
0.0001332181640625
 10
2.807606212824548
 20
2.391526185613788
 10
2.794284396418299
 20
2.391526185613788
 10
2.794284396418299
 20
2.354891190496601
 10
2.757649401301109
 20
2.354891190496601
 10
2.757649401301109
 20
2.341569374090351
  0
LWPOLYLINE
  5
7DE1B343D9DF919
330
7DE1B343D9DF9BB
100
AcDbEntity
  8
TEXT
100
AcDbPolyline
 90
        2
 70
     0
 43
0.0006660908203125
 10
2.854232570246423
 20
2.42150027252785
 10
2.880876203058924
 20
2.42150027252785
  0
LWPOLYLINE
  5
7DE1B343D9DF91D
330
7DE1B343D9DF9BB
100
AcDbEntity
  8
TEXT
100
AcDbPolyline
 90
        2
 70
     0
 43
0.0006660908203125
 10
2.854232570246423
 20
2.381534823309102
 10
2.880876203058924
 20
2.381534823309102
  0
LINE
  5
7DE1B343D9DF921
330
7DE1B343D9DF9BB
100
AcDbEntity
  8
TEXT
100
AcDbLine
 10
3.150990339906948
 20
2.470459017324209
 30
0.0
 11
3.31789599393592
 21
2.470459017324209
 31
0.0
  0
LINE
  5
7DE1B343D9DF922
330
7DE1B343D9DF9BB
100
AcDbEntity
  8
TEXT
100
AcDbLine
 10
3.21659047615125
 20
2.434654295713581
 30
0.0
 11
3.150990339906948
 21
2.434654295713581
 31
0.0
  0
LINE
  5
7DE1B343D9DF923
330
7DE1B343D9DF9BB
100
AcDbEntity
  8
TEXT
100
AcDbLine
 10
3.063665550346197
 20
2.268262678992464
 30
0.0
 11
3.21659047615125
 21
2.268262678992464
 31
0.0
  0
LINE
  5
7DE1B343D9DF924
330
7DE1B343D9DF9BB
100
AcDbEntity
  8
TEXT
100
AcDbLine
 10
3.221530850057529
 20
2.336619685325903
 30
0.0
 11
3.063665550346195
 21
2.336619685325903
 31
0.0
  0
LINE
  5
7DE1B343D9DF925
330
7DE1B343D9DF9BB
100
AcDbEntity
  8
TEXT
100
AcDbLine
 10
3.1457530097927
 20
2.370560793087967
 30
0.0
 11
3.221530850057529
 21
2.370560793087967
 31
0.0
  0
ARC
  5
7DE1B343D9DF926
330
7DE1B343D9DF9BB
100
AcDbEntity
  8
TEXT
100
AcDbCircle
 10
3.150990339906949
 20
2.452556656518897
 30
0.0
 40
0.017902360805315
100
AcDbArc
 50
90.0
 51
270.0
  0
LINE
  5
7DE1B343D9DF927
330
7DE1B343D9DF9BB
100
AcDbEntity
  8
TEXT
100
AcDbLine
 10
3.063665550346195
 20
2.336619685325903
 30
0.0
 11
3.063665550346197
 21
2.268262678992464
 31
0.0
  0
LINE
  5
7DE1B343D9DF928
330
7DE1B343D9DF9BB
100
AcDbEntity
  8
TEXT
100
AcDbLine
 10
3.31789599393592
 20
2.470459017324209
 30
0.0
 11
3.31789599393592
 21
2.328055070330513
 31
0.0
  0
ARC
  5
7DE1B343D9DF929
330
7DE1B343D9DF9BB
100
AcDbEntity
  8
TEXT
100
AcDbCircle
 10
3.21659047615125
 20
2.351458487353021
 30
0.0
 40
0.0831958083605586
100
AcDbArc
 50
270.0
 51
90.0
  0
ARC
  5
7DE1B343D9DF92A
330
7DE1B343D9DF9BB
100
AcDbEntity
  8
TEXT
100
AcDbCircle
 10
3.22153085005753
 20
2.353590239206937
 30
0.0
 40
0.0169705538810321
100
AcDbArc
 50
270.0
 51
90.0
  0
LWPOLYLINE
  5
7DE1B343D9DF92B
330
7DE1B343D9DF9BB
100
AcDbEntity
  8
TEXT
100
AcDbPolyline
 90
        2
 70
     0
 43
0.0006660908203125
 10
2.727675314387046
 20
2.508092079168477
 10
2.727675314387046
 20
2.534735711980978
  0
LWPOLYLINE
  5
7DE1B343D9DF92F
330
7DE1B343D9DF9BB
100
AcDbEntity
  8
TEXT
100
AcDbPolyline
 90
        2
 70
     0
 43
0.0006660908203125
 10
2.767640763605798
 20
2.508092079168477
 10
2.767640763605798
 20
2.534735711980978
  0
LINE
  5
7DE1B343D9DF933
330
7DE1B343D9DF9BB
100
AcDbEntity
  8
TEXT
100
AcDbLine
 10
3.321484762691213
 20
2.534735711980975
 30
0.0
 11
3.1457530097927
 21
2.534735711980975
 31
0.0
  0
LINE
  5
7DE1B343D9DF934
330
7DE1B343D9DF9BB
100
AcDbEntity
  8
TEXT
100
AcDbLine
 10
3.321484762691213
 20
2.569123629575113
 30
0.0
 11
3.321484762691213
 21
2.534735711980975
 31
0.0
  0
LINE
  5
7DE1B343D9DF935
330
7DE1B343D9DF9BB
100
AcDbEntity
  8
TEXT
100
AcDbLine
 10
3.511956654711065
 20
2.433863715867854
 30
0.0
 11
3.453326333679127
 21
2.534735711980975
 31
0.0
  0
LINE
  5
7DE1B343D9DF936
330
7DE1B343D9DF9BB
100
AcDbEntity
  8
TEXT
100
AcDbLine
 10
3.57070521751693
 20
2.534735711980975
 30
0.0
 11
3.511956654711065
 21
2.433863715867854
 31
0.0
  0
LINE
  5
7DE1B343D9DF937
330
7DE1B343D9DF9BB
100
AcDbEntity
  8
TEXT
100
AcDbLine
 10
3.667635842876672
 20
2.350650517095463
 30
0.0
 11
3.667635842876672
 21
2.602747189719785
 31
0.0
  0
LINE
  5
7DE1B343D9DF938
330
7DE1B343D9DF9BB
100
AcDbEntity
  8
TEXT
100
AcDbLine
 10
3.699947697014332
 20
2.534735711980975
 30
0.0
 11
3.699947697014332
 21
2.333871505248566
 31
0.0
  0
LINE
  5
7DE1B343D9DF939
330
7DE1B343D9DF9BB
100
AcDbEntity
  8
TEXT
100
AcDbLine
 10
3.699947697014332
 20
2.333871505248566
 30
0.0
 11
3.682954060129731
 21
2.333871505248566
 31
0.0
  0
LINE
  5
7DE1B343D9DF93A
330
7DE1B343D9DF9BB
100
AcDbEntity
  8
TEXT
100
AcDbLine
 10
3.668775416372866
 20
2.268262678992464
 30
0.0
 11
3.766778750072301
 21
2.268262678992464
 31
0.0
  0
LINE
  5
7DE1B343D9DF93B
330
7DE1B343D9DF9BB
100
AcDbEntity
  8
TEXT
100
AcDbLine
 10
3.502356417714111
 20
2.288221185097476
 30
0.0
 11
3.599656123807555
 21
2.452571396032745
 31
0.0
  0
ARC
  5
7DE1B343D9DF93C
330
7DE1B343D9DF9BB
100
AcDbEntity
  8
TEXT
100
AcDbCircle
 10
3.468312857801897
 20
2.307810401266159
 30
0.0
 40
0.0392772371940762
100
AcDbArc
 50
270.1604552698595
 51
330.0831797321295
  0
LINE
  5
7DE1B343D9DF93D
330
7DE1B343D9DF9BB
100
AcDbEntity
  8
TEXT
100
AcDbLine
 10
3.371782601416025
 20
2.268262678992464
 30
0.0
 11
3.46842285249102
 21
2.268533318090746
 31
0.0
  0
LWPOLYLINE
  5
7DE1B343D9DF93E
330
7DE1B343D9DF9BB
100
AcDbEntity
  8
TEXT
100
AcDbPolyline
 90
        6
 70
     1
 43
0.0
 10
3.414306404991175
 20
2.470459017324209
 10
3.383989810770967
 20
2.470459017324209
 10
3.383989810770967
 20
2.347348019269315
 42
0.407328721240804
 10
3.395533461932443
 20
2.335529104592929
 10
3.456155160977174
 20
2.335529104592929
 10
3.473620501384492
 20
2.368341333636408
  0
LINE
  5
7DE1B343D9DF946
330
7DE1B343D9DF9BB
100
AcDbEntity
  8
TEXT
100
AcDbLine
 10
3.599656123807555
 20
2.452571396032745
 30
0.0
 11
3.599656123807555
 21
2.319814021207388
 31
0.0
  0
ARC
  5
7DE1B343D9DF947
330
7DE1B343D9DF9BB
100
AcDbEntity
  8
TEXT
100
AcDbCircle
 10
3.682954060129729
 20
2.349253311491992
 30
0.0
 40
0.0153818062434269
100
AcDbArc
 50
174.7883570302258
 51
270.0
  0
LWPOLYLINE
  5
7DE1B343D9DF948
330
7DE1B343D9DF9BB
100
AcDbEntity
  8
TEXT
100
AcDbPolyline
 90
        2
 70
     0
 43
0.0
 10
3.599656123807553
 20
2.319814021207392
 42
0.3318488747599744
 10
3.668775416372866
 20
2.268262678992464
 42
-6.868794160588311
  0
LINE
  5
7DE1B343D9DF94C
330
7DE1B343D9DF9BB
100
AcDbEntity
  8
TEXT
100
AcDbLine
 10
3.824167819061562
 20
2.268262678992464
 30
0.0
 11
3.891225865843402
 21
2.268262678992464
 31
0.0
  0
LINE
  5
7DE1B343D9DF94D
330
7DE1B343D9DF9BB
100
AcDbEntity
  8
TEXT
100
AcDbLine
 10
3.824167819061562
 20
2.462905228158099
 30
0.0
 11
3.824167819061562
 21
2.268262678992464
 31
0.0
  0
LINE
  5
7DE1B343D9DF94E
330
7DE1B343D9DF9BB
100
AcDbEntity
  8
TEXT
100
AcDbLine
 10
3.766778750072301
 20
2.470459017324209
 30
0.0
 11
3.816614029895449
 21
2.470459017324209
 31
0.0
  0
LINE
  5
7DE1B343D9DF94F
330
7DE1B343D9DF9BB
100
AcDbEntity
  8
TEXT
100
AcDbLine
 10
3.766778750072301
 20
2.268262678992464
 30
0.0
 11
3.766778750072301
 21
2.470459017324209
 31
0.0
  0
LWPOLYLINE
  5
7DE1B343D9DF950
330
7DE1B343D9DF9BB
100
AcDbEntity
  8
TEXT
100
AcDbPolyline
 90
        2
 70
     0
 43
0.0
 10
3.816614029895447
 20
2.470459017324209
 42
-0.4142135623731017
 10
3.82416781906156
 20
2.462905228158099
 42
-0.9999999999999998
  0
LINE
  5
7DE1B343D9DF954
330
7DE1B343D9DF9BB
100
AcDbEntity
  8
TEXT
100
AcDbLine
 10
4.022424030673132
 20
2.470459017324209
 30
0.0
 11
4.022424030673132
 21
2.395406611250002
 31
0.0
  0
LINE
  5
7DE1B343D9DF955
330
7DE1B343D9DF9BB
100
AcDbEntity
  8
TEXT
100
AcDbLine
 10
3.891225865843402
 20
2.470459017324209
 30
0.0
 11
3.945359462764352
 21
2.470459017324209
 31
0.0
  0
LINE
  5
7DE1B343D9DF956
330
7DE1B343D9DF9BB
100
AcDbEntity
  8
TEXT
100
AcDbLine
 10
3.891225865843402
 20
2.268262678992464
 30
0.0
 11
3.891225865843402
 21
2.470459017324209
 31
0.0
  0
LWPOLYLINE
  5
7DE1B343D9DF957
330
7DE1B343D9DF9BB
100
AcDbEntity
  8
TEXT
100
AcDbPolyline
 90
        2
 70
     0
 43
0.0
 10
3.945359462764351
 20
2.470459017324209
 42
-0.4142135623731017
 10
3.952913251930464
 20
2.462905228158099
 42
-0.9999999999999998
  0
LWPOLYLINE
  5
7DE1B343D9DF95B
330
7DE1B343D9DF9BB
100
AcDbEntity
  8
TEXT
100
AcDbPolyline
 90
        4
 70
     0
 43
0.0
 10
3.952913251930464
 20
2.462905228158099
 10
3.952913251930464
 20
2.268262678992464
 10
4.021391535218322
 20
2.268262678992464
 10
4.021391535218322
 20
2.311753623942902
 42
-1.714843617202739
  0
LINE
  5
7DE1B343D9DF961
330
7DE1B343D9DF9BB
100
AcDbEntity
  8
TEXT
100
AcDbLine
 10
3.38152736753522
 20
2.534735711980975
 30
0.0
 11
3.38152736753522
 21
2.569123629575113
 31
0.0
  0
LINE
  5
7DE1B343D9DF962
330
7DE1B343D9DF9BB
100
AcDbEntity
  8
TEXT
100
AcDbLine
 10
3.453326333679127
 20
2.534735711980975
 30
0.0
 11
3.38152736753522
 21
2.534735711980975
 31
0.0
  0
LINE
  5
7DE1B343D9DF963
330
7DE1B343D9DF9BB
100
AcDbEntity
  8
TEXT
100
AcDbLine
 10
3.600827130310307
 20
2.534735711980975
 30
0.0
 11
3.57070521751693
 21
2.534735711980975
 31
0.0
  0
LINE
  5
7DE1B343D9DF964
330
7DE1B343D9DF9BB
100
AcDbEntity
  8
TEXT
100
AcDbLine
 10
3.600827130310307
 20
2.602747189719785
 30
0.0
 11
3.600827130310307
 21
2.534735711980975
 31
0.0
  0
LINE
  5
7DE1B343D9DF965
330
7DE1B343D9DF9BB
100
AcDbEntity
  8
TEXT
100
AcDbLine
 10
3.667635842876672
 20
2.602747189719785
 30
0.0
 11
3.600827130310307
 21
2.602747189719785
 31
0.0
  0
LWPOLYLINE
  5
7DE1B343D9DF966
330
7DE1B343D9DF9BB
100
AcDbEntity
  8
TEXT
100
AcDbPolyline
 90
        3
 70
     0
 43
0.0
 10
3.988047602474674
 20
2.534735711980978
 10
3.86974744365863
 20
2.534735711980978
 10
3.86974744365863
 20
2.507568215220082
 42
-1.960274751411753
  0
LINE
  5
7DE1B343D9DF96B
330
7DE1B343D9DF9BB
100
AcDbEntity
  8
TEXT
100
AcDbLine
 10
3.833965752945468
 20
2.534735711980975
 30
0.0
 11
3.699947697014332
 21
2.534735711980975
 31
0.0
  0
LWPOLYLINE
  5
7DE1B343D9DF96C
330
7DE1B343D9DF9BB
100
AcDbEntity
  8
TEXT
100
AcDbPolyline
 90
        2
 70
     0
 43
0.0
 10
3.833965752945468
 20
2.534735711980978
 42
-0.3328679258950098
 10
3.86974744365863
 20
2.507568215220082
 42
6.772930709997214
  0
LINE
  5
7DE1B343D9DF970
330
7DE1B343D9DF9BB
100
AcDbEntity
  8
TEXT
100
AcDbLine
 10
4.023829293187841
 20
2.534735711980975
 30
0.0
 11
4.023829293187841
 21
2.506413166211331
 31
0.0
  0
LWPOLYLINE
  5
7DE1B343D9DF971
330
7DE1B343D9DF9BB
100
AcDbEntity
  8
TEXT
100
AcDbPolyline
 90
        2
 70
     0
 43
0.0
 10
3.988047602474674
 20
2.534735711980978
 42
-0.3277054968067132
 10
4.023829293187839
 20
2.506413166211334
 42
6.667889725900311
  0
LINE
  5
7DE1B343D9DF975
330
7DE1B343D9DF9BB
100
AcDbEntity
  8
TEXT
100
AcDbLine
 10
4.237621141279941
 20
2.429523733427547
 30
0.0
 11
4.193870370098039
 21
2.511774009423692
 31
0.0
  0
LINE
  5
7DE1B343D9DF976
330
7DE1B343D9DF9BB
100
AcDbEntity
  8
TEXT
100
AcDbLine
 10
4.237621141279941
 20
2.534735711980975
 30
0.0
 11
4.237621141279941
 21
2.429523733427547
 31
0.0
  0
LINE
  5
7DE1B343D9DF977
330
7DE1B343D9DF9BB
100
AcDbEntity
  8
TEXT
100
AcDbLine
 10
4.46530488021831
 20
2.458870385569436
 30
0.0
 11
4.46530488021831
 21
2.600199917748575
 31
0.0
  0
LINE
  5
7DE1B343D9DF978
330
7DE1B343D9DF9BB
100
AcDbEntity
  8
TEXT
100
AcDbLine
 10
4.512403038774294
 20
2.534735711980975
 30
0.0
 11
4.46530488021831
 21
2.458870385569436
 31
0.0
  0
LINE
  5
7DE1B343D9DF979
330
7DE1B343D9DF9BB
100
AcDbEntity
  8
TEXT
100
AcDbLine
 10
4.522837755538217
 20
2.424842469040001
 30
0.0
 11
4.587394871503922
 21
2.534735711980975
 31
0.0
  0
LINE
  5
7DE1B343D9DF97A
330
7DE1B343D9DF9BB
100
AcDbEntity
  8
TEXT
100
AcDbLine
 10
4.401469888995537
 20
2.268262678992464
 30
0.0
 11
4.465848073314157
 21
2.268262678992464
 31
0.0
  0
LWPOLYLINE
  5
7DE1B343D9DF97B
330
7DE1B343D9DF9BB
100
AcDbEntity
  8
TEXT
100
AcDbPolyline
 90
        2
 70
     0
 43
0.0
 10
4.241560818584979
 20
2.311753623942902
 42
-0.2901071551932486
 10
4.198484885717334
 20
2.268262678992464
 42
-5.328517124445184
  0
ARC
  5
7DE1B343D9DF97F
330
7DE1B343D9DF9BB
100
AcDbEntity
  8
TEXT
100
AcDbCircle
 10
4.12963030406042
 20
2.442099642324212
 30
0.0
 40
0.028359375
100
AcDbArc
 50
25.78218179591245
 51
90.0
  0
LINE
  5
7DE1B343D9DF980
330
7DE1B343D9DF9BB
100
AcDbEntity
  8
TEXT
100
AcDbLine
 10
4.165431379364543
 20
2.433184043862077
 30
0.0
 11
4.155166618950978
 21
2.454434583434771
 31
0.0
  0
LINE
  5
7DE1B343D9DF981
330
7DE1B343D9DF9BB
100
AcDbEntity
  8
TEXT
100
AcDbLine
 10
4.083143389581159
 20
2.433184043862077
 30
0.0
 11
4.165431379364543
 21
2.433184043862077
 31
0.0
  0
LWPOLYLINE
  5
7DE1B343D9DF982
330
7DE1B343D9DF9BB
100
AcDbEntity
  8
TEXT
100
AcDbPolyline
 90
        4
 70
     1
 43
0.0
 10
4.178362420647442
 20
2.371226656976489
 10
4.089702101987583
 20
2.371226656976489
 42
0.9999999999999998
 10
4.089702101987583
 20
2.328828116472628
 10
4.178362420647442
 20
2.328828116472628
 42
1.0
  0
LWPOLYLINE
  5
7DE1B343D9DF988
330
7DE1B343D9DF9BB
100
AcDbEntity
  8
TEXT
100
AcDbPolyline
 90
        2
 70
     0
 43
0.0
 10
4.064467468085958
 20
2.268262678992464
 10
4.198484885717334
 20
2.268262678992464
 42
0.9999999999999998
  0
LINE
  5
7DE1B343D9DF98C
330
7DE1B343D9DF9BB
100
AcDbEntity
  8
TEXT
100
AcDbLine
 10
4.324821907702974
 20
2.470459017324209
 30
0.0
 11
4.401469888995531
 21
2.470459017324209
 31
0.0
  0
LINE
  5
7DE1B343D9DF98D
330
7DE1B343D9DF9BB
100
AcDbEntity
  8
TEXT
100
AcDbLine
 10
4.401469888995531
 20
2.470459017324209
 30
0.0
 11
4.401469888995537
 21
2.268262678992464
 31
0.0
  0
ARC
  5
7DE1B343D9DF98E
330
7DE1B343D9DF9BB
100
AcDbEntity
  8
TEXT
100
AcDbCircle
 10
4.324821907702972
 20
2.445553142041546
 30
0.0
 40
0.0249058752826653
100
AcDbArc
 50
89.99971217465335
 51
179.9999999999985
  0
LINE
  5
7DE1B343D9DF98F
330
7DE1B343D9DF9BB
100
AcDbEntity
  8
TEXT
100
AcDbLine
 10
4.299916032420314
 20
2.268262678992464
 30
0.0
 11
4.299916032420309
 21
2.445553184423932
 31
0.0
  0
LWPOLYLINE
  5
7DE1B343D9DF990
330
7DE1B343D9DF9BB
100
AcDbEntity
  8
TEXT
100
AcDbPolyline
 90
        2
 70
     0
 43
0.0
 10
4.241560818584979
 20
2.268262678992464
 10
4.299916032420313
 20
2.268262678992464
  0
LWPOLYLINE
  5
7DE1B343D9DF994
330
7DE1B343D9DF9BB
100
AcDbEntity
  8
TEXT
100
AcDbPolyline
 90
        2
 70
     0
 43
0.0
 10
4.241560818584979
 20
2.311753623942902
 10
4.241560818584979
 20
2.268262678992464
  0
LINE
  5
7DE1B343D9DF998
330
7DE1B343D9DF9BB
100
AcDbEntity
  8
TEXT
100
AcDbLine
 10
4.618329978901828
 20
2.268262678992464
 30
0.0
 11
4.522837755538217
 21
2.424842469040001
 31
0.0
  0
LINE
  5
7DE1B343D9DF999
330
7DE1B343D9DF9BB
100
AcDbEntity
  8
TEXT
100
AcDbLine
 10
4.541751606525622
 20
2.268262678992464
 30
0.0
 11
4.618329978901828
 21
2.268262678992464
 31
0.0
  0
LINE
  5
7DE1B343D9DF99A
330
7DE1B343D9DF9BB
100
AcDbEntity
  8
TEXT
100
AcDbLine
 10
4.465848073314157
 20
2.399842247468644
 30
0.0
 11
4.541751606525622
 21
2.268262678992464
 31
0.0
  0
LINE
  5
7DE1B343D9DF99B
330
7DE1B343D9DF9BB
100
AcDbEntity
  8
TEXT
100
AcDbLine
 10
4.465848073314157
 20
2.268262678992464
 30
0.0
 11
4.465848073314157
 21
2.399842247468644
 31
0.0
  0
LINE
  5
7DE1B343D9DF99C
330
7DE1B343D9DF9BB
100
AcDbEntity
  8
TEXT
100
AcDbLine
 10
4.46530488021831
 20
2.600199917748575
 30
0.0
 11
4.396990001669037
 21
2.600199917748575
 31
0.0
  0
ARC
  5
7DE1B343D9DF99D
330
7DE1B343D9DF9BB
100
AcDbEntity
  8
TEXT
100
AcDbCircle
 10
4.15663426262783
 20
2.493152144860072
 30
0.0
 40
0.0416329381542859
100
AcDbArc
 50
26.56974201007528
 51
87.20939649401342
  0
LINE
  5
7DE1B343D9DF99E
330
7DE1B343D9DF9BB
100
AcDbEntity
  8
TEXT
100
AcDbLine
 10
4.301518047579442
 20
2.534735711980975
 30
0.0
 11
4.237621141279941
 21
2.534735711980975
 31
0.0
  0
LINE
  5
7DE1B343D9DF99F
330
7DE1B343D9DF9BB
100
AcDbEntity
  8
TEXT
100
AcDbLine
 10
4.301518047579442
 20
2.5071880621201
 30
0.0
 11
4.301518047579442
 21
2.534735711980975
 31
0.0
  0
ARC
  5
7DE1B343D9DF9A0
330
7DE1B343D9DF9BB
100
AcDbEntity
  8
TEXT
100
AcDbCircle
 10
4.33271086464255
 20
2.50348998469871
 30
0.0
 40
0.0314112657011332
100
AcDbArc
 50
95.88484768694724
 51
173.2388340632136
  0
LINE
  5
7DE1B343D9DF9A1
330
7DE1B343D9DF9BB
100
AcDbEntity
  8
TEXT
100
AcDbLine
 10
4.396990001669031
 20
2.534735711980975
 30
0.0
 11
4.329490284019515
 21
2.534735711980975
 31
0.0
  0
LINE
  5
7DE1B343D9DF9A2
330
7DE1B343D9DF9BB
100
AcDbEntity
  8
TEXT
100
AcDbLine
 10
4.396990001669037
 20
2.600199917748575
 30
0.0
 11
4.396990001669031
 21
2.534735711980975
 31
0.0
  0
LINE
  5
7DE1B343D9DF9A3
330
7DE1B343D9DF9BB
100
AcDbEntity
  8
TEXT
100
AcDbLine
 10
4.587394871503922
 20
2.534735711980975
 30
0.0
 11
4.512403038774296
 21
2.534735711980975
 31
0.0
  0
ENDSEC
  0
SECTION
  2
OBJECTS
  0
DICTIONARY
  5
7DE1B343D9DF9AF
330
0
100
AcDbDictionary
  3
ACAD_GROUP
350
7DE1B343D9DF9B0
  3
ACAD_LAYOUT
350
7DE1B343D9DF9D6
  3
ACAD_MLINESTYLE
350
7DE1B343D9DF9B1
  3
ACAD_PLOTSETTINGS
350
7DE1B343D9DF9D7
  3
ACAD_PLOTSTYLENAME
350
7DE1B343D9DF9D4
  3
ACDBHEADERROUNDTRIPXREC
350
7DE1B343D9DF9E1
  3
ACDBVARIABLEDICTIONARY
350
7DE1B343D9DF9DE
  0
DICTIONARY
  5
7DE1B343D9DFA03
330
7DE1B343D9DF9BB
100
AcDbDictionary
280
     1
  3
ACAD_LAYOUTSELFREF
360
7DE1B343D9DFA04
  0
DICTIONARY
  5
7DE1B343D9DFA01
330
7DE1B343D9DF9B8
100
AcDbDictionary
280
     1
  3
ACAD_LAYOUTSELFREF
360
7DE1B343D9DFA02
  0
DICTIONARY
  5
7DE1B343D9DF9B0
102
{ACAD_REACTORS
330
7DE1B343D9DF9AF
102
}
330
7DE1B343D9DF9AF
100
AcDbDictionary
  0
DICTIONARY
  5
7DE1B343D9DF9D6
102
{ACAD_REACTORS
330
7DE1B343D9DF9AF
102
}
330
7DE1B343D9DF9AF
100
AcDbDictionary
  0
DICTIONARY
  5
7DE1B343D9DF9B1
102
{ACAD_REACTORS
330
7DE1B343D9DF9AF
102
}
330
7DE1B343D9DF9AF
100
AcDbDictionary
  3
STANDARD
350
7DE1B343D9DF9BE
  0
DICTIONARY
  5
7DE1B343D9DF9D7
102
{ACAD_REACTORS
330
7DE1B343D9DF9AF
102
}
330
7DE1B343D9DF9AF
100
AcDbDictionary
  0
ACDBDICTIONARYWDFLT
  5
7DE1B343D9DF9D4
102
{ACAD_REACTORS
330
7DE1B343D9DF9AF
102
}
330
7DE1B343D9DF9AF
100
AcDbDictionary
281
     1
  3
Normal
350
7DE1B343D9DF9D5
100
AcDbDictionaryWithDefault
340
7DE1B343D9DF9D5
  0
DICTIONARY
  5
7DE1B343D9DF9E1
102
{ACAD_REACTORS
330
7DE1B343D9DF9AF
102
}
330
7DE1B343D9DF9AF
100
AcDbDictionary
  3
CEPSNTYPE
350
7DE1B343D9DF9EB
  3
FINGERPRINTGUID
350
7DE1B343D9DF9EC
  3
HYPERLINKBASE
350
7DE1B343D9DF9E4
  3
INSUNITS
350
7DE1B343D9DF9EA
  3
LAYOUTDICT
350
7DE1B343D9DF9E6
  3
LWETCUNION
350
7DE1B343D9DF9E9
  3
PLOTSETDICT
350
7DE1B343D9DF9E7
  3
PLOTSTYLNAMDICT
350
7DE1B343D9DF9E8
  3
PSVPSCALE
350
7DE1B343D9DF9EE
  3
PUCSBASE
350
7DE1B343D9DF9F1
  3
PUCSORGBACK
350
7DE1B343D9DF9F7
  3
PUCSORGBOTTOM
350
7DE1B343D9DF9F3
  3
PUCSORGFRONT
350
7DE1B343D9DF9F6
  3
PUCSORGLEFT
350
7DE1B343D9DF9F4
  3
PUCSORGRIGHT
350
7DE1B343D9DF9F5
  3
PUCSORGTOP
350
7DE1B343D9DF9F2
  3
PUCSORTHOREF
350
7DE1B343D9DF9EF
  3
PUCSORTHOVIEW
350
7DE1B343D9DF9F0
  3
STYLESHEET
350
7DE1B343D9DF9E5
  3
TSTACKALIGN
350
7DE1B343D9DF9E2
  3
TSTACKSIZE
350
7DE1B343D9DF9E3
  3
UCSBASE
350
7DE1B343D9DF9FA
  3
UCSORGBACK
350
7DE1B343D9DFA00
  3
UCSORGBOTTOM
350
7DE1B343D9DF9FC
  3
UCSORGFRONT
350
7DE1B343D9DF9FF
  3
UCSORGLEFT
350
7DE1B343D9DF9FD
  3
UCSORGRIGHT
350
7DE1B343D9DF9FE
  3
UCSORGTOP
350
7DE1B343D9DF9FB
  3
UCSORTHOREF
350
7DE1B343D9DF9F8
  3
UCSORTHOVIEW
350
7DE1B343D9DF9F9
  3
VERSIONGUID
350
7DE1B343D9DF9ED
  0
DICTIONARY
  5
7DE1B343D9DF9DE
102
{ACAD_REACTORS
330
7DE1B343D9DF9AF
102
}
330
7DE1B343D9DF9AF
100
AcDbDictionary
  3
DIMASSOC
350
7DE1B343D9DF9DF
  0
XRECORD
  5
7DE1B343D9DFA04
102
{ACAD_REACTORS
330
7DE1B343D9DFA03
102
}
330
7DE1B343D9DFA03
100
AcDbXrecord
340
7DE1B343D9DF9BB
  0
XRECORD
  5
7DE1B343D9DFA02
102
{ACAD_REACTORS
330
7DE1B343D9DFA01
102
}
330
7DE1B343D9DFA01
100
AcDbXrecord
340
7DE1B343D9DF9B8
  0
MLINESTYLE
  5
7DE1B343D9DF9BE
102
{ACAD_REACTORS
330
7DE1B343D9DF9B1
102
}
330
7DE1B343D9DF9B1
100
AcDbMlineStyle
  2
STANDARD
 70
     0
  3

 62
     0
 51
90.0
 52
90.0
 71
     2
 49
0.5
 62
   256
  6
BYLAYER
 49
-0.5
 62
   256
  6
BYLAYER
  0
ACDBPLACEHOLDER
  5
7DE1B343D9DF9D5
102
{ACAD_REACTORS
330
7DE1B343D9DF9D4
102
}
330
7DE1B343D9DF9D4
100
AcDbPlaceHolder
280
     0
  0
XRECORD
  5
7DE1B343D9DF9EB
102
{ACAD_REACTORS
330
7DE1B343D9DF9E1
102
}
330
7DE1B343D9DF9E1
100
AcDbXrecord
 90
        0
  0
XRECORD
  5
7DE1B343D9DF9EC
102
{ACAD_REACTORS
330
7DE1B343D9DF9E1
102
}
330
7DE1B343D9DF9E1
100
AcDbXrecord
  1
{DEB75CE0-8DB9-11D6-88E6-0090279574E7}
  0
XRECORD
  5
7DE1B343D9DF9E4
102
{ACAD_REACTORS
330
7DE1B343D9DF9E1
102
}
330
7DE1B343D9DF9E1
100
AcDbXrecord
  1

  0
XRECORD
  5
7DE1B343D9DF9EA
102
{ACAD_REACTORS
330
7DE1B343D9DF9E1
102
}
330
7DE1B343D9DF9E1
100
AcDbXrecord
 90
        0
  0
XRECORD
  5
7DE1B343D9DF9E6
102
{ACAD_REACTORS
330
7DE1B343D9DF9E1
102
}
330
7DE1B343D9DF9E1
100
AcDbXrecord
340
7DE1B343D9DF9D6
  0
XRECORD
  5
7DE1B343D9DF9E9
102
{ACAD_REACTORS
330
7DE1B343D9DF9E1
102
}
330
7DE1B343D9DF9E1
100
AcDbXrecord
 90
    14877
  0
XRECORD
  5
7DE1B343D9DF9E7
102
{ACAD_REACTORS
330
7DE1B343D9DF9E1
102
}
330
7DE1B343D9DF9E1
100
AcDbXrecord
340
7DE1B343D9DF9D7
  0
XRECORD
  5
7DE1B343D9DF9E8
102
{ACAD_REACTORS
330
7DE1B343D9DF9E1
102
}
330
7DE1B343D9DF9E1
100
AcDbXrecord
340
7DE1B343D9DF9D4
  0
XRECORD
  5
7DE1B343D9DF9EE
102
{ACAD_REACTORS
330
7DE1B343D9DF9E1
102
}
330
7DE1B343D9DF9E1
100
AcDbXrecord
 40
0.0
  0
XRECORD
  5
7DE1B343D9DF9F1
102
{ACAD_REACTORS
330
7DE1B343D9DF9E1
102
}
330
7DE1B343D9DF9E1
100
AcDbXrecord
340
0
  0
XRECORD
  5
7DE1B343D9DF9F7
102
{ACAD_REACTORS
330
7DE1B343D9DF9E1
102
}
330
7DE1B343D9DF9E1
100
AcDbXrecord
 10
0.0
 20
0.0
 30
0.0
  0
XRECORD
  5
7DE1B343D9DF9F3
102
{ACAD_REACTORS
330
7DE1B343D9DF9E1
102
}
330
7DE1B343D9DF9E1
100
AcDbXrecord
 10
0.0
 20
0.0
 30
0.0
  0
XRECORD
  5
7DE1B343D9DF9F6
102
{ACAD_REACTORS
330
7DE1B343D9DF9E1
102
}
330
7DE1B343D9DF9E1
100
AcDbXrecord
 10
0.0
 20
0.0
 30
0.0
  0
XRECORD
  5
7DE1B343D9DF9F4
102
{ACAD_REACTORS
330
7DE1B343D9DF9E1
102
}
330
7DE1B343D9DF9E1
100
AcDbXrecord
 10
0.0
 20
0.0
 30
0.0
  0
XRECORD
  5
7DE1B343D9DF9F5
102
{ACAD_REACTORS
330
7DE1B343D9DF9E1
102
}
330
7DE1B343D9DF9E1
100
AcDbXrecord
 10
0.0
 20
0.0
 30
0.0
  0
XRECORD
  5
7DE1B343D9DF9F2
102
{ACAD_REACTORS
330
7DE1B343D9DF9E1
102
}
330
7DE1B343D9DF9E1
100
AcDbXrecord
 10
0.0
 20
0.0
 30
0.0
  0
XRECORD
  5
7DE1B343D9DF9EF
102
{ACAD_REACTORS
330
7DE1B343D9DF9E1
102
}
330
7DE1B343D9DF9E1
100
AcDbXrecord
340
0
  0
XRECORD
  5
7DE1B343D9DF9F0
102
{ACAD_REACTORS
330
7DE1B343D9DF9E1
102
}
330
7DE1B343D9DF9E1
100
AcDbXrecord
 70
     0
  0
XRECORD
  5
7DE1B343D9DF9E5
102
{ACAD_REACTORS
330
7DE1B343D9DF9E1
102
}
330
7DE1B343D9DF9E1
100
AcDbXrecord
  1

  0
XRECORD
  5
7DE1B343D9DF9E2
102
{ACAD_REACTORS
330
7DE1B343D9DF9E1
102
}
330
7DE1B343D9DF9E1
100
AcDbXrecord
 90
        1
  0
XRECORD
  5
7DE1B343D9DF9E3
102
{ACAD_REACTORS
330
7DE1B343D9DF9E1
102
}
330
7DE1B343D9DF9E1
100
AcDbXrecord
 90
       70
  0
XRECORD
  5
7DE1B343D9DF9FA
102
{ACAD_REACTORS
330
7DE1B343D9DF9E1
102
}
330
7DE1B343D9DF9E1
100
AcDbXrecord
340
0
  0
XRECORD
  5
7DE1B343D9DFA00
102
{ACAD_REACTORS
330
7DE1B343D9DF9E1
102
}
330
7DE1B343D9DF9E1
100
AcDbXrecord
 10
0.0
 20
0.0
 30
0.0
  0
XRECORD
  5
7DE1B343D9DF9FC
102
{ACAD_REACTORS
330
7DE1B343D9DF9E1
102
}
330
7DE1B343D9DF9E1
100
AcDbXrecord
 10
0.0
 20
0.0
 30
0.0
  0
XRECORD
  5
7DE1B343D9DF9FF
102
{ACAD_REACTORS
330
7DE1B343D9DF9E1
102
}
330
7DE1B343D9DF9E1
100
AcDbXrecord
 10
0.0
 20
0.0
 30
0.0
  0
XRECORD
  5
7DE1B343D9DF9FD
102
{ACAD_REACTORS
330
7DE1B343D9DF9E1
102
}
330
7DE1B343D9DF9E1
100
AcDbXrecord
 10
0.0
 20
0.0
 30
0.0
  0
XRECORD
  5
7DE1B343D9DF9FE
102
{ACAD_REACTORS
330
7DE1B343D9DF9E1
102
}
330
7DE1B343D9DF9E1
100
AcDbXrecord
 10
0.0
 20
0.0
 30
0.0
  0
XRECORD
  5
7DE1B343D9DF9FB
102
{ACAD_REACTORS
330
7DE1B343D9DF9E1
102
}
330
7DE1B343D9DF9E1
100
AcDbXrecord
 10
0.0
 20
0.0
 30
0.0
  0
XRECORD
  5
7DE1B343D9DF9F8
102
{ACAD_REACTORS
330
7DE1B343D9DF9E1
102
}
330
7DE1B343D9DF9E1
100
AcDbXrecord
340
0
  0
XRECORD
  5
7DE1B343D9DF9F9
102
{ACAD_REACTORS
330
7DE1B343D9DF9E1
102
}
330
7DE1B343D9DF9E1
100
AcDbXrecord
 70
     0
  0
XRECORD
  5
7DE1B343D9DF9ED
102
{ACAD_REACTORS
330
7DE1B343D9DF9E1
102
}
330
7DE1B343D9DF9E1
100
AcDbXrecord
  1
{DEB75CE2-8DB9-11D6-88E6-0090279574E7}
  0
DICTIONARYVAR
  5
7DE1B343D9DF9DF
102
{ACAD_REACTORS
330
7DE1B343D9DF9DE
102
}
330
7DE1B343D9DF9DE
100
DictionaryVariables
280
     0
  1
1
  0
ENDSEC
  0
EOF
