  0
SECTION
  2
HEADER
  9
$ACADVER
  1
AC1014
  9
$ACADMAINTVER
 70
     9
  9
$DWGCODEPAGE
  3
ANSI_1252
  9
$INSBASE
 10
0.0
 20
0.0
 30
0.0
  9
$EXTMIN
 10
-0.8342918401437
 20
-0.1583527943089853
 30
0.0
  9
$EXTMAX
 10
2.650927481603428
 20
1.673519765839735
 30
0.0
  9
$LIMMIN
 10
0.0
 20
0.0
  9
$LIMMAX
 10
8.5
 20
11.0
  9
$ORTHOMODE
 70
     1
  9
$REGENMODE
 70
     1
  9
$FILLMODE
 70
     1
  9
$QTEXTMODE
 70
     0
  9
$MIRRTEXT
 70
     0
  9
$DRAGMODE
 70
     2
  9
$LTSCALE
 40
1.0
  9
$OSMODE
 70
    39
  9
$ATTMODE
 70
     1
  9
$TEXTSIZE
 40
0.125
  9
$TRACEWID
 40
0.05
  9
$TEXTSTYLE
  7
ROMANS
  9
$CLAYER
  8
DIM
  9
$CELTYPE
  6
BYLAYER
  9
$CECOLOR
 62
   256
  9
$CELTSCALE
 40
1.0
  9
$DELOBJ
 70
     1
  9
$DISPSILH
 70
     1
  9
$DIMSCALE
 40
1.0
  9
$DIMASZ
 40
0.125
  9
$DIMEXO
 40
0.125
  9
$DIMDLI
 40
0.375
  9
$DIMRND
 40
0.0
  9
$DIMDLE
 40
0.0
  9
$DIMEXE
 40
0.125
  9
$DIMTP
 40
0.0
  9
$DIMTM
 40
0.0
  9
$DIMTXT
 40
0.125
  9
$DIMCEN
 40
-0.125
  9
$DIMTSZ
 40
0.0
  9
$DIMTOL
 70
     0
  9
$DIMLIM
 70
     0
  9
$DIMTIH
 70
     1
  9
$DIMTOH
 70
     1
  9
$DIMSE1
 70
     0
  9
$DIMSE2
 70
     0
  9
$DIMTAD
 70
     0
  9
$DIMZIN
 70
     4
  9
$DIMBLK
  1

  9
$DIMASO
 70
     1
  9
$DIMSHO
 70
     1
  9
$DIMPOST
  1

  9
$DIMAPOST
  1

  9
$DIMALT
 70
     0
  9
$DIMALTD
 70
     2
  9
$DIMALTF
 40
25.4
  9
$DIMLFAC
 40
0.25
  9
$DIMTOFL
 70
     0
  9
$DIMTVP
 40
0.0
  9
$DIMTIX
 70
     0
  9
$DIMSOXD
 70
     0
  9
$DIMSAH
 70
     0
  9
$DIMBLK1
  1

  9
$DIMBLK2
  1

  9
$DIMSTYLE
  2
STANDARD
  9
$DIMCLRD
 70
     0
  9
$DIMCLRE
 70
     0
  9
$DIMCLRT
 70
     0
  9
$DIMTFAC
 40
1.0
  9
$DIMGAP
 40
0.09
  9
$DIMJUST
 70
     0
  9
$DIMSD1
 70
     0
  9
$DIMSD2
 70
     0
  9
$DIMTOLJ
 70
     1
  9
$DIMTZIN
 70
     0
  9
$DIMALTZ
 70
     0
  9
$DIMALTTZ
 70
     0
  9
$DIMFIT
 70
     3
  9
$DIMUPT
 70
     0
  9
$DIMUNIT
 70
     2
  9
$DIMDEC
 70
     3
  9
$DIMTDEC
 70
     4
  9
$DIMALTU
 70
     2
  9
$DIMALTTD
 70
     2
  9
$DIMTXSTY
  7
ROMANS
  9
$DIMAUNIT
 70
     0
  9
$LUNITS
 70
     2
  9
$LUPREC
 70
     3
  9
$SKETCHINC
 40
0.1
  9
$FILLETRAD
 40
0.0
  9
$AUNITS
 70
     0
  9
$AUPREC
 70
     0
  9
$MENU
  1
ACAD
  9
$ELEVATION
 40
0.0
  9
$PELEVATION
 40
0.0
  9
$THICKNESS
 40
0.0
  9
$LIMCHECK
 70
     0
  9
$BLIPMODE
 70
     0
  9
$CHAMFERA
 40
0.0
  9
$CHAMFERB
 40
0.0
  9
$CHAMFERC
 40
0.0
  9
$CHAMFERD
 40
0.0
  9
$SKPOLY
 70
     0
  9
$TDCREATE
 40
2448376.614280555
  9
$TDUPDATE
 40
2452458.324585451
  9
$TDINDWG
 40
0.0945804167
  9
$TDUSRTIMER
 40
0.0945804167
  9
$USRTIMER
 70
     1
  9
$ANGBASE
 50
0.0
  9
$ANGDIR
 70
     0
  9
$PDMODE
 70
     0
  9
$PDSIZE
 40
0.0
  9
$PLINEWID
 40
0.0
  9
$COORDS
 70
     2
  9
$SPLFRAME
 70
     0
  9
$SPLINETYPE
 70
     6
  9
$SPLINESEGS
 70
     8
  9
$ATTDIA
 70
     0
  9
$ATTREQ
 70
     1
  9
$HANDLING
 70
 22529
  9
$HANDSEED
  5
433
  9
$SURFTAB1
 70
     6
  9
$SURFTAB2
 70
     6
  9
$SURFTYPE
 70
     6
  9
$SURFU
 70
     6
  9
$SURFV
 70
     6
  9
$UCSNAME
  2

  9
$UCSORG
 10
0.0
 20
0.0
 30
0.0
  9
$UCSXDIR
 10
1.0
 20
0.0
 30
0.0
  9
$UCSYDIR
 10
0.0
 20
1.0
 30
0.0
  9
$PUCSNAME
  2

  9
$PUCSORG
 10
0.0
 20
0.0
 30
0.0
  9
$PUCSXDIR
 10
1.0
 20
0.0
 30
0.0
  9
$PUCSYDIR
 10
0.0
 20
1.0
 30
0.0
  9
$USERI1
 70
     0
  9
$USERI2
 70
     0
  9
$USERI3
 70
     0
  9
$USERI4
 70
     0
  9
$USERI5
 70
     0
  9
$USERR1
 40
0.0
  9
$USERR2
 40
0.0
  9
$USERR3
 40
0.0
  9
$USERR4
 40
0.0
  9
$USERR5
 40
0.0
  9
$WORLDVIEW
 70
     1
  9
$SHADEDGE
 70
     3
  9
$SHADEDIF
 70
    70
  9
$TILEMODE
 70
     1
  9
$MAXACTVP
 70
    16
  9
$PINSBASE
 10
0.0
 20
0.0
 30
0.0
  9
$PLIMCHECK
 70
     0
  9
$PEXTMIN
 10
1.000000000000000E+20
 20
1.000000000000000E+20
 30
1.000000000000000E+20
  9
$PEXTMAX
 10
-1.000000000000000E+20
 20
-1.000000000000000E+20
 30
-1.000000000000000E+20
  9
$PLIMMIN
 10
0.0
 20
0.0
  9
$PLIMMAX
 10
12.0
 20
9.0
  9
$UNITMODE
 70
     0
  9
$VISRETAIN
 70
     0
  9
$PLINEGEN
 70
     1
  9
$PSLTSCALE
 70
     0
  9
$TREEDEPTH
 70
  3020
  9
$PICKSTYLE
 70
     1
  9
$CMLSTYLE
  2
STANDARD
  9
$CMLJUST
 70
     0
  9
$CMLSCALE
 40
1.0
  9
$PROXYGRAPHICS
 70
     1
  9
$MEASUREMENT
 70
     0
  0
ENDSEC
  0
SECTION
  2
CLASSES
  0
CLASS
  1
LWPOLYLINE
  2
AcDbPolyline
  3
AutoCAD 2000
 90
        0
280
     0
281
     1
  0
CLASS
  1
ACDBDICTIONARYWDFLT
  2
AcDbDictionaryWithDefault
  3
AutoCAD 2000
 90
        0
280
     0
281
     0
  0
CLASS
  1
ACDBPLACEHOLDER
  2
AcDbPlaceHolder
  3
AutoCAD 2000
 90
        0
280
     0
281
     0
  0
CLASS
  1
LAYOUT
  2
AcDbLayout
  3
AutoCAD 2000
 90
        0
280
     0
281
     0
  0
CLASS
  1
DICTIONARYVAR
  2
AcDbDictionaryVar
  3
AutoCAD 2000
 90
        0
280
     0
281
     0
  0
CLASS
  1
LONG_TRANSACTION
  2
AcDbLongTransaction
  3
AutoCAD 2000
 90
        0
280
     0
281
     0
  0
CLASS
  1
LWPOLYLINE
  2
AcDbPolyline
  3
AutoCAD 2000
 90
        0
280
     0
281
     1
  0
CLASS
  1
HATCH
  2
AcDbHatch
  3
AutoCAD 2000
 90
        0
280
     0
281
     1
  0
CLASS
  1
XRECORD
  2
AcDbXrecord
  3
AutoCAD 2000
 90
        0
280
     0
281
     0
  0
ENDSEC
  0
SECTION
  2
TABLES
  0
TABLE
  2
VPORT
  5
8
330
0
100
AcDbSymbolTable
 70
     2
  0
VPORT
  5
40E
330
8
100
AcDbSymbolTableRecord
100
AcDbViewportTableRecord
  2
*ACTIVE
 70
     0
 10
0.0
 20
0.0
 11
1.0
 21
1.0
 12
3.830480715208161
 22
0.7575882731626465
 13
0.0
 23
0.0
 14
0.015625
 24
0.015625
 15
0.0
 25
0.0
 16
0.0
 26
0.0
 36
1.0
 17
0.0
 27
0.0
 37
0.0
 40
2.163783105556757
 41
4.320930232558139
 42
50.0
 43
0.0
 44
0.0
 50
0.0
 51
0.0
 71
     0
 72
  2000
 73
     1
 74
     1
 75
     0
 76
     0
 77
     0
 78
     0
  0
ENDTAB
  0
TABLE
  2
LTYPE
  5
5
330
0
100
AcDbSymbolTable
 70
     1
  0
LTYPE
  5
12
330
5
100
AcDbSymbolTableRecord
100
AcDbLinetypeTableRecord
  2
BYBLOCK
 70
     0
  3

 72
    65
 73
     0
 40
0.0
  0
LTYPE
  5
13
330
5
100
AcDbSymbolTableRecord
100
AcDbLinetypeTableRecord
  2
BYLAYER
 70
     0
  3

 72
    65
 73
     0
 40
0.0
  0
LTYPE
  5
14
330
5
100
AcDbSymbolTableRecord
100
AcDbLinetypeTableRecord
  2
CONTINUOUS
 70
     0
  3
Solid line
 72
    65
 73
     0
 40
0.0
  0
ENDTAB
  0
TABLE
  2
LAYER
  5
2
330
0
100
AcDbSymbolTable
 70
     3
  0
LAYER
  5
F
330
2
100
AcDbSymbolTableRecord
100
AcDbLayerTableRecord
  2
0
 70
     0
 62
     7
  6
CONTINUOUS
  0
LAYER
  5
2C
330
2
100
AcDbSymbolTableRecord
100
AcDbLayerTableRecord
  2
DIM
 70
     0
 62
     4
  6
CONTINUOUS
  0
LAYER
  5
2D
330
2
100
AcDbSymbolTableRecord
100
AcDbLayerTableRecord
  2
TEXT
 70
     0
 62
     3
  6
CONTINUOUS
  0
ENDTAB
  0
TABLE
  2
STYLE
  5
3
330
0
100
AcDbSymbolTable
 70
     3
  0
STYLE
  5
10
330
3
100
AcDbSymbolTableRecord
100
AcDbTextStyleTableRecord
  2
STANDARD
 70
     0
 40
0.0
 41
1.0
 50
0.0
 71
     0
 42
0.125
  3
txt
  4

  0
STYLE
  5
2FB
330
3
100
AcDbSymbolTableRecord
100
AcDbTextStyleTableRecord
  2
ITALICC
 70
     0
 40
0.0
 41
1.0
 50
0.0
 71
     0
 42
0.125
  3
italicc
  4

  0
STYLE
  5
40A
330
3
100
AcDbSymbolTableRecord
100
AcDbTextStyleTableRecord
  2
ROMANS
 70
     0
 40
0.0
 41
1.0
 50
0.0
 71
     0
 42
0.125
  3
romans.shx
  4

  0
ENDTAB
  0
TABLE
  2
VIEW
  5
6
330
0
100
AcDbSymbolTable
 70
     0
  0
ENDTAB
  0
TABLE
  2
UCS
  5
7
330
0
100
AcDbSymbolTable
 70
     0
  0
ENDTAB
  0
TABLE
  2
APPID
  5
9
330
0
100
AcDbSymbolTable
 70
     1
  0
APPID
  5
11
330
9
100
AcDbSymbolTableRecord
100
AcDbRegAppTableRecord
  2
ACAD
 70
     0
  0
ENDTAB
  0
TABLE
  2
DIMSTYLE
  5
A
330
0
100
AcDbSymbolTable
 70
     1
  0
DIMSTYLE
105
2F3
330
A
100
AcDbSymbolTableRecord
100
AcDbDimStyleTableRecord
  2
STANDARD
 70
     0
  3

  4

  5

  6

  7

 40
1.0
 41
0.18
 42
0.0625
 43
0.38
 44
0.18
 45
0.0
 46
0.0
 47
0.0
 48
0.0
140
0.18
141
0.09
142
0.0
143
25.4
144
1.0
145
0.0
146
1.0
147
0.09
 71
     0
 72
     0
 73
     1
 74
     1
 75
     0
 76
     0
 77
     0
 78
     0
170
     0
171
     2
172
     0
173
     0
174
     0
175
     0
176
     0
177
     0
178
     0
270
     2
271
     4
272
     4
273
     2
274
     2
340
10
275
     0
280
     0
281
     0
282
     0
283
     1
284
     0
285
     0
286
     0
287
     3
288
     0
  0
ENDTAB
  0
TABLE
  2
BLOCK_RECORD
  5
1
330
0
100
AcDbSymbolTable
 70
     0
  0
BLOCK_RECORD
  5
18
102
{ACAD_XDICTIONARY
360
431
102
}
330
1
100
AcDbSymbolTableRecord
100
AcDbBlockTableRecord
  2
*MODEL_SPACE
  0
BLOCK_RECORD
  5
15
102
{ACAD_XDICTIONARY
360
42F
102
}
330
1
100
AcDbSymbolTableRecord
100
AcDbBlockTableRecord
  2
*PAPER_SPACE
  0
ENDTAB
  0
ENDSEC
  0
SECTION
  2
BLOCKS
  0
BLOCK
  5
37
330
18
100
AcDbEntity
  8
0
100
AcDbBlockBegin
  2
*MODEL_SPACE
 70
     0
 10
0.0
 20
0.0
 30
0.0
  3
*MODEL_SPACE
  1

  0
ENDBLK
  5
38
330
18
100
AcDbEntity
  8
0
100
AcDbBlockEnd
  0
BLOCK
  5
35
330
15
100
AcDbEntity
 67
     1
  8
0
100
AcDbBlockBegin
  2
*PAPER_SPACE
 70
     0
 10
0.0
 20
0.0
 30
0.0
  3
*PAPER_SPACE
  1

  0
ENDBLK
  5
36
330
15
100
AcDbEntity
 67
     1
  8
0
100
AcDbBlockEnd
  0
ENDSEC
  0
SECTION
  2
ENTITIES
  0
LWPOLYLINE
  5
B4
330
18
100
AcDbEntity
  8
0
100
AcDbPolyline
 90
       39
 70
     1
 43
0.0
 10
1.165613114217767
 20
1.470397317494394
 42
-0.767326987978959
 10
1.165613114217767
 20
1.418237322874785
 10
0.946169991224451
 20
1.359437715284162
 10
0.9412500000000001
 20
1.303201958259565
 10
0.9832499999999996
 20
1.303201958259565
 10
1.00325
 20
1.323201958259565
 10
1.023249999999999
 20
1.303201958259565
 10
1.222301505552092
 20
1.338300109239039
 42
0.3639702342662014
 10
1.248125
 20
1.369075351520671
 10
1.248125
 20
1.505190307553272
 42
0.3394542588633764
 10
1.224963095159453
 20
1.535375489624805
 10
0.7818011903189075
 20
1.654120364143067
 42
0.4931454260313045
 10
0.703125
 20
1.59375
 10
0.703125
 20
0.640625
 42
0.4142135623730951
 10
0.734375
 20
0.609375
 10
0.7499999999999996
 20
0.609375
 42
0.4142135623730951
 10
0.7812499999999996
 20
0.640625
 10
0.78125
 20
0.7400000000000003
 10
0.7712500000000003
 20
0.75
 10
0.7812499999999996
 20
0.7599999999999994
 10
0.78125
 20
0.8650000000000002
 10
0.7712500000000003
 20
0.875
 10
0.7812499999999996
 20
0.8849999999999994
 10
0.78125
 20
0.9375000000000003
 10
1.186963095159453
 20
1.046210496206707
 42
0.3394542588633764
 10
1.210124999999999
 20
1.07639567827824
 10
1.210124999999999
 20
1.20902899026538
 42
0.3639702342662013
 10
1.184301505552091
 20
1.239804232547011
 10
1.023249999999999
 20
1.268201958259564
 10
1.003249999999999
 20
1.248201958259564
 10
0.9832499999999996
 20
1.268201958259564
 10
0.9412500000000003
 20
1.268201958259565
 10
0.9461699912244508
 20
1.211966201234966
 10
1.127613114217767
 20
1.163348662956726
 42
-0.767326987978972
 10
1.127613114217766
 20
1.111188668337116
 10
0.8152381142177675
 20
1.027488039351445
 42
-0.4931454260313052
 10
0.7812499999999996
 20
1.05356803666125
 10
0.78125
 20
1.538200018482644
 42
-0.4931454260313053
 10
0.8152381142177681
 20
1.564280015792448
  0
TEXT
  5
380
330
18
100
AcDbEntity
  8
TEXT
100
AcDbText
 10
0.1557135486072525
 20
0.2996658097735963
 30
0.0
 40
0.125
  1
PART #129006
  7
ITALICC
 72
     1
 11
0.9086897390834431
 21
0.2996658097735963
 31
0.0
100
AcDbText
  0
LWPOLYLINE
  5
381
330
18
100
AcDbEntity
  8
TEXT
100
AcDbPolyline
 90
        3
 70
     0
 43
0.0
 10
0.5396489328072072
 20
0.1195888184105316
 10
0.4213487739911628
 20
0.1195888184105316
 10
0.4213487739911628
 20
0.0924213216496357
 42
-1.960274751411753
  0
LWPOLYLINE
  5
382
330
18
100
AcDbEntity
  8
TEXT
100
AcDbPolyline
 90
        4
 70
     0
 43
0.0
 10
0.5045145822629973
 20
0.0477583345876527
 10
0.5045145822629973
 20
-0.1468842145779829
 10
0.5729928655508552
 20
-0.1468842145779829
 10
0.5729928655508552
 20
-0.1033932696275448
 42
-1.714843617202739
  0
LWPOLYLINE
  5
383
330
18
100
AcDbEntity
  8
TEXT
100
AcDbPolyline
 90
        2
 70
     0
 43
0.0001332181640625
 10
-0.5941660994210452
 20
-0.1202038769019706
 10
-0.654114273249169
 20
-0.0602557030738451
  0
LWPOLYLINE
  5
384
330
18
100
AcDbEntity
  8
TEXT
100
AcDbPolyline
 90
        3
 70
     0
 43
0.0006660908203125
 10
-0.68075790606167
 20
-0.1202038769019706
 10
-0.5941660994210452
 20
-0.1202038769019706
 10
-0.5941660994210452
 20
-0.0336120702613441
  0
LWPOLYLINE
  5
385
330
18
100
AcDbEntity
  8
TEXT
100
AcDbPolyline
 90
        3
 70
     0
 43
0.0006660908203125
 10
-0.68075790606167
 20
-0.1468475097144717
 10
-0.5675224666085441
 20
-0.1468475097144717
 10
-0.5675224666085441
 20
-0.0336120702613441
  0
LWPOLYLINE
  5
386
330
18
100
AcDbEntity
  8
TEXT
100
AcDbPolyline
 90
        2
 70
     0
 43
0.0001332181640625
 10
-0.5675224666085441
 20
-0.0336120702613441
 10
-0.6407924568429202
 20
-0.0236207079566588
  0
LWPOLYLINE
  5
387
330
18
100
AcDbEntity
  8
TEXT
100
AcDbPolyline
 90
        2
 70
     0
 43
0.0001332181640625
 10
-0.5941660994210452
 20
-0.0336120702613441
 10
-0.654114273249169
 20
-0.0236207079566588
  0
LWPOLYLINE
  5
388
330
18
100
AcDbEntity
  8
TEXT
100
AcDbPolyline
 90
        2
 70
     0
 43
0.0001332181640625
 10
-0.8073151619210463
 20
-0.1202038769019706
 10
-0.7473669880929191
 20
-0.0602557030738451
  0
LWPOLYLINE
  5
389
330
18
100
AcDbEntity
  8
TEXT
100
AcDbPolyline
 90
        2
 70
     0
 43
0.0001332181640625
 10
-0.8073151619210463
 20
-0.0336120702613441
 10
-0.7473669880929191
 20
-0.0236207079566588
  0
LWPOLYLINE
  5
38A
330
18
100
AcDbEntity
  8
TEXT
100
AcDbPolyline
 90
        3
 70
     0
 43
0.0006660908203125
 10
-0.8339587947335438
 20
-0.0336120702613441
 10
-0.8339587947335438
 20
-0.1468475097144717
 10
-0.7207233552804216
 20
-0.1468475097144717
  0
LWPOLYLINE
  5
38B
330
18
100
AcDbEntity
  8
TEXT
100
AcDbPolyline
 90
        3
 70
     0
 43
0.0006660908203125
 10
-0.8073151619210463
 20
-0.0336120702613441
 10
-0.8073151619210463
 20
-0.1202038769019706
 10
-0.7207233552804216
 20
-0.1202038769019706
  0
LWPOLYLINE
  5
38C
330
18
100
AcDbEntity
  8
TEXT
100
AcDbPolyline
 90
        5
 70
     0
 43
0.0001332181640625
 10
-0.710731992975731
 20
-0.0735775194800956
 10
-0.710731992975731
 20
-0.0602557030738451
 10
-0.7473669880929191
 20
-0.0602557030738451
 10
-0.7473669880929191
 20
-0.0236207079566588
 10
-0.7606888044991696
 20
-0.0236207079566588
  0
LWPOLYLINE
  5
38D
330
18
100
AcDbEntity
  8
TEXT
100
AcDbPolyline
 90
        2
 70
     0
 43
0.0006660908203125
 10
-0.8073151619210463
 20
-0.0336120702613441
 10
-0.8339587947335438
 20
-0.0336120702613441
  0
LWPOLYLINE
  5
38E
330
18
100
AcDbEntity
  8
TEXT
100
AcDbPolyline
 90
        2
 70
     0
 43
0.0001332181640625
 10
-0.7606888044991696
 20
-0.0236207079566588
 10
-0.8339587947335438
 20
-0.0336120702613441
  0
LWPOLYLINE
  5
38F
330
18
100
AcDbEntity
  8
TEXT
100
AcDbPolyline
 90
        2
 70
     0
 43
0.0006660908203125
 10
-0.7207233552804216
 20
-0.1202038769019706
 10
-0.7207233552804216
 20
-0.1468475097144717
  0
LWPOLYLINE
  5
390
330
18
100
AcDbEntity
  8
TEXT
100
AcDbPolyline
 90
        2
 70
     0
 43
0.0001332181640625
 10
-0.7207233552804216
 20
-0.1202038769019706
 10
-0.710731992975731
 20
-0.0602557030738451
  0
LWPOLYLINE
  5
391
330
18
100
AcDbEntity
  8
TEXT
100
AcDbPolyline
 90
        2
 70
     0
 43
0.0001332181640625
 10
-0.7207233552804216
 20
-0.1468475097144717
 10
-0.710731992975731
 20
-0.0735775194800956
  0
LWPOLYLINE
  5
392
330
18
100
AcDbEntity
  8
TEXT
100
AcDbPolyline
 90
        2
 70
     0
 43
0.0001332181640625
 10
-0.68075790606167
 20
-0.1202038769019706
 10
-0.6907492683663588
 20
-0.0602557030738451
  0
LWPOLYLINE
  5
393
330
18
100
AcDbEntity
  8
TEXT
100
AcDbPolyline
 90
        2
 70
     0
 43
0.0001332181640625
 10
-0.6907492683663588
 20
-0.0735775194800956
 10
-0.68075790606167
 20
-0.1468475097144717
  0
LWPOLYLINE
  5
394
330
18
100
AcDbEntity
  8
TEXT
100
AcDbPolyline
 90
        2
 70
     0
 43
0.0006660908203125
 10
-0.68075790606167
 20
-0.1202038769019706
 10
-0.68075790606167
 20
-0.1468475097144717
  0
LWPOLYLINE
  5
395
330
18
100
AcDbEntity
  8
TEXT
100
AcDbPolyline
 90
        5
 70
     0
 43
0.0001332181640625
 10
-0.6407924568429202
 20
-0.0236207079566588
 10
-0.654114273249169
 20
-0.0236207079566588
 10
-0.654114273249169
 20
-0.0602557030738451
 10
-0.6907492683663588
 20
-0.0602557030738451
 10
-0.6907492683663588
 20
-0.0735775194800956
  0
LWPOLYLINE
  5
396
330
18
100
AcDbEntity
  8
TEXT
100
AcDbPolyline
 90
        2
 70
     0
 43
0.0006660908203125
 10
-0.5941660994210452
 20
-0.0336120702613441
 10
-0.5675224666085441
 20
-0.0336120702613441
  0
LWPOLYLINE
  5
397
330
18
100
AcDbEntity
  8
TEXT
100
AcDbPolyline
 90
        3
 70
     0
 43
0.0006660908203125
 10
-0.5675224666085441
 20
0.006353378957404
 10
-0.5675224666085441
 20
0.1195888184105316
 10
-0.68075790606167
 20
0.1195888184105316
  0
LWPOLYLINE
  5
398
330
18
100
AcDbEntity
  8
TEXT
100
AcDbPolyline
 90
        3
 70
     0
 43
0.0006660908203125
 10
-0.5941660994210452
 20
0.006353378957404
 10
-0.5941660994210452
 20
0.0929451855980306
 10
-0.68075790606167
 20
0.0929451855980306
  0
LWPOLYLINE
  5
399
330
18
100
AcDbEntity
  8
TEXT
100
AcDbPolyline
 90
        2
 70
     0
 43
0.0001332181640625
 10
-0.6407924568429202
 20
-0.0036379833472848
 10
-0.5675224666085441
 20
0.006353378957404
  0
LWPOLYLINE
  5
39A
330
18
100
AcDbEntity
  8
TEXT
100
AcDbPolyline
 90
        2
 70
     0
 43
0.0001332181640625
 10
-0.5941660994210452
 20
0.006353378957404
 10
-0.654114273249169
 20
-0.0036379833472848
  0
LWPOLYLINE
  5
39B
330
18
100
AcDbEntity
  8
TEXT
100
AcDbPolyline
 90
        2
 70
     0
 43
0.0001332181640625
 10
-0.5941660994210452
 20
0.0929451855980306
 10
-0.654114273249169
 20
0.032997011769905
  0
LWPOLYLINE
  5
39C
330
18
100
AcDbEntity
  8
TEXT
100
AcDbPolyline
 90
        2
 70
     0
 43
0.0001332181640625
 10
-0.8073151619210463
 20
0.0929451855980306
 10
-0.7473669880929208
 20
0.032997011769905
  0
LWPOLYLINE
  5
39D
330
18
100
AcDbEntity
  8
TEXT
100
AcDbPolyline
 90
        2
 70
     0
 43
0.0001332181640625
 10
-0.8073151619210463
 20
0.006353378957404
 10
-0.7473669880929208
 20
-0.0036379833472848
  0
LWPOLYLINE
  5
39E
330
18
100
AcDbEntity
  8
TEXT
100
AcDbPolyline
 90
        3
 70
     0
 43
0.0006660908203125
 10
-0.7207233552804216
 20
0.1195888184105316
 10
-0.8339587947335438
 20
0.1195888184105316
 10
-0.8339587947335438
 20
0.006353378957404
  0
LWPOLYLINE
  5
39F
330
18
100
AcDbEntity
  8
TEXT
100
AcDbPolyline
 90
        3
 70
     0
 43
0.0006660908203125
 10
-0.7207233552804216
 20
0.0929451855980306
 10
-0.8073151619210463
 20
0.0929451855980306
 10
-0.8073151619210463
 20
0.006353378957404
  0
LWPOLYLINE
  5
3A0
330
18
100
AcDbEntity
  8
TEXT
100
AcDbPolyline
 90
        5
 70
     0
 43
0.0001332181640625
 10
-0.7606888044991696
 20
-0.0036379833472848
 10
-0.7473669880929208
 20
-0.0036379833472848
 10
-0.7473669880929208
 20
0.032997011769905
 10
-0.710731992975731
 20
0.032997011769905
 10
-0.710731992975731
 20
0.046318828176152
  0
LWPOLYLINE
  5
3A1
330
18
100
AcDbEntity
  8
TEXT
100
AcDbPolyline
 90
        2
 70
     0
 43
0.0001332181640625
 10
-0.8339587947335438
 20
0.006353378957404
 10
-0.7606888044991696
 20
-0.0036379833472848
  0
LWPOLYLINE
  5
3A2
330
18
100
AcDbEntity
  8
TEXT
100
AcDbPolyline
 90
        2
 70
     0
 43
0.0006660908203125
 10
-0.8073151619210463
 20
0.006353378957404
 10
-0.8339587947335438
 20
0.006353378957404
  0
LWPOLYLINE
  5
3A3
330
18
100
AcDbEntity
  8
TEXT
100
AcDbPolyline
 90
        2
 70
     0
 43
0.0006660908203125
 10
-0.7207233552804216
 20
0.0929451855980306
 10
-0.7207233552804216
 20
0.1195888184105316
  0
LWPOLYLINE
  5
3A4
330
18
100
AcDbEntity
  8
TEXT
100
AcDbPolyline
 90
        2
 70
     0
 43
0.0001332181640625
 10
-0.710731992975731
 20
0.046318828176152
 10
-0.7207233552804216
 20
0.1195888184105316
  0
LWPOLYLINE
  5
3A5
330
18
100
AcDbEntity
  8
TEXT
100
AcDbPolyline
 90
        2
 70
     0
 43
0.0001332181640625
 10
-0.7207233552804216
 20
0.0929451855980306
 10
-0.710731992975731
 20
0.032997011769905
  0
LWPOLYLINE
  5
3A6
330
18
100
AcDbEntity
  8
TEXT
100
AcDbPolyline
 90
        5
 70
     0
 43
0.0001332181640625
 10
-0.6907492683663588
 20
0.046318828176152
 10
-0.6907492683663588
 20
0.032997011769905
 10
-0.654114273249169
 20
0.032997011769905
 10
-0.654114273249169
 20
-0.0036379833472848
 10
-0.6407924568429202
 20
-0.0036379833472848
  0
LWPOLYLINE
  5
3A7
330
18
100
AcDbEntity
  8
TEXT
100
AcDbPolyline
 90
        2
 70
     0
 43
0.0006660908203125
 10
-0.68075790606167
 20
0.0929451855980306
 10
-0.68075790606167
 20
0.1195888184105316
  0
LWPOLYLINE
  5
3A8
330
18
100
AcDbEntity
  8
TEXT
100
AcDbPolyline
 90
        2
 70
     0
 43
0.0001332181640625
 10
-0.68075790606167
 20
0.0929451855980306
 10
-0.6907492683663588
 20
0.032997011769905
  0
LWPOLYLINE
  5
3A9
330
18
100
AcDbEntity
  8
TEXT
100
AcDbPolyline
 90
        2
 70
     0
 43
0.0001332181640625
 10
-0.68075790606167
 20
0.1195888184105316
 10
-0.6907492683663588
 20
0.046318828176152
  0
LWPOLYLINE
  5
3AA
330
18
100
AcDbEntity
  8
TEXT
100
AcDbPolyline
 90
        2
 70
     0
 43
0.0006660908203125
 10
-0.5941660994210452
 20
0.006353378957404
 10
-0.5675224666085441
 20
0.006353378957404
  0
LINE
  5
3AB
330
18
100
AcDbEntity
  8
TEXT
100
AcDbLine
 10
0.0539577480466429
 20
-0.12692570847297
 30
0.0
 11
0.1512574541400875
 21
0.0374245024622981
 31
0.0
  0
LINE
  5
3AC
330
18
100
AcDbEntity
  8
TEXT
100
AcDbLine
 10
0.0635579850435972
 20
0.0187168222974075
 30
0.0
 11
0.0049276640116593
 21
0.119588818410528
 31
0.0
  0
LINE
  5
3AD
330
18
100
AcDbEntity
  8
TEXT
100
AcDbLine
 10
-0.1305026757315479
 20
0.0553121237537626
 30
0.0
 11
-0.1305026757315479
 21
-0.0870918232399332
 31
0.0
  0
LWPOLYLINE
  5
3AE
330
18
100
AcDbEntity
  8
TEXT
100
AcDbPolyline
 90
        6
 70
     1
 43
0.0
 10
-0.0340922646762927
 20
0.0553121237537626
 10
-0.0644088588965008
 20
0.0553121237537626
 10
-0.0644088588965008
 20
-0.0677988743011318
 42
0.407328721240804
 10
-0.0528652077350245
 20
-0.0796177889775178
 10
0.0077564913097063
 20
-0.0796177889775178
 10
0.0252218317170243
 20
-0.0468055599340387
  0
ARC
  5
3AF
330
18
100
AcDbEntity
  8
TEXT
100
AcDbCircle
 10
-0.3026456598747664
 20
0.0375013589640263
 30
0.0
 40
0.0820874594465043
100
AcDbArc
 50
90.0
 51
270.0
  0
ARC
  5
3B0
330
18
100
AcDbEntity
  8
TEXT
100
AcDbCircle
 10
-0.2318081935162173
 20
-0.0636884062174259
 30
0.0
 40
0.0831958083605586
100
AcDbArc
 50
270.0
 51
90.0
  0
LINE
  5
3B1
330
18
100
AcDbEntity
  8
TEXT
100
AcDbLine
 10
-0.3026456598747664
 20
-0.044586100482479
 30
0.0
 11
-0.2268678196099376
 21
-0.044586100482479
 31
0.0
  0
LINE
  5
3B2
330
18
100
AcDbEntity
  8
TEXT
100
AcDbLine
 10
-0.38473311932127
 20
-0.1468842145779829
 30
0.0
 11
-0.2318081935162173
 21
-0.1468842145779829
 31
0.0
  0
LINE
  5
3B3
330
18
100
AcDbEntity
  8
TEXT
100
AcDbLine
 10
-0.2268678196099376
 20
-0.0785272082445436
 30
0.0
 11
-0.3847331193212717
 21
-0.0785272082445436
 31
0.0
  0
LINE
  5
3B4
330
18
100
AcDbEntity
  8
TEXT
100
AcDbLine
 10
-0.3847331193212717
 20
-0.0785272082445436
 30
0.0
 11
-0.38473311932127
 21
-0.1468842145779829
 31
0.0
  0
ARC
  5
3B5
330
18
100
AcDbEntity
  8
TEXT
100
AcDbCircle
 10
-0.2268678196099376
 20
-0.0615566543635096
 30
0.0
 40
0.0169705538810321
100
AcDbArc
 50
270.0
 51
90.0
  0
LINE
  5
3B6
330
18
100
AcDbEntity
  8
TEXT
100
AcDbLine
 10
-0.0766160682514423
 20
-0.1468842145779829
 30
0.0
 11
0.0200241828235521
 21
-0.1466135754797007
 31
0.0
  0
ARC
  5
3B7
330
18
100
AcDbEntity
  8
TEXT
100
AcDbCircle
 10
-0.0703866577577959
 20
-0.0870918232399332
 30
0.0
 40
0.0601160179737537
100
AcDbArc
 50
180.0000000000003
 51
264.0521544866073
  0
ARC
  5
3B8
330
18
100
AcDbEntity
  8
TEXT
100
AcDbCircle
 10
0.0199141881344289
 20
-0.1073364923042872
 30
0.0
 40
0.0392772371940762
100
AcDbArc
 50
270.1604552698595
 51
330.0831797321295
  0
LINE
  5
3B9
330
18
100
AcDbEntity
  8
TEXT
100
AcDbLine
 10
-0.2974083297605183
 20
0.0553121237537626
 30
0.0
 11
-0.1305026757315479
 21
0.0553121237537626
 31
0.0
  0
LINE
  5
3BA
330
18
100
AcDbEntity
  8
TEXT
100
AcDbLine
 10
-0.126913906976255
 20
0.119588818410528
 30
0.0
 11
-0.3026456598747664
 21
0.119588818410528
 31
0.0
  0
LINE
  5
3BB
330
18
100
AcDbEntity
  8
TEXT
100
AcDbLine
 10
-0.2318081935162173
 20
0.0195074021431347
 30
0.0
 11
-0.2974083297605183
 21
0.0195074021431347
 31
0.0
  0
ARC
  5
3BC
330
18
100
AcDbEntity
  8
TEXT
100
AcDbCircle
 10
-0.2974083297605183
 20
0.0374097629484505
 30
0.0
 40
0.017902360805315
100
AcDbArc
 50
90.0
 51
270.0
  0
LINE
  5
3BD
330
18
100
AcDbEntity
  8
TEXT
100
AcDbLine
 10
0.0049276640116593
 20
0.119588818410528
 30
0.0
 11
-0.066871302132248
 21
0.119588818410528
 31
0.0
  0
LINE
  5
3BE
330
18
100
AcDbEntity
  8
TEXT
100
AcDbLine
 10
-0.066871302132248
 20
0.119588818410528
 30
0.0
 11
-0.066871302132248
 21
0.1539767360046662
 31
0.0
  0
LINE
  5
3BF
330
18
100
AcDbEntity
  8
TEXT
100
AcDbLine
 10
-0.126913906976255
 20
0.1539767360046662
 30
0.0
 11
-0.126913906976255
 21
0.119588818410528
 31
0.0
  0
LINE
  5
3C0
330
18
100
AcDbEntity
  8
TEXT
100
AcDbLine
 10
-0.066871302132248
 20
0.1539767360046662
 30
0.0
 11
-0.126913906976255
 21
0.1539767360046662
 31
0.0
  0
LINE
  5
3C1
330
18
100
AcDbEntity
  8
TEXT
100
AcDbLine
 10
0.4428271961759345
 20
-0.1468842145779829
 30
0.0
 11
0.4428271961759345
 21
0.0553121237537626
 31
0.0
  0
LINE
  5
3C2
330
18
100
AcDbEntity
  8
TEXT
100
AcDbLine
 10
0.3757691493940944
 20
0.0477583345876527
 30
0.0
 11
0.3757691493940944
 21
-0.1468842145779829
 31
0.0
  0
LINE
  5
3C3
330
18
100
AcDbEntity
  8
TEXT
100
AcDbLine
 10
0.219237173209204
 20
-0.0644963764749838
 30
0.0
 11
0.219237173209204
 21
0.1876002961493386
 31
0.0
  0
LINE
  5
3C4
330
18
100
AcDbEntity
  8
TEXT
100
AcDbLine
 10
0.2515490273468641
 20
0.119588818410528
 30
0.0
 11
0.2515490273468641
 21
-0.0812753883218802
 31
0.0
  0
LINE
  5
3C5
330
18
100
AcDbEntity
  8
TEXT
100
AcDbLine
 10
0.3183800804048333
 20
-0.1468842145779829
 30
0.0
 11
0.3183800804048333
 21
0.0553121237537626
 31
0.0
  0
LINE
  5
3C6
330
18
100
AcDbEntity
  8
TEXT
100
AcDbLine
 10
0.1512574541400875
 20
0.0374245024622981
 30
0.0
 11
0.1512574541400875
 21
-0.0953328723630582
 31
0.0
  0
LINE
  5
3C7
330
18
100
AcDbEntity
  8
TEXT
100
AcDbLine
 10
0.2203767467053987
 20
-0.1468842145779829
 30
0.0
 11
0.3183800804048333
 21
-0.1468842145779829
 31
0.0
  0
LWPOLYLINE
  5
3C8
330
18
100
AcDbEntity
  8
TEXT
100
AcDbPolyline
 90
        2
 70
     0
 43
0.0
 10
0.1512574541400866
 20
-0.0953328723630547
 42
0.3318488747599744
 10
0.2203767467053996
 20
-0.1468842145779829
 42
-6.868794160588311
  0
ARC
  5
3C9
330
18
100
AcDbEntity
  8
TEXT
100
AcDbCircle
 10
0.2345553904622619
 20
-0.0658935820784548
 30
0.0
 40
0.0153818062434269
100
AcDbArc
 50
174.7883570302258
 51
270.0
  0
LINE
  5
3CA
330
18
100
AcDbEntity
  8
TEXT
100
AcDbLine
 10
0.2515490273468641
 20
-0.0812753883218802
 30
0.0
 11
0.2345553904622628
 21
-0.0812753883218802
 31
0.0
  0
LINE
  5
3CB
330
18
100
AcDbEntity
  8
TEXT
100
AcDbLine
 10
0.3757691493940944
 20
-0.1468842145779829
 30
0.0
 11
0.4428271961759345
 21
-0.1468842145779829
 31
0.0
  0
LINE
  5
3CC
330
18
100
AcDbEntity
  8
TEXT
100
AcDbLine
 10
0.3855670832780005
 20
0.119588818410528
 30
0.0
 11
0.2515490273468641
 21
0.119588818410528
 31
0.0
  0
LINE
  5
3CD
330
18
100
AcDbEntity
  8
TEXT
100
AcDbLine
 10
0.152428460642839
 20
0.1876002961493386
 30
0.0
 11
0.152428460642839
 21
0.119588818410528
 31
0.0
  0
LINE
  5
3CE
330
18
100
AcDbEntity
  8
TEXT
100
AcDbLine
 10
0.152428460642839
 20
0.119588818410528
 30
0.0
 11
0.1223065478494627
 21
0.119588818410528
 31
0.0
  0
LINE
  5
3CF
330
18
100
AcDbEntity
  8
TEXT
100
AcDbLine
 10
0.1223065478494627
 20
0.119588818410528
 30
0.0
 11
0.0635579850435972
 21
0.0187168222974075
 31
0.0
  0
LINE
  5
3D0
330
18
100
AcDbEntity
  8
TEXT
100
AcDbLine
 10
0.219237173209204
 20
0.1876002961493386
 30
0.0
 11
0.152428460642839
 21
0.1876002961493386
 31
0.0
  0
LWPOLYLINE
  5
3D1
330
18
100
AcDbEntity
  8
TEXT
100
AcDbPolyline
 90
        2
 70
     0
 43
0.0
 10
0.3855670832780014
 20
0.1195888184105316
 42
-0.3328679258950098
 10
0.4213487739911628
 20
0.0924213216496357
 42
6.772930709997214
  0
LINE
  5
3D2
330
18
100
AcDbEntity
  8
TEXT
100
AcDbLine
 10
0.3183800804048333
 20
0.0553121237537626
 30
0.0
 11
0.368215360227981
 21
0.0553121237537626
 31
0.0
  0
LWPOLYLINE
  5
3D3
330
18
100
AcDbEntity
  8
TEXT
100
AcDbPolyline
 90
        2
 70
     0
 43
0.0
 10
0.3682153602279801
 20
0.0553121237537626
 42
-0.4142135623731017
 10
0.3757691493940936
 20
0.0477583345876527
 42
-0.9999999999999998
  0
LWPOLYLINE
  5
3D4
330
18
100
AcDbEntity
  8
TEXT
100
AcDbPolyline
 90
        2
 70
     0
 43
0.0
 10
0.4969607930968838
 20
0.0553121237537626
 42
-0.4142135623731017
 10
0.5045145822629973
 20
0.0477583345876527
 42
-0.9999999999999998
  0
LINE
  5
3D5
330
18
100
AcDbEntity
  8
TEXT
100
AcDbLine
 10
0.4428271961759345
 20
0.0553121237537626
 30
0.0
 11
0.4969607930968847
 21
0.0553121237537626
 31
0.0
  0
TEXT
  5
3D6
330
18
100
AcDbEntity
  8
TEXT
100
AcDbText
 10
1.321994897333764
 20
-0.1472568328987789
 30
0.0
 40
0.0522247191011236
  1
Phone  1-800-328-2495
 41
1.272321428571429
 72
     5
 11
2.650927481603428
 21
-0.1472568328987789
 31
0.0
100
AcDbText
  0
TEXT
  5
3D7
330
18
100
AcDbEntity
  8
TEXT
100
AcDbText
 10
1.321994897333764
 20
0.1325184480000976
 30
0.0
 40
0.0522247191011236
  1
Stylmark  Incorporated
 41
1.221428571428571
 72
     5
 11
2.650927481603428
 21
0.1325184480000976
 31
0.0
100
AcDbText
  0
TEXT
  5
3D8
330
18
100
AcDbEntity
  8
TEXT
100
AcDbText
 10
1.321994897333764
 20
0.0392600210338054
 30
0.0
 40
0.0522247191011236
  1
6536 Main St. N.E. * P.O. Box 32008
 41
0.8388932496075353
 72
     5
 11
2.650927481603428
 21
0.0392600210338054
 31
0.0
100
AcDbText
  0
TEXT
  5
3D9
330
18
100
AcDbEntity
  8
TEXT
100
AcDbText
 10
1.321994897333764
 20
-0.0539984059324867
 30
0.0
 40
0.0522247191011236
  1
Minneapolis, MN 55432-0008
 41
1.11444212721585
 72
     5
 11
2.650927481603428
 21
-0.0539984059324867
 31
0.0
100
AcDbText
  0
LINE
  5
3DA
330
18
100
AcDbEntity
  8
TEXT
100
AcDbLine
 10
1.016906210550842
 20
0.1850530241781287
 30
0.0
 11
0.9485913320015688
 21
0.1850530241781287
 31
0.0
  0
LINE
  5
3DB
330
18
100
AcDbEntity
  8
TEXT
100
AcDbLine
 10
0.953071219328069
 20
-0.1468842145779829
 30
0.0
 11
1.017449403646689
 21
-0.1468842145779829
 31
0.0
  0
LINE
  5
3DC
330
18
100
AcDbEntity
  8
TEXT
100
AcDbLine
 10
0.9530712193280637
 20
0.0553121237537626
 30
0.0
 11
0.953071219328069
 21
-0.1468842145779829
 31
0.0
  0
LINE
  5
3DD
330
18
100
AcDbEntity
  8
TEXT
100
AcDbLine
 10
0.8515173627528467
 20
-0.1468842145779829
 30
0.0
 11
0.8515173627528414
 21
0.0304062908534855
 31
0.0
  0
LWPOLYLINE
  5
3DE
330
18
100
AcDbEntity
  8
TEXT
100
AcDbPolyline
 90
        2
 70
     0
 43
0.0
 10
0.7931621489175118
 20
-0.1033932696275448
 42
-0.2901071551932486
 10
0.7500862160498674
 20
-0.1468842145779829
 42
-5.328517124445184
  0
LWPOLYLINE
  5
3DF
330
18
100
AcDbEntity
  8
TEXT
100
AcDbPolyline
 90
        4
 70
     1
 43
0.0
 10
0.7299637509799748
 20
-0.0439202365939577
 10
0.6413034323201164
 20
-0.0439202365939577
 42
0.9999999999999998
 10
0.6413034323201164
 20
-0.0863187770978185
 10
0.7299637509799748
 20
-0.0863187770978185
 42
1.0
  0
LWPOLYLINE
  5
3E0
330
18
100
AcDbEntity
  8
TEXT
100
AcDbPolyline
 90
        2
 70
     0
 43
0.0
 10
0.6160687984184908
 20
-0.1468842145779829
 10
0.7500862160498674
 20
-0.1468842145779829
 42
0.9999999999999998
  0
LWPOLYLINE
  5
3E1
330
18
100
AcDbEntity
  8
TEXT
100
AcDbPolyline
 90
        2
 70
     0
 43
0.0
 10
0.5729928655508552
 20
-0.1033932696275448
 42
0.2901071551932823
 10
0.6160687984184908
 20
-0.1468842145779829
 42
5.328517124445801
  0
LWPOLYLINE
  5
3E2
330
18
100
AcDbEntity
  8
TEXT
100
AcDbPolyline
 90
        2
 70
     0
 43
0.0
 10
0.7931621489175118
 20
-0.1033932696275448
 10
0.7931621489175118
 20
-0.1468842145779829
  0
LWPOLYLINE
  5
3E3
330
18
100
AcDbEntity
  8
TEXT
100
AcDbPolyline
 90
        2
 70
     0
 43
0.0
 10
0.7931621489175118
 20
-0.1468842145779829
 10
0.8515173627528458
 20
-0.1468842145779829
  0
LINE
  5
3E4
330
18
100
AcDbEntity
  8
TEXT
100
AcDbLine
 10
0.7892224716124732
 20
0.0143768398571007
 30
0.0
 11
0.7454717004305716
 21
0.0966271158532459
 31
0.0
  0
LINE
  5
3E5
330
18
100
AcDbEntity
  8
TEXT
100
AcDbLine
 10
0.6812316343929537
 20
0.0553121237537626
 30
0.0
 11
0.5740253610056643
 21
0.0553121237537626
 31
0.0
  0
LINE
  5
3E6
330
18
100
AcDbEntity
  8
TEXT
100
AcDbLine
 10
0.6347447199136918
 20
0.0180371502916303
 30
0.0
 11
0.717032709697075
 21
0.0180371502916303
 31
0.0
  0
LINE
  5
3E7
330
18
100
AcDbEntity
  8
TEXT
100
AcDbLine
 10
0.7102625327374322
 20
0.119588818410528
 30
0.0
 11
0.575430623520373
 21
0.119588818410528
 31
0.0
  0
LINE
  5
3E8
330
18
100
AcDbEntity
  8
TEXT
100
AcDbLine
 10
0.5740253610056643
 20
0.0553121237537626
 30
0.0
 11
0.5740253610056643
 21
-0.019740282320444
 31
0.0
  0
ARC
  5
3E9
330
18
100
AcDbEntity
  8
TEXT
100
AcDbCircle
 10
0.6347447199136909
 20
-0.0496484308524883
 30
0.0
 40
0.0676855811441166
100
AcDbArc
 50
90.0
 51
153.7768192527749
  0
LINE
  5
3EA
330
18
100
AcDbEntity
  8
TEXT
100
AcDbLine
 10
0.575430623520373
 20
0.119588818410528
 30
0.0
 11
0.575430623520373
 21
0.0912662726408842
 31
0.0
  0
LWPOLYLINE
  5
3EB
330
18
100
AcDbEntity
  8
TEXT
100
AcDbPolyline
 90
        2
 70
     0
 43
0.0
 10
0.5396489328072072
 20
0.1195888184105316
 42
-0.3277054968067132
 10
0.5754306235203721
 20
0.0912662726408877
 42
6.667889725900311
  0
ARC
  5
3EC
330
18
100
AcDbEntity
  8
TEXT
100
AcDbCircle
 10
0.6812316343929528
 20
0.0269527487537653
 30
0.0
 40
0.028359375
100
AcDbArc
 50
25.78218179591245
 51
90.0
  0
LINE
  5
3ED
330
18
100
AcDbEntity
  8
TEXT
100
AcDbLine
 10
0.717032709697075
 20
0.0180371502916303
 30
0.0
 11
0.7067679492835106
 21
0.0392876898643246
 31
0.0
  0
ARC
  5
3EE
330
18
100
AcDbEntity
  8
TEXT
100
AcDbCircle
 10
0.7082355929603637
 20
0.0780052512896257
 30
0.0
 40
0.0416329381542859
100
AcDbArc
 50
26.56974201007528
 51
87.20939649401342
  0
LINE
  5
3EF
330
18
100
AcDbEntity
  8
TEXT
100
AcDbLine
 10
0.9485913320015688
 20
0.1850530241781287
 30
0.0
 11
0.9485913320015635
 21
0.119588818410528
 31
0.0
  0
LINE
  5
3F0
330
18
100
AcDbEntity
  8
TEXT
100
AcDbLine
 10
0.9485913320015635
 20
0.119588818410528
 30
0.0
 11
0.881091614352047
 21
0.119588818410528
 31
0.0
  0
LINE
  5
3F1
330
18
100
AcDbEntity
  8
TEXT
100
AcDbLine
 10
0.8764232380355059
 20
0.0553121237537626
 30
0.0
 11
0.9530712193280637
 21
0.0553121237537626
 31
0.0
  0
LINE
  5
3F2
330
18
100
AcDbEntity
  8
TEXT
100
AcDbLine
 10
0.8531193779119741
 20
0.0920411685496534
 30
0.0
 11
0.8531193779119741
 21
0.119588818410528
 31
0.0
  0
ARC
  5
3F3
330
18
100
AcDbEntity
  8
TEXT
100
AcDbCircle
 10
0.8843121949750827
 20
0.0883430911282632
 30
0.0
 40
0.0314112657011332
100
AcDbArc
 50
95.88484768694724
 51
173.2388340632136
  0
ARC
  5
3F4
330
18
100
AcDbEntity
  8
TEXT
100
AcDbCircle
 10
0.876423238035505
 20
0.0304062484710999
 30
0.0
 40
0.0249058752826653
100
AcDbArc
 50
89.99971217465335
 51
179.9999999999985
  0
LINE
  5
3F5
330
18
100
AcDbEntity
  8
TEXT
100
AcDbLine
 10
0.7892224716124732
 20
0.119588818410528
 30
0.0
 11
0.7892224716124732
 21
0.0143768398571007
 31
0.0
  0
LINE
  5
3F6
330
18
100
AcDbEntity
  8
TEXT
100
AcDbLine
 10
0.8531193779119741
 20
0.119588818410528
 30
0.0
 11
0.7892224716124732
 21
0.119588818410528
 31
0.0
  0
LINE
  5
3F7
330
18
100
AcDbEntity
  8
TEXT
100
AcDbLine
 10
1.017449403646689
 20
-0.0153046461018027
 30
0.0
 11
1.093352936858154
 21
-0.1468842145779829
 31
0.0
  0
LINE
  5
3F8
330
18
100
AcDbEntity
  8
TEXT
100
AcDbLine
 10
1.017449403646689
 20
-0.1468842145779829
 30
0.0
 11
1.017449403646689
 21
-0.0153046461018027
 31
0.0
  0
LINE
  5
3F9
330
18
100
AcDbEntity
  8
TEXT
100
AcDbLine
 10
1.169931309234359
 20
-0.1468842145779829
 30
0.0
 11
1.074439085870749
 21
0.0096955754695545
 31
0.0
  0
LINE
  5
3FA
330
18
100
AcDbEntity
  8
TEXT
100
AcDbLine
 10
1.093352936858154
 20
-0.1468842145779829
 30
0.0
 11
1.169931309234359
 21
-0.1468842145779829
 31
0.0
  0
LINE
  5
3FB
330
18
100
AcDbEntity
  8
TEXT
100
AcDbLine
 10
1.016906210550842
 20
0.04372349199899
 30
0.0
 11
1.016906210550842
 21
0.1850530241781287
 31
0.0
  0
LINE
  5
3FC
330
18
100
AcDbEntity
  8
TEXT
100
AcDbLine
 10
1.138996201836454
 20
0.119588818410528
 30
0.0
 11
1.064004369106828
 21
0.119588818410528
 31
0.0
  0
LINE
  5
3FD
330
18
100
AcDbEntity
  8
TEXT
100
AcDbLine
 10
1.074439085870749
 20
0.0096955754695545
 30
0.0
 11
1.138996201836454
 21
0.119588818410528
 31
0.0
  0
LINE
  5
3FE
330
18
100
AcDbEntity
  8
TEXT
100
AcDbLine
 10
1.064004369106826
 20
0.119588818410528
 30
0.0
 11
1.016906210550842
 21
0.04372349199899
 31
0.0
  0
ENDSEC
  0
SECTION
  2
OBJECTS
  0
DICTIONARY
  5
C
330
0
100
AcDbDictionary
  3
ACAD_GROUP
350
D
  3
ACAD_LAYOUT
350
403
  3
ACAD_MLINESTYLE
350
E
  3
ACAD_PLOTSETTINGS
350
404
  3
ACAD_PLOTSTYLENAME
350
401
  3
ACDBHEADERROUNDTRIPXREC
350
40F
  3
ACDBVARIABLEDICTIONARY
350
40C
  0
DICTIONARY
  5
431
330
18
100
AcDbDictionary
280
     1
  3
ACAD_LAYOUTSELFREF
360
432
  0
DICTIONARY
  5
42F
330
15
100
AcDbDictionary
280
     1
  3
ACAD_LAYOUTSELFREF
360
430
  0
DICTIONARY
  5
D
102
{ACAD_REACTORS
330
C
102
}
330
C
100
AcDbDictionary
  0
DICTIONARY
  5
403
102
{ACAD_REACTORS
330
C
102
}
330
C
100
AcDbDictionary
  0
DICTIONARY
  5
E
102
{ACAD_REACTORS
330
C
102
}
330
C
100
AcDbDictionary
  3
STANDARD
350
1B
  0
DICTIONARY
  5
404
102
{ACAD_REACTORS
330
C
102
}
330
C
100
AcDbDictionary
  0
ACDBDICTIONARYWDFLT
  5
401
102
{ACAD_REACTORS
330
C
102
}
330
C
100
AcDbDictionary
281
     1
  3
Normal
350
402
100
AcDbDictionaryWithDefault
340
402
  0
DICTIONARY
  5
40F
102
{ACAD_REACTORS
330
C
102
}
330
C
100
AcDbDictionary
  3
CEPSNTYPE
350
419
  3
FINGERPRINTGUID
350
41A
  3
HYPERLINKBASE
350
412
  3
INSUNITS
350
418
  3
LAYOUTDICT
350
414
  3
LWETCUNION
350
417
  3
PLOTSETDICT
350
415
  3
PLOTSTYLNAMDICT
350
416
  3
PSVPSCALE
350
41C
  3
PUCSBASE
350
41F
  3
PUCSORGBACK
350
425
  3
PUCSORGBOTTOM
350
421
  3
PUCSORGFRONT
350
424
  3
PUCSORGLEFT
350
422
  3
PUCSORGRIGHT
350
423
  3
PUCSORGTOP
350
420
  3
PUCSORTHOREF
350
41D
  3
PUCSORTHOVIEW
350
41E
  3
STYLESHEET
350
413
  3
TSTACKALIGN
350
410
  3
TSTACKSIZE
350
411
  3
UCSBASE
350
428
  3
UCSORGBACK
350
42E
  3
UCSORGBOTTOM
350
42A
  3
UCSORGFRONT
350
42D
  3
UCSORGLEFT
350
42B
  3
UCSORGRIGHT
350
42C
  3
UCSORGTOP
350
429
  3
UCSORTHOREF
350
426
  3
UCSORTHOVIEW
350
427
  3
VERSIONGUID
350
41B
  0
DICTIONARY
  5
40C
102
{ACAD_REACTORS
330
C
102
}
330
C
100
AcDbDictionary
  3
DIMASSOC
350
40D
  0
XRECORD
  5
432
102
{ACAD_REACTORS
330
431
102
}
330
431
100
AcDbXrecord
340
18
  0
XRECORD
  5
430
102
{ACAD_REACTORS
330
42F
102
}
330
42F
100
AcDbXrecord
340
15
  0
MLINESTYLE
  5
1B
102
{ACAD_REACTORS
330
E
102
}
330
E
100
AcDbMlineStyle
  2
STANDARD
 70
     0
  3

 62
     0
 51
90.0
 52
90.0
 71
     2
 49
0.5
 62
   256
  6
BYLAYER
 49
-0.5
 62
   256
  6
BYLAYER
  0
ACDBPLACEHOLDER
  5
402
102
{ACAD_REACTORS
330
401
102
}
330
401
100
AcDbPlaceHolder
280
     0
  0
XRECORD
  5
419
102
{ACAD_REACTORS
330
40F
102
}
330
40F
100
AcDbXrecord
 90
        0
  0
XRECORD
  5
41A
102
{ACAD_REACTORS
330
40F
102
}
330
40F
100
AcDbXrecord
  1
{D98F1AE0-8DB9-11D6-88E6-0090279574E7}
  0
XRECORD
  5
412
102
{ACAD_REACTORS
330
40F
102
}
330
40F
100
AcDbXrecord
  1

  0
XRECORD
  5
418
102
{ACAD_REACTORS
330
40F
102
}
330
40F
100
AcDbXrecord
 90
        0
  0
XRECORD
  5
414
102
{ACAD_REACTORS
330
40F
102
}
330
40F
100
AcDbXrecord
340
403
  0
XRECORD
  5
417
102
{ACAD_REACTORS
330
40F
102
}
330
40F
100
AcDbXrecord
 90
    14877
  0
XRECORD
  5
415
102
{ACAD_REACTORS
330
40F
102
}
330
40F
100
AcDbXrecord
340
404
  0
XRECORD
  5
416
102
{ACAD_REACTORS
330
40F
102
}
330
40F
100
AcDbXrecord
340
401
  0
XRECORD
  5
41C
102
{ACAD_REACTORS
330
40F
102
}
330
40F
100
AcDbXrecord
 40
0.0
  0
XRECORD
  5
41F
102
{ACAD_REACTORS
330
40F
102
}
330
40F
100
AcDbXrecord
340
0
  0
XRECORD
  5
425
102
{ACAD_REACTORS
330
40F
102
}
330
40F
100
AcDbXrecord
 10
0.0
 20
0.0
 30
0.0
  0
XRECORD
  5
421
102
{ACAD_REACTORS
330
40F
102
}
330
40F
100
AcDbXrecord
 10
0.0
 20
0.0
 30
0.0
  0
XRECORD
  5
424
102
{ACAD_REACTORS
330
40F
102
}
330
40F
100
AcDbXrecord
 10
0.0
 20
0.0
 30
0.0
  0
XRECORD
  5
422
102
{ACAD_REACTORS
330
40F
102
}
330
40F
100
AcDbXrecord
 10
0.0
 20
0.0
 30
0.0
  0
XRECORD
  5
423
102
{ACAD_REACTORS
330
40F
102
}
330
40F
100
AcDbXrecord
 10
0.0
 20
0.0
 30
0.0
  0
XRECORD
  5
420
102
{ACAD_REACTORS
330
40F
102
}
330
40F
100
AcDbXrecord
 10
0.0
 20
0.0
 30
0.0
  0
XRECORD
  5
41D
102
{ACAD_REACTORS
330
40F
102
}
330
40F
100
AcDbXrecord
340
0
  0
XRECORD
  5
41E
102
{ACAD_REACTORS
330
40F
102
}
330
40F
100
AcDbXrecord
 70
     0
  0
XRECORD
  5
413
102
{ACAD_REACTORS
330
40F
102
}
330
40F
100
AcDbXrecord
  1

  0
XRECORD
  5
410
102
{ACAD_REACTORS
330
40F
102
}
330
40F
100
AcDbXrecord
 90
        1
  0
XRECORD
  5
411
102
{ACAD_REACTORS
330
40F
102
}
330
40F
100
AcDbXrecord
 90
       70
  0
XRECORD
  5
428
102
{ACAD_REACTORS
330
40F
102
}
330
40F
100
AcDbXrecord
340
0
  0
XRECORD
  5
42E
102
{ACAD_REACTORS
330
40F
102
}
330
40F
100
AcDbXrecord
 10
0.0
 20
0.0
 30
0.0
  0
XRECORD
  5
42A
102
{ACAD_REACTORS
330
40F
102
}
330
40F
100
AcDbXrecord
 10
0.0
 20
0.0
 30
0.0
  0
XRECORD
  5
42D
102
{ACAD_REACTORS
330
40F
102
}
330
40F
100
AcDbXrecord
 10
0.0
 20
0.0
 30
0.0
  0
XRECORD
  5
42B
102
{ACAD_REACTORS
330
40F
102
}
330
40F
100
AcDbXrecord
 10
0.0
 20
0.0
 30
0.0
  0
XRECORD
  5
42C
102
{ACAD_REACTORS
330
40F
102
}
330
40F
100
AcDbXrecord
 10
0.0
 20
0.0
 30
0.0
  0
XRECORD
  5
429
102
{ACAD_REACTORS
330
40F
102
}
330
40F
100
AcDbXrecord
 10
0.0
 20
0.0
 30
0.0
  0
XRECORD
  5
426
102
{ACAD_REACTORS
330
40F
102
}
330
40F
100
AcDbXrecord
340
0
  0
XRECORD
  5
427
102
{ACAD_REACTORS
330
40F
102
}
330
40F
100
AcDbXrecord
 70
     0
  0
XRECORD
  5
41B
102
{ACAD_REACTORS
330
40F
102
}
330
40F
100
AcDbXrecord
  1
{D98F1AE2-8DB9-11D6-88E6-0090279574E7}
  0
DICTIONARYVAR
  5
40D
102
{ACAD_REACTORS
330
40C
102
}
330
40C
100
DictionaryVariables
280
     0
  1
1
  0
ENDSEC
  0
EOF
