  0
SECTION
  2
HEADER
  9
$ACADVER
  1
AC1014
  9
$ACADMAINTVER
 70
     9
  9
$DWGCODEPAGE
  3
ANSI_1252
  9
$INSBASE
 10
0.0
 20
0.0
 30
0.0
  9
$EXTMIN
 10
-0.4632214910850839
 20
7.052711124130876
 30
0.0
  9
$EXTMAX
 10
3.021997830662044
 20
8.348258102306298
 30
0.0
  9
$LIMMIN
 10
0.0
 20
0.0
  9
$LIMMAX
 10
8.5
 20
11.0
  9
$ORTHOMODE
 70
     1
  9
$REGENMODE
 70
     1
  9
$FILLMODE
 70
     1
  9
$QTEXTMODE
 70
     0
  9
$MIRRTEXT
 70
     0
  9
$DRAGMODE
 70
     2
  9
$LTSCALE
 40
1.0
  9
$OSMODE
 70
    39
  9
$ATTMODE
 70
     1
  9
$TEXTSIZE
 40
0.125
  9
$TRACEWID
 40
0.05
  9
$TEXTSTYLE
  7
ROMANS
  9
$CLAYER
  8
DIM
  9
$CELTYPE
  6
BYLAYER
  9
$CECOLOR
 62
   256
  9
$CELTSCALE
 40
1.0
  9
$DELOBJ
 70
     1
  9
$DISPSILH
 70
     1
  9
$DIMSCALE
 40
1.0
  9
$DIMASZ
 40
0.125
  9
$DIMEXO
 40
0.125
  9
$DIMDLI
 40
0.375
  9
$DIMRND
 40
0.0
  9
$DIMDLE
 40
0.0
  9
$DIMEXE
 40
0.125
  9
$DIMTP
 40
0.0
  9
$DIMTM
 40
0.0
  9
$DIMTXT
 40
0.125
  9
$DIMCEN
 40
-0.125
  9
$DIMTSZ
 40
0.0
  9
$DIMTOL
 70
     0
  9
$DIMLIM
 70
     0
  9
$DIMTIH
 70
     1
  9
$DIMTOH
 70
     1
  9
$DIMSE1
 70
     0
  9
$DIMSE2
 70
     0
  9
$DIMTAD
 70
     0
  9
$DIMZIN
 70
     4
  9
$DIMBLK
  1

  9
$DIMASO
 70
     1
  9
$DIMSHO
 70
     1
  9
$DIMPOST
  1

  9
$DIMAPOST
  1

  9
$DIMALT
 70
     0
  9
$DIMALTD
 70
     2
  9
$DIMALTF
 40
25.4
  9
$DIMLFAC
 40
0.125
  9
$DIMTOFL
 70
     0
  9
$DIMTVP
 40
0.0
  9
$DIMTIX
 70
     0
  9
$DIMSOXD
 70
     0
  9
$DIMSAH
 70
     0
  9
$DIMBLK1
  1

  9
$DIMBLK2
  1

  9
$DIMSTYLE
  2
STANDARD
  9
$DIMCLRD
 70
     0
  9
$DIMCLRE
 70
     0
  9
$DIMCLRT
 70
     0
  9
$DIMTFAC
 40
1.0
  9
$DIMGAP
 40
0.09
  9
$DIMJUST
 70
     0
  9
$DIMSD1
 70
     0
  9
$DIMSD2
 70
     0
  9
$DIMTOLJ
 70
     1
  9
$DIMTZIN
 70
     4
  9
$DIMALTZ
 70
     0
  9
$DIMALTTZ
 70
     0
  9
$DIMFIT
 70
     3
  9
$DIMUPT
 70
     0
  9
$DIMUNIT
 70
     2
  9
$DIMDEC
 70
     3
  9
$DIMTDEC
 70
     3
  9
$DIMALTU
 70
     2
  9
$DIMALTTD
 70
     2
  9
$DIMTXSTY
  7
ROMANS
  9
$DIMAUNIT
 70
     0
  9
$LUNITS
 70
     2
  9
$LUPREC
 70
     3
  9
$SKETCHINC
 40
0.1
  9
$FILLETRAD
 40
0.0
  9
$AUNITS
 70
     0
  9
$AUPREC
 70
     0
  9
$MENU
  1
ACAD
  9
$ELEVATION
 40
0.0
  9
$PELEVATION
 40
0.0
  9
$THICKNESS
 40
0.0
  9
$LIMCHECK
 70
     0
  9
$BLIPMODE
 70
     0
  9
$CHAMFERA
 40
0.0
  9
$CHAMFERB
 40
0.0
  9
$CHAMFERC
 40
0.0
  9
$CHAMFERD
 40
0.0
  9
$SKPOLY
 70
     0
  9
$TDCREATE
 40
2448376.528715046
  9
$TDUPDATE
 40
2452458.324367315
  9
$TDINDWG
 40
0.1525298843
  9
$TDUSRTIMER
 40
0.1525298843
  9
$USRTIMER
 70
     1
  9
$ANGBASE
 50
0.0
  9
$ANGDIR
 70
     0
  9
$PDMODE
 70
     0
  9
$PDSIZE
 40
0.0
  9
$PLINEWID
 40
0.0
  9
$COORDS
 70
     2
  9
$SPLFRAME
 70
     0
  9
$SPLINETYPE
 70
     6
  9
$SPLINESEGS
 70
     8
  9
$ATTDIA
 70
     0
  9
$ATTREQ
 70
     1
  9
$HANDLING
 70
 22529
  9
$HANDSEED
  5
BBE
  9
$SURFTAB1
 70
     6
  9
$SURFTAB2
 70
     6
  9
$SURFTYPE
 70
     6
  9
$SURFU
 70
     6
  9
$SURFV
 70
     6
  9
$UCSNAME
  2

  9
$UCSORG
 10
0.0
 20
0.0
 30
0.0
  9
$UCSXDIR
 10
1.0
 20
0.0
 30
0.0
  9
$UCSYDIR
 10
0.0
 20
1.0
 30
0.0
  9
$PUCSNAME
  2

  9
$PUCSORG
 10
0.0
 20
0.0
 30
0.0
  9
$PUCSXDIR
 10
1.0
 20
0.0
 30
0.0
  9
$PUCSYDIR
 10
0.0
 20
1.0
 30
0.0
  9
$USERI1
 70
     0
  9
$USERI2
 70
     0
  9
$USERI3
 70
     0
  9
$USERI4
 70
     0
  9
$USERI5
 70
     0
  9
$USERR1
 40
0.0
  9
$USERR2
 40
0.0
  9
$USERR3
 40
0.0
  9
$USERR4
 40
0.0
  9
$USERR5
 40
0.0
  9
$WORLDVIEW
 70
     1
  9
$SHADEDGE
 70
     3
  9
$SHADEDIF
 70
    70
  9
$TILEMODE
 70
     1
  9
$MAXACTVP
 70
    16
  9
$PINSBASE
 10
0.0
 20
0.0
 30
0.0
  9
$PLIMCHECK
 70
     0
  9
$PEXTMIN
 10
1.000000000000000E+20
 20
1.000000000000000E+20
 30
1.000000000000000E+20
  9
$PEXTMAX
 10
-1.000000000000000E+20
 20
-1.000000000000000E+20
 30
-1.000000000000000E+20
  9
$PLIMMIN
 10
0.0
 20
0.0
  9
$PLIMMAX
 10
12.0
 20
9.0
  9
$UNITMODE
 70
     0
  9
$VISRETAIN
 70
     0
  9
$PLINEGEN
 70
     1
  9
$PSLTSCALE
 70
     0
  9
$TREEDEPTH
 70
  3020
  9
$PICKSTYLE
 70
     1
  9
$CMLSTYLE
  2
STANDARD
  9
$CMLJUST
 70
     0
  9
$CMLSCALE
 40
1.0
  9
$PROXYGRAPHICS
 70
     1
  9
$MEASUREMENT
 70
     0
  0
ENDSEC
  0
SECTION
  2
CLASSES
  0
CLASS
  1
LWPOLYLINE
  2
AcDbPolyline
  3
AutoCAD 2000
 90
        0
280
     0
281
     1
  0
CLASS
  1
ACDBDICTIONARYWDFLT
  2
AcDbDictionaryWithDefault
  3
AutoCAD 2000
 90
        0
280
     0
281
     0
  0
CLASS
  1
ACDBPLACEHOLDER
  2
AcDbPlaceHolder
  3
AutoCAD 2000
 90
        0
280
     0
281
     0
  0
CLASS
  1
LAYOUT
  2
AcDbLayout
  3
AutoCAD 2000
 90
        0
280
     0
281
     0
  0
CLASS
  1
DICTIONARYVAR
  2
AcDbDictionaryVar
  3
AutoCAD 2000
 90
        0
280
     0
281
     0
  0
CLASS
  1
LONG_TRANSACTION
  2
AcDbLongTransaction
  3
AutoCAD 2000
 90
        0
280
     0
281
     0
  0
CLASS
  1
LWPOLYLINE
  2
AcDbPolyline
  3
AutoCAD 2000
 90
        0
280
     0
281
     1
  0
CLASS
  1
HATCH
  2
AcDbHatch
  3
AutoCAD 2000
 90
        0
280
     0
281
     1
  0
CLASS
  1
XRECORD
  2
AcDbXrecord
  3
AutoCAD 2000
 90
        0
280
     0
281
     0
  0
ENDSEC
  0
SECTION
  2
TABLES
  0
TABLE
  2
VPORT
  5
8
330
0
100
AcDbSymbolTable
 70
     2
  0
VPORT
  5
B99
330
8
100
AcDbSymbolTableRecord
100
AcDbViewportTableRecord
  2
*ACTIVE
 70
     0
 10
0.0
 20
0.0
 11
1.0
 21
1.0
 12
4.202524788836713
 22
7.700446701438213
 13
0.0
 23
0.0
 14
0.015625
 24
0.015625
 15
0.0
 25
0.0
 16
0.0
 26
0.0
 36
1.0
 17
0.0
 27
0.0
 37
0.0
 40
2.164226148719877
 41
4.320930232558139
 42
50.0
 43
0.0
 44
0.0
 50
0.0
 51
0.0
 71
     0
 72
  2000
 73
     1
 74
     1
 75
     0
 76
     0
 77
     0
 78
     0
  0
ENDTAB
  0
TABLE
  2
LTYPE
  5
5
330
0
100
AcDbSymbolTable
 70
     1
  0
LTYPE
  5
12
330
5
100
AcDbSymbolTableRecord
100
AcDbLinetypeTableRecord
  2
BYBLOCK
 70
     0
  3

 72
    65
 73
     0
 40
0.0
  0
LTYPE
  5
13
330
5
100
AcDbSymbolTableRecord
100
AcDbLinetypeTableRecord
  2
BYLAYER
 70
     0
  3

 72
    65
 73
     0
 40
0.0
  0
LTYPE
  5
14
330
5
100
AcDbSymbolTableRecord
100
AcDbLinetypeTableRecord
  2
CONTINUOUS
 70
     0
  3
Solid line
 72
    65
 73
     0
 40
0.0
  0
ENDTAB
  0
TABLE
  2
LAYER
  5
2
330
0
100
AcDbSymbolTable
 70
     3
  0
LAYER
  5
F
330
2
100
AcDbSymbolTableRecord
100
AcDbLayerTableRecord
  2
0
 70
     0
 62
     7
  6
CONTINUOUS
  0
LAYER
  5
29
330
2
100
AcDbSymbolTableRecord
100
AcDbLayerTableRecord
  2
DIM
 70
     0
 62
     4
  6
CONTINUOUS
  0
LAYER
  5
2A
330
2
100
AcDbSymbolTableRecord
100
AcDbLayerTableRecord
  2
TEXT
 70
     0
 62
     3
  6
CONTINUOUS
  0
ENDTAB
  0
TABLE
  2
STYLE
  5
3
330
0
100
AcDbSymbolTable
 70
     3
  0
STYLE
  5
10
330
3
100
AcDbSymbolTableRecord
100
AcDbTextStyleTableRecord
  2
STANDARD
 70
     0
 40
0.0
 41
1.0
 50
0.0
 71
     0
 42
0.125
  3
txt
  4

  0
STYLE
  5
28A
330
3
100
AcDbSymbolTableRecord
100
AcDbTextStyleTableRecord
  2
ROMANS
 70
     0
 40
0.0
 41
1.0
 50
0.0
 71
     0
 42
0.125
  3
romans.shx
  4

  0
STYLE
  5
A87
330
3
100
AcDbSymbolTableRecord
100
AcDbTextStyleTableRecord
  2
ITALICC
 70
     0
 40
0.0
 41
1.0
 50
0.0
 71
     0
 42
0.125
  3
italicc
  4

  0
ENDTAB
  0
TABLE
  2
VIEW
  5
6
330
0
100
AcDbSymbolTable
 70
     0
  0
ENDTAB
  0
TABLE
  2
UCS
  5
7
330
0
100
AcDbSymbolTable
 70
     0
  0
ENDTAB
  0
TABLE
  2
APPID
  5
9
330
0
100
AcDbSymbolTable
 70
     1
  0
APPID
  5
11
330
9
100
AcDbSymbolTableRecord
100
AcDbRegAppTableRecord
  2
ACAD
 70
     0
  0
ENDTAB
  0
TABLE
  2
DIMSTYLE
  5
A
330
0
100
AcDbSymbolTable
 70
     1
  0
DIMSTYLE
105
282
330
A
100
AcDbSymbolTableRecord
100
AcDbDimStyleTableRecord
  2
STANDARD
 70
     0
  3

  4

  5

  6

  7

 40
1.0
 41
0.125
 42
0.125
 43
0.375
 44
0.125
 45
0.0
 46
0.0
 47
0.0
 48
0.0
140
0.125
141
-0.125
142
0.0
143
25.4
144
0.125
145
0.0
146
1.0
147
0.09
 71
     0
 72
     0
 73
     1
 74
     1
 75
     0
 76
     0
 77
     0
 78
     4
170
     0
171
     2
172
     0
173
     0
174
     0
175
     0
176
     0
177
     0
178
     0
270
     2
271
     3
272
     3
273
     2
274
     2
340
28A
275
     0
280
     0
281
     0
282
     0
283
     1
284
     4
285
     0
286
     0
287
     3
288
     0
  0
ENDTAB
  0
TABLE
  2
BLOCK_RECORD
  5
1
330
0
100
AcDbSymbolTable
 70
     0
  0
BLOCK_RECORD
  5
18
102
{ACAD_XDICTIONARY
360
BBC
102
}
330
1
100
AcDbSymbolTableRecord
100
AcDbBlockTableRecord
  2
*MODEL_SPACE
  0
BLOCK_RECORD
  5
15
102
{ACAD_XDICTIONARY
360
BBA
102
}
330
1
100
AcDbSymbolTableRecord
100
AcDbBlockTableRecord
  2
*PAPER_SPACE
  0
ENDTAB
  0
ENDSEC
  0
SECTION
  2
BLOCKS
  0
BLOCK
  5
34
330
18
100
AcDbEntity
  8
0
100
AcDbBlockBegin
  2
*MODEL_SPACE
 70
     0
 10
0.0
 20
0.0
 30
0.0
  3
*MODEL_SPACE
  1

  0
ENDBLK
  5
35
330
18
100
AcDbEntity
  8
0
100
AcDbBlockEnd
  0
BLOCK
  5
32
330
15
100
AcDbEntity
 67
     1
  8
0
100
AcDbBlockBegin
  2
*PAPER_SPACE
 70
     0
 10
0.0
 20
0.0
 30
0.0
  3
*PAPER_SPACE
  1

  0
ENDBLK
  5
33
330
15
100
AcDbEntity
 67
     1
  8
0
100
AcDbBlockEnd
  0
ENDSEC
  0
SECTION
  2
ENTITIES
  0
LWPOLYLINE
  5
64
330
18
100
AcDbEntity
  8
0
100
AcDbPolyline
 90
       48
 70
     1
 43
0.0
 10
1.312729958217503
 20
8.122702422846925
 42
0.4142135623730951
 10
1.312729958217503
 20
8.128359277096418
 10
1.295073103968011
 20
8.146016131345909
 42
-0.4142135623730951
 10
1.295073103968011
 20
8.151672985595402
 10
1.312729958217503
 20
8.169329839844895
 42
0.4142135623730951
 10
1.312729958217503
 20
8.174986694094387
 10
1.295073103968011
 20
8.19264354834388
 42
-0.4142135623730951
 10
1.295073103968011
 20
8.198300402593371
 10
1.312729958217504
 20
8.215957256842864
 42
0.4142135623730951
 10
1.312729958217504
 20
8.221614111092357
 10
1.295073103968011
 20
8.23927096534185
 42
-0.4142135623730951
 10
1.295073103968011
 20
8.244927819591342
 10
1.312729958217504
 20
8.262584673840834
 42
0.7673269879789513
 10
1.308866254912347
 20
8.269276804270736
 10
1.254570626318268
 20
8.254728334436412
 42
-0.4931454260313241
 10
1.248276531092756
 20
8.259557963567859
 10
1.248276531092757
 20
8.273382008723913
 42
-0.3394542588633598
 10
1.251982435867244
 20
8.278211637855358
 10
1.507607435867243
 20
8.346706150170565
 42
-0.4931454260312835
 10
1.513901531092756
 20
8.34187652103912
 10
1.513901531092756
 20
8.328052927910313
 42
-0.198912367379658
 10
1.512437064998689
 20
8.324517394004381
 10
1.421615997186822
 20
8.233696326192514
 42
0.6681786379192988
 10
1.425151531092755
 20
8.225160792286581
 10
1.508901531092756
 20
8.225160792286581
 42
-0.6681786379192988
 10
1.512437064998688
 20
8.216625258380648
 10
1.421615997186822
 20
8.125804190568782
 42
0.6681786379192988
 10
1.425151531092755
 20
8.117268656662851
 10
1.508901531092756
 20
8.117268656662851
 42
-0.6681786379192988
 10
1.512437064998688
 20
8.108733122756918
 10
1.421615997186822
 20
8.017912054945051
 42
0.6681786379192988
 10
1.425151531092755
 20
8.009376521039119
 10
1.503901531092756
 20
8.009376521039119
 42
-0.4142135623730951
 10
1.513901531092756
 20
7.999376521039119
 10
1.513901531092756
 20
7.993751521039119
 42
-0.4142135623730943
 10
1.467026531092756
 20
7.946876521039119
 10
1.356401531092758
 20
7.946876521039118
 42
-0.198912367379658
 10
1.352865997186825
 20
7.948340987133185
 10
1.29507310396801
 20
8.006133880351999
 42
-0.4142135623731411
 10
1.295073103968009
 20
8.011790734601493
 10
1.312729958217502
 20
8.029447588850985
 42
0.4142135623730951
 10
1.312729958217502
 20
8.035104443100477
 10
1.29507310396801
 20
8.05276129734997
 42
-0.4142135623730951
 10
1.29507310396801
 20
8.058418151599463
 10
1.312729958217502
 20
8.076075005848956
 42
0.4142135623730951
 10
1.312729958217502
 20
8.081731860098447
 10
1.29507310396801
 20
8.09938871434794
 42
-0.4142135623730951
 10
1.29507310396801
 20
8.105045568597432
  0
TEXT
  5
B0C
330
18
100
AcDbEntity
  8
TEXT
100
AcDbText
 10
0.5267838976658689
 20
7.510729728213458
 30
0.0
 40
0.125
  1
PART #129003
  7
ITALICC
 72
     1
 11
1.279760088142059
 21
7.510729728213458
 31
0.0
100
AcDbText
  0
LWPOLYLINE
  5
B0D
330
18
100
AcDbEntity
  8
TEXT
100
AcDbPolyline
 90
        3
 70
     0
 43
0.0
 10
0.9107192818658234
 20
7.330652736850393
 10
0.7924191230497791
 20
7.330652736850393
 10
0.7924191230497791
 20
7.303485240089497
 42
-1.960274751411753
  0
LWPOLYLINE
  5
B0E
330
18
100
AcDbEntity
  8
TEXT
100
AcDbPolyline
 90
        4
 70
     0
 43
0.0
 10
0.8755849313216135
 20
7.258822253027514
 10
0.8755849313216135
 20
7.064179703861879
 10
0.9440632146094714
 20
7.064179703861879
 10
0.9440632146094714
 20
7.107670648812317
 42
-1.714843617202739
  0
LWPOLYLINE
  5
B0F
330
18
100
AcDbEntity
  8
TEXT
100
AcDbPolyline
 90
        2
 70
     0
 43
0.0001332181640625
 10
-0.2230957503624289
 20
7.090860041537891
 10
-0.2830439241905527
 20
7.150808215366017
  0
LWPOLYLINE
  5
B10
330
18
100
AcDbEntity
  8
TEXT
100
AcDbPolyline
 90
        3
 70
     0
 43
0.0006660908203125
 10
-0.3096875570030537
 20
7.090860041537891
 10
-0.2230957503624289
 20
7.090860041537891
 10
-0.2230957503624289
 20
7.177451848178518
  0
LWPOLYLINE
  5
B11
330
18
100
AcDbEntity
  8
TEXT
100
AcDbPolyline
 90
        3
 70
     0
 43
0.0006660908203125
 10
-0.3096875570030537
 20
7.06421640872539
 10
-0.1964521175499278
 20
7.06421640872539
 10
-0.1964521175499278
 20
7.177451848178518
  0
LWPOLYLINE
  5
B12
330
18
100
AcDbEntity
  8
TEXT
100
AcDbPolyline
 90
        2
 70
     0
 43
0.0001332181640625
 10
-0.1964521175499278
 20
7.177451848178518
 10
-0.2697221077843039
 20
7.187443210483203
  0
LWPOLYLINE
  5
B13
330
18
100
AcDbEntity
  8
TEXT
100
AcDbPolyline
 90
        2
 70
     0
 43
0.0001332181640625
 10
-0.2230957503624289
 20
7.177451848178518
 10
-0.2830439241905527
 20
7.187443210483203
  0
LWPOLYLINE
  5
B14
330
18
100
AcDbEntity
  8
TEXT
100
AcDbPolyline
 90
        2
 70
     0
 43
0.0001332181640625
 10
-0.4362448128624301
 20
7.090860041537891
 10
-0.3762966390343028
 20
7.150808215366017
  0
LWPOLYLINE
  5
B15
330
18
100
AcDbEntity
  8
TEXT
100
AcDbPolyline
 90
        2
 70
     0
 43
0.0001332181640625
 10
-0.4362448128624301
 20
7.177451848178518
 10
-0.3762966390343028
 20
7.187443210483203
  0
LWPOLYLINE
  5
B16
330
18
100
AcDbEntity
  8
TEXT
100
AcDbPolyline
 90
        3
 70
     0
 43
0.0006660908203125
 10
-0.4628884456749276
 20
7.177451848178518
 10
-0.4628884456749276
 20
7.06421640872539
 10
-0.3496530062218053
 20
7.06421640872539
  0
LWPOLYLINE
  5
B17
330
18
100
AcDbEntity
  8
TEXT
100
AcDbPolyline
 90
        3
 70
     0
 43
0.0006660908203125
 10
-0.4362448128624301
 20
7.177451848178518
 10
-0.4362448128624301
 20
7.090860041537891
 10
-0.3496530062218053
 20
7.090860041537891
  0
LWPOLYLINE
  5
B18
330
18
100
AcDbEntity
  8
TEXT
100
AcDbPolyline
 90
        5
 70
     0
 43
0.0001332181640625
 10
-0.3396616439171147
 20
7.137486398959766
 10
-0.3396616439171147
 20
7.150808215366017
 10
-0.3762966390343028
 20
7.150808215366017
 10
-0.3762966390343028
 20
7.187443210483203
 10
-0.3896184554405533
 20
7.187443210483203
  0
LWPOLYLINE
  5
B19
330
18
100
AcDbEntity
  8
TEXT
100
AcDbPolyline
 90
        2
 70
     0
 43
0.0006660908203125
 10
-0.4362448128624301
 20
7.177451848178518
 10
-0.4628884456749276
 20
7.177451848178518
  0
LWPOLYLINE
  5
B1A
330
18
100
AcDbEntity
  8
TEXT
100
AcDbPolyline
 90
        2
 70
     0
 43
0.0001332181640625
 10
-0.3896184554405533
 20
7.187443210483203
 10
-0.4628884456749276
 20
7.177451848178518
  0
LWPOLYLINE
  5
B1B
330
18
100
AcDbEntity
  8
TEXT
100
AcDbPolyline
 90
        2
 70
     0
 43
0.0006660908203125
 10
-0.3496530062218053
 20
7.090860041537891
 10
-0.3496530062218053
 20
7.06421640872539
  0
LWPOLYLINE
  5
B1C
330
18
100
AcDbEntity
  8
TEXT
100
AcDbPolyline
 90
        2
 70
     0
 43
0.0001332181640625
 10
-0.3496530062218053
 20
7.090860041537891
 10
-0.3396616439171147
 20
7.150808215366017
  0
LWPOLYLINE
  5
B1D
330
18
100
AcDbEntity
  8
TEXT
100
AcDbPolyline
 90
        2
 70
     0
 43
0.0001332181640625
 10
-0.3496530062218053
 20
7.06421640872539
 10
-0.3396616439171147
 20
7.137486398959766
  0
LWPOLYLINE
  5
B1E
330
18
100
AcDbEntity
  8
TEXT
100
AcDbPolyline
 90
        2
 70
     0
 43
0.0001332181640625
 10
-0.3096875570030537
 20
7.090860041537891
 10
-0.3196789193077425
 20
7.150808215366017
  0
LWPOLYLINE
  5
B1F
330
18
100
AcDbEntity
  8
TEXT
100
AcDbPolyline
 90
        2
 70
     0
 43
0.0001332181640625
 10
-0.3196789193077425
 20
7.137486398959766
 10
-0.3096875570030537
 20
7.06421640872539
  0
LWPOLYLINE
  5
B20
330
18
100
AcDbEntity
  8
TEXT
100
AcDbPolyline
 90
        2
 70
     0
 43
0.0006660908203125
 10
-0.3096875570030537
 20
7.090860041537891
 10
-0.3096875570030537
 20
7.06421640872539
  0
LWPOLYLINE
  5
B21
330
18
100
AcDbEntity
  8
TEXT
100
AcDbPolyline
 90
        5
 70
     0
 43
0.0001332181640625
 10
-0.2697221077843039
 20
7.187443210483203
 10
-0.2830439241905527
 20
7.187443210483203
 10
-0.2830439241905527
 20
7.150808215366017
 10
-0.3196789193077425
 20
7.150808215366017
 10
-0.3196789193077425
 20
7.137486398959766
  0
LWPOLYLINE
  5
B22
330
18
100
AcDbEntity
  8
TEXT
100
AcDbPolyline
 90
        2
 70
     0
 43
0.0006660908203125
 10
-0.2230957503624289
 20
7.177451848178518
 10
-0.1964521175499278
 20
7.177451848178518
  0
LWPOLYLINE
  5
B23
330
18
100
AcDbEntity
  8
TEXT
100
AcDbPolyline
 90
        3
 70
     0
 43
0.0006660908203125
 10
-0.1964521175499278
 20
7.217417297397266
 10
-0.1964521175499278
 20
7.330652736850393
 10
-0.3096875570030537
 20
7.330652736850393
  0
LWPOLYLINE
  5
B24
330
18
100
AcDbEntity
  8
TEXT
100
AcDbPolyline
 90
        3
 70
     0
 43
0.0006660908203125
 10
-0.2230957503624289
 20
7.217417297397266
 10
-0.2230957503624289
 20
7.304009104037892
 10
-0.3096875570030537
 20
7.304009104037892
  0
LWPOLYLINE
  5
B25
330
18
100
AcDbEntity
  8
TEXT
100
AcDbPolyline
 90
        2
 70
     0
 43
0.0001332181640625
 10
-0.2697221077843039
 20
7.207425935092577
 10
-0.1964521175499278
 20
7.217417297397266
  0
LWPOLYLINE
  5
B26
330
18
100
AcDbEntity
  8
TEXT
100
AcDbPolyline
 90
        2
 70
     0
 43
0.0001332181640625
 10
-0.2230957503624289
 20
7.217417297397266
 10
-0.2830439241905527
 20
7.207425935092577
  0
LWPOLYLINE
  5
B27
330
18
100
AcDbEntity
  8
TEXT
100
AcDbPolyline
 90
        2
 70
     0
 43
0.0001332181640625
 10
-0.2230957503624289
 20
7.304009104037892
 10
-0.2830439241905527
 20
7.244060930209767
  0
LWPOLYLINE
  5
B28
330
18
100
AcDbEntity
  8
TEXT
100
AcDbPolyline
 90
        2
 70
     0
 43
0.0001332181640625
 10
-0.4362448128624301
 20
7.304009104037892
 10
-0.3762966390343045
 20
7.244060930209767
  0
LWPOLYLINE
  5
B29
330
18
100
AcDbEntity
  8
TEXT
100
AcDbPolyline
 90
        2
 70
     0
 43
0.0001332181640625
 10
-0.4362448128624301
 20
7.217417297397266
 10
-0.3762966390343045
 20
7.207425935092577
  0
LWPOLYLINE
  5
B2A
330
18
100
AcDbEntity
  8
TEXT
100
AcDbPolyline
 90
        3
 70
     0
 43
0.0006660908203125
 10
-0.3496530062218053
 20
7.330652736850393
 10
-0.4628884456749276
 20
7.330652736850393
 10
-0.4628884456749276
 20
7.217417297397266
  0
LWPOLYLINE
  5
B2B
330
18
100
AcDbEntity
  8
TEXT
100
AcDbPolyline
 90
        3
 70
     0
 43
0.0006660908203125
 10
-0.3496530062218053
 20
7.304009104037892
 10
-0.4362448128624301
 20
7.304009104037892
 10
-0.4362448128624301
 20
7.217417297397266
  0
LWPOLYLINE
  5
B2C
330
18
100
AcDbEntity
  8
TEXT
100
AcDbPolyline
 90
        5
 70
     0
 43
0.0001332181640625
 10
-0.3896184554405533
 20
7.207425935092577
 10
-0.3762966390343045
 20
7.207425935092577
 10
-0.3762966390343045
 20
7.244060930209767
 10
-0.3396616439171147
 20
7.244060930209767
 10
-0.3396616439171147
 20
7.257382746616014
  0
LWPOLYLINE
  5
B2D
330
18
100
AcDbEntity
  8
TEXT
100
AcDbPolyline
 90
        2
 70
     0
 43
0.0001332181640625
 10
-0.4628884456749276
 20
7.217417297397266
 10
-0.3896184554405533
 20
7.207425935092577
  0
LWPOLYLINE
  5
B2E
330
18
100
AcDbEntity
  8
TEXT
100
AcDbPolyline
 90
        2
 70
     0
 43
0.0006660908203125
 10
-0.4362448128624301
 20
7.217417297397266
 10
-0.4628884456749276
 20
7.217417297397266
  0
LWPOLYLINE
  5
B2F
330
18
100
AcDbEntity
  8
TEXT
100
AcDbPolyline
 90
        2
 70
     0
 43
0.0006660908203125
 10
-0.3496530062218053
 20
7.304009104037892
 10
-0.3496530062218053
 20
7.330652736850393
  0
LWPOLYLINE
  5
B30
330
18
100
AcDbEntity
  8
TEXT
100
AcDbPolyline
 90
        2
 70
     0
 43
0.0001332181640625
 10
-0.3396616439171147
 20
7.257382746616014
 10
-0.3496530062218053
 20
7.330652736850393
  0
LWPOLYLINE
  5
B31
330
18
100
AcDbEntity
  8
TEXT
100
AcDbPolyline
 90
        2
 70
     0
 43
0.0001332181640625
 10
-0.3496530062218053
 20
7.304009104037892
 10
-0.3396616439171147
 20
7.244060930209767
  0
LWPOLYLINE
  5
B32
330
18
100
AcDbEntity
  8
TEXT
100
AcDbPolyline
 90
        5
 70
     0
 43
0.0001332181640625
 10
-0.3196789193077425
 20
7.257382746616014
 10
-0.3196789193077425
 20
7.244060930209767
 10
-0.2830439241905527
 20
7.244060930209767
 10
-0.2830439241905527
 20
7.207425935092577
 10
-0.2697221077843039
 20
7.207425935092577
  0
LWPOLYLINE
  5
B33
330
18
100
AcDbEntity
  8
TEXT
100
AcDbPolyline
 90
        2
 70
     0
 43
0.0006660908203125
 10
-0.3096875570030537
 20
7.304009104037892
 10
-0.3096875570030537
 20
7.330652736850393
  0
LWPOLYLINE
  5
B34
330
18
100
AcDbEntity
  8
TEXT
100
AcDbPolyline
 90
        2
 70
     0
 43
0.0001332181640625
 10
-0.3096875570030537
 20
7.304009104037892
 10
-0.3196789193077425
 20
7.244060930209767
  0
LWPOLYLINE
  5
B35
330
18
100
AcDbEntity
  8
TEXT
100
AcDbPolyline
 90
        2
 70
     0
 43
0.0001332181640625
 10
-0.3096875570030537
 20
7.330652736850393
 10
-0.3196789193077425
 20
7.257382746616014
  0
LWPOLYLINE
  5
B36
330
18
100
AcDbEntity
  8
TEXT
100
AcDbPolyline
 90
        2
 70
     0
 43
0.0006660908203125
 10
-0.2230957503624289
 20
7.217417297397266
 10
-0.1964521175499278
 20
7.217417297397266
  0
LINE
  5
B37
330
18
100
AcDbEntity
  8
TEXT
100
AcDbLine
 10
0.4250280971052592
 20
7.084138209966892
 30
0.0
 11
0.5223278031987038
 21
7.24848842090216
 31
0.0
  0
LINE
  5
B38
330
18
100
AcDbEntity
  8
TEXT
100
AcDbLine
 10
0.4346283341022135
 20
7.229780740737269
 30
0.0
 11
0.3759980130702756
 21
7.33065273685039
 31
0.0
  0
LINE
  5
B39
330
18
100
AcDbEntity
  8
TEXT
100
AcDbLine
 10
0.2405676733270683
 20
7.266376042193624
 30
0.0
 11
0.2405676733270683
 21
7.123972095199929
 31
0.0
  0
LWPOLYLINE
  5
B3A
330
18
100
AcDbEntity
  8
TEXT
100
AcDbPolyline
 90
        6
 70
     1
 43
0.0
 10
0.3369780843823236
 20
7.266376042193624
 10
0.3066614901621154
 20
7.266376042193624
 10
0.3066614901621154
 20
7.14326504413873
 42
0.407328721240804
 10
0.3182051413235918
 20
7.131446129462344
 10
0.3788268403683226
 20
7.131446129462344
 10
0.3962921807756405
 20
7.164258358505823
  0
ARC
  5
B3B
330
18
100
AcDbEntity
  8
TEXT
100
AcDbCircle
 10
0.0684246891838498
 20
7.248565277403888
 30
0.0
 40
0.0820874594465043
100
AcDbArc
 50
90.0
 51
270.0
  0
ARC
  5
B3C
330
18
100
AcDbEntity
  8
TEXT
100
AcDbCircle
 10
0.139262155542399
 20
7.147375512222436
 30
0.0
 40
0.0831958083605586
100
AcDbArc
 50
270.0
 51
90.0
  0
LINE
  5
B3D
330
18
100
AcDbEntity
  8
TEXT
100
AcDbLine
 10
0.0684246891838498
 20
7.166477817957383
 30
0.0
 11
0.1442025294486786
 21
7.166477817957383
 31
0.0
  0
LINE
  5
B3E
330
18
100
AcDbEntity
  8
TEXT
100
AcDbLine
 10
-0.0136627702626537
 20
7.064179703861879
 30
0.0
 11
0.139262155542399
 21
7.064179703861879
 31
0.0
  0
LINE
  5
B3F
330
18
100
AcDbEntity
  8
TEXT
100
AcDbLine
 10
0.1442025294486786
 20
7.132536710195318
 30
0.0
 11
-0.0136627702626555
 21
7.132536710195318
 31
0.0
  0
LINE
  5
B40
330
18
100
AcDbEntity
  8
TEXT
100
AcDbLine
 10
-0.0136627702626555
 20
7.132536710195318
 30
0.0
 11
-0.0136627702626537
 21
7.064179703861879
 31
0.0
  0
ARC
  5
B41
330
18
100
AcDbEntity
  8
TEXT
100
AcDbCircle
 10
0.1442025294486786
 20
7.149507264076352
 30
0.0
 40
0.0169705538810321
100
AcDbArc
 50
270.0
 51
90.0
  0
LINE
  5
B42
330
18
100
AcDbEntity
  8
TEXT
100
AcDbLine
 10
0.2944542808071739
 20
7.064179703861879
 30
0.0
 11
0.3910945318821683
 21
7.064450342960161
 31
0.0
  0
ARC
  5
B43
330
18
100
AcDbEntity
  8
TEXT
100
AcDbCircle
 10
0.3006836913008204
 20
7.123972095199929
 30
0.0
 40
0.0601160179737537
100
AcDbArc
 50
180.0000000000003
 51
264.0521544866073
  0
ARC
  5
B44
330
18
100
AcDbEntity
  8
TEXT
100
AcDbCircle
 10
0.3909845371930451
 20
7.103727426135574
 30
0.0
 40
0.0392772371940762
100
AcDbArc
 50
270.1604552698595
 51
330.0831797321295
  0
LINE
  5
B45
330
18
100
AcDbEntity
  8
TEXT
100
AcDbLine
 10
0.0736620192980979
 20
7.266376042193624
 30
0.0
 11
0.2405676733270683
 21
7.266376042193624
 31
0.0
  0
LINE
  5
B46
330
18
100
AcDbEntity
  8
TEXT
100
AcDbLine
 10
0.2441564420823612
 20
7.33065273685039
 30
0.0
 11
0.0684246891838498
 21
7.33065273685039
 31
0.0
  0
LINE
  5
B47
330
18
100
AcDbEntity
  8
TEXT
100
AcDbLine
 10
0.139262155542399
 20
7.230571320582996
 30
0.0
 11
0.0736620192980979
 21
7.230571320582996
 31
0.0
  0
ARC
  5
B48
330
18
100
AcDbEntity
  8
TEXT
100
AcDbCircle
 10
0.0736620192980979
 20
7.248473681388312
 30
0.0
 40
0.017902360805315
100
AcDbArc
 50
90.0
 51
270.0
  0
LINE
  5
B49
330
18
100
AcDbEntity
  8
TEXT
100
AcDbLine
 10
0.3759980130702756
 20
7.33065273685039
 30
0.0
 11
0.3041990469263682
 21
7.33065273685039
 31
0.0
  0
LINE
  5
B4A
330
18
100
AcDbEntity
  8
TEXT
100
AcDbLine
 10
0.3041990469263682
 20
7.33065273685039
 30
0.0
 11
0.3041990469263682
 21
7.365040654444528
 31
0.0
  0
LINE
  5
B4B
330
18
100
AcDbEntity
  8
TEXT
100
AcDbLine
 10
0.2441564420823612
 20
7.365040654444528
 30
0.0
 11
0.2441564420823612
 21
7.33065273685039
 31
0.0
  0
LINE
  5
B4C
330
18
100
AcDbEntity
  8
TEXT
100
AcDbLine
 10
0.3041990469263682
 20
7.365040654444528
 30
0.0
 11
0.2441564420823612
 21
7.365040654444528
 31
0.0
  0
LINE
  5
B4D
330
18
100
AcDbEntity
  8
TEXT
100
AcDbLine
 10
0.8138975452345507
 20
7.064179703861879
 30
0.0
 11
0.8138975452345507
 21
7.266376042193624
 31
0.0
  0
LINE
  5
B4E
330
18
100
AcDbEntity
  8
TEXT
100
AcDbLine
 10
0.7468394984527107
 20
7.258822253027514
 30
0.0
 11
0.7468394984527107
 21
7.064179703861879
 31
0.0
  0
LINE
  5
B4F
330
18
100
AcDbEntity
  8
TEXT
100
AcDbLine
 10
0.5903075222678203
 20
7.146567541964878
 30
0.0
 11
0.5903075222678203
 21
7.3986642145892
 31
0.0
  0
LINE
  5
B50
330
18
100
AcDbEntity
  8
TEXT
100
AcDbLine
 10
0.6226193764054804
 20
7.33065273685039
 30
0.0
 11
0.6226193764054804
 21
7.129788530117981
 31
0.0
  0
LINE
  5
B51
330
18
100
AcDbEntity
  8
TEXT
100
AcDbLine
 10
0.6894504294634496
 20
7.064179703861879
 30
0.0
 11
0.6894504294634496
 21
7.266376042193624
 31
0.0
  0
LINE
  5
B52
330
18
100
AcDbEntity
  8
TEXT
100
AcDbLine
 10
0.5223278031987038
 20
7.24848842090216
 30
0.0
 11
0.5223278031987038
 21
7.115731046076803
 31
0.0
  0
LINE
  5
B53
330
18
100
AcDbEntity
  8
TEXT
100
AcDbLine
 10
0.591447095764015
 20
7.064179703861879
 30
0.0
 11
0.6894504294634496
 21
7.064179703861879
 31
0.0
  0
LWPOLYLINE
  5
B54
330
18
100
AcDbEntity
  8
TEXT
100
AcDbPolyline
 90
        2
 70
     0
 43
0.0
 10
0.5223278031987029
 20
7.115731046076807
 42
0.3318488747599744
 10
0.5914470957640159
 20
7.064179703861879
 42
-6.868794160588311
  0
ARC
  5
B55
330
18
100
AcDbEntity
  8
TEXT
100
AcDbCircle
 10
0.6056257395208782
 20
7.145170336361407
 30
0.0
 40
0.0153818062434269
100
AcDbArc
 50
174.7883570302258
 51
270.0
  0
LINE
  5
B56
330
18
100
AcDbEntity
  8
TEXT
100
AcDbLine
 10
0.6226193764054804
 20
7.129788530117981
 30
0.0
 11
0.6056257395208791
 21
7.129788530117981
 31
0.0
  0
LINE
  5
B57
330
18
100
AcDbEntity
  8
TEXT
100
AcDbLine
 10
0.7468394984527107
 20
7.064179703861879
 30
0.0
 11
0.8138975452345507
 21
7.064179703861879
 31
0.0
  0
LINE
  5
B58
330
18
100
AcDbEntity
  8
TEXT
100
AcDbLine
 10
0.7566374323366168
 20
7.33065273685039
 30
0.0
 11
0.6226193764054804
 21
7.33065273685039
 31
0.0
  0
LINE
  5
B59
330
18
100
AcDbEntity
  8
TEXT
100
AcDbLine
 10
0.5234988097014553
 20
7.3986642145892
 30
0.0
 11
0.5234988097014553
 21
7.33065273685039
 31
0.0
  0
LINE
  5
B5A
330
18
100
AcDbEntity
  8
TEXT
100
AcDbLine
 10
0.5234988097014553
 20
7.33065273685039
 30
0.0
 11
0.493376896908079
 21
7.33065273685039
 31
0.0
  0
LINE
  5
B5B
330
18
100
AcDbEntity
  8
TEXT
100
AcDbLine
 10
0.493376896908079
 20
7.33065273685039
 30
0.0
 11
0.4346283341022135
 21
7.229780740737269
 31
0.0
  0
LINE
  5
B5C
330
18
100
AcDbEntity
  8
TEXT
100
AcDbLine
 10
0.5903075222678203
 20
7.3986642145892
 30
0.0
 11
0.5234988097014553
 21
7.3986642145892
 31
0.0
  0
LWPOLYLINE
  5
B5D
330
18
100
AcDbEntity
  8
TEXT
100
AcDbPolyline
 90
        2
 70
     0
 43
0.0
 10
0.7566374323366177
 20
7.330652736850393
 42
-0.3328679258950098
 10
0.7924191230497791
 20
7.303485240089497
 42
6.772930709997214
  0
LINE
  5
B5E
330
18
100
AcDbEntity
  8
TEXT
100
AcDbLine
 10
0.6894504294634496
 20
7.266376042193624
 30
0.0
 11
0.7392857092865972
 21
7.266376042193624
 31
0.0
  0
LWPOLYLINE
  5
B5F
330
18
100
AcDbEntity
  8
TEXT
100
AcDbPolyline
 90
        2
 70
     0
 43
0.0
 10
0.7392857092865964
 20
7.266376042193624
 42
-0.4142135623731017
 10
0.7468394984527098
 20
7.258822253027514
 42
-0.9999999999999998
  0
LWPOLYLINE
  5
B60
330
18
100
AcDbEntity
  8
TEXT
100
AcDbPolyline
 90
        2
 70
     0
 43
0.0
 10
0.8680311421555
 20
7.266376042193624
 42
-0.4142135623731017
 10
0.8755849313216135
 20
7.258822253027514
 42
-0.9999999999999998
  0
LINE
  5
B61
330
18
100
AcDbEntity
  8
TEXT
100
AcDbLine
 10
0.8138975452345507
 20
7.266376042193624
 30
0.0
 11
0.8680311421555009
 21
7.266376042193624
 31
0.0
  0
TEXT
  5
B62
330
18
100
AcDbEntity
  8
TEXT
100
AcDbText
 10
1.69306524639238
 20
7.063807085541083
 30
0.0
 40
0.0522247191011236
  1
Phone  1-800-328-2495
 41
1.272321428571429
 72
     5
 11
3.021997830662044
 21
7.063807085541083
 31
0.0
100
AcDbText
  0
TEXT
  5
B63
330
18
100
AcDbEntity
  8
TEXT
100
AcDbText
 10
1.69306524639238
 20
7.343582366439959
 30
0.0
 40
0.0522247191011236
  1
Stylmark  Incorporated
 41
1.221428571428571
 72
     5
 11
3.021997830662044
 21
7.343582366439959
 31
0.0
100
AcDbText
  0
TEXT
  5
B64
330
18
100
AcDbEntity
  8
TEXT
100
AcDbText
 10
1.69306524639238
 20
7.250323939473667
 30
0.0
 40
0.0522247191011236
  1
6536 Main St. N.E. * P.O. Box 32008
 41
0.8388932496075353
 72
     5
 11
3.021997830662044
 21
7.250323939473667
 31
0.0
100
AcDbText
  0
TEXT
  5
B65
330
18
100
AcDbEntity
  8
TEXT
100
AcDbText
 10
1.69306524639238
 20
7.157065512507375
 30
0.0
 40
0.0522247191011236
  1
Minneapolis, MN 55432-0008
 41
1.11444212721585
 72
     5
 11
3.021997830662044
 21
7.157065512507375
 31
0.0
100
AcDbText
  0
LINE
  5
B66
330
18
100
AcDbEntity
  8
TEXT
100
AcDbLine
 10
1.387976559609458
 20
7.39611694261799
 30
0.0
 11
1.319661681060185
 21
7.39611694261799
 31
0.0
  0
LINE
  5
B67
330
18
100
AcDbEntity
  8
TEXT
100
AcDbLine
 10
1.324141568386685
 20
7.064179703861879
 30
0.0
 11
1.388519752705305
 21
7.064179703861879
 31
0.0
  0
LINE
  5
B68
330
18
100
AcDbEntity
  8
TEXT
100
AcDbLine
 10
1.324141568386679
 20
7.266376042193624
 30
0.0
 11
1.324141568386685
 21
7.064179703861879
 31
0.0
  0
LINE
  5
B69
330
18
100
AcDbEntity
  8
TEXT
100
AcDbLine
 10
1.222587711811462
 20
7.064179703861879
 30
0.0
 11
1.222587711811457
 21
7.241470209293347
 31
0.0
  0
LWPOLYLINE
  5
B6A
330
18
100
AcDbEntity
  8
TEXT
100
AcDbPolyline
 90
        2
 70
     0
 43
0.0
 10
1.164232497976128
 20
7.107670648812317
 42
-0.2901071551932486
 10
1.121156565108483
 20
7.064179703861879
 42
-5.328517124445184
  0
LWPOLYLINE
  5
B6B
330
18
100
AcDbEntity
  8
TEXT
100
AcDbPolyline
 90
        4
 70
     1
 43
0.0
 10
1.101034100038591
 20
7.167143681845904
 10
1.012373781378732
 20
7.167143681845904
 42
0.9999999999999998
 10
1.012373781378732
 20
7.124745141342043
 10
1.101034100038591
 20
7.124745141342043
 42
1.0
  0
LWPOLYLINE
  5
B6C
330
18
100
AcDbEntity
  8
TEXT
100
AcDbPolyline
 90
        2
 70
     0
 43
0.0
 10
0.9871391474771069
 20
7.064179703861879
 10
1.121156565108483
 20
7.064179703861879
 42
0.9999999999999998
  0
LWPOLYLINE
  5
B6D
330
18
100
AcDbEntity
  8
TEXT
100
AcDbPolyline
 90
        2
 70
     0
 43
0.0
 10
0.9440632146094714
 20
7.107670648812317
 42
0.2901071551932823
 10
0.9871391474771069
 20
7.064179703861879
 42
5.328517124445801
  0
LWPOLYLINE
  5
B6E
330
18
100
AcDbEntity
  8
TEXT
100
AcDbPolyline
 90
        2
 70
     0
 43
0.0
 10
1.164232497976128
 20
7.107670648812317
 10
1.164232497976128
 20
7.064179703861879
  0
LWPOLYLINE
  5
B6F
330
18
100
AcDbEntity
  8
TEXT
100
AcDbPolyline
 90
        2
 70
     0
 43
0.0
 10
1.164232497976128
 20
7.064179703861879
 10
1.222587711811462
 20
7.064179703861879
  0
LINE
  5
B70
330
18
100
AcDbEntity
  8
TEXT
100
AcDbLine
 10
1.160292820671089
 20
7.225440758296962
 30
0.0
 11
1.116542049489187
 21
7.307691034293108
 31
0.0
  0
LINE
  5
B71
330
18
100
AcDbEntity
  8
TEXT
100
AcDbLine
 10
1.052301983451569
 20
7.266376042193624
 30
0.0
 11
0.9450957100642805
 21
7.266376042193624
 31
0.0
  0
LINE
  5
B72
330
18
100
AcDbEntity
  8
TEXT
100
AcDbLine
 10
1.005815068972307
 20
7.229101068731492
 30
0.0
 11
1.088103058755691
 21
7.229101068731492
 31
0.0
  0
LINE
  5
B73
330
18
100
AcDbEntity
  8
TEXT
100
AcDbLine
 10
1.081332881796048
 20
7.33065273685039
 30
0.0
 11
0.9465009725789892
 21
7.33065273685039
 31
0.0
  0
LINE
  5
B74
330
18
100
AcDbEntity
  8
TEXT
100
AcDbLine
 10
0.9450957100642805
 20
7.266376042193624
 30
0.0
 11
0.9450957100642805
 21
7.191323636119418
 31
0.0
  0
ARC
  5
B75
330
18
100
AcDbEntity
  8
TEXT
100
AcDbCircle
 10
1.005815068972307
 20
7.161415487587373
 30
0.0
 40
0.0676855811441166
100
AcDbArc
 50
90.0
 51
153.7768192527749
  0
LINE
  5
B76
330
18
100
AcDbEntity
  8
TEXT
100
AcDbLine
 10
0.9465009725789892
 20
7.33065273685039
 30
0.0
 11
0.9465009725789892
 21
7.302330191080746
 31
0.0
  0
LWPOLYLINE
  5
B77
330
18
100
AcDbEntity
  8
TEXT
100
AcDbPolyline
 90
        2
 70
     0
 43
0.0
 10
0.9107192818658234
 20
7.330652736850393
 42
-0.3277054968067132
 10
0.9465009725789883
 20
7.302330191080749
 42
6.667889725900311
  0
ARC
  5
B78
330
18
100
AcDbEntity
  8
TEXT
100
AcDbCircle
 10
1.052301983451569
 20
7.238016667193627
 30
0.0
 40
0.028359375
100
AcDbArc
 50
25.78218179591245
 51
90.0
  0
LINE
  5
B79
330
18
100
AcDbEntity
  8
TEXT
100
AcDbLine
 10
1.088103058755691
 20
7.229101068731492
 30
0.0
 11
1.077838298342126
 21
7.250351608304186
 31
0.0
  0
ARC
  5
B7A
330
18
100
AcDbEntity
  8
TEXT
100
AcDbCircle
 10
1.079305942018979
 20
7.289069169729487
 30
0.0
 40
0.0416329381542859
100
AcDbArc
 50
26.56974201007528
 51
87.20939649401342
  0
LINE
  5
B7B
330
18
100
AcDbEntity
  8
TEXT
100
AcDbLine
 10
1.319661681060185
 20
7.39611694261799
 30
0.0
 11
1.319661681060179
 21
7.33065273685039
 31
0.0
  0
LINE
  5
B7C
330
18
100
AcDbEntity
  8
TEXT
100
AcDbLine
 10
1.319661681060179
 20
7.33065273685039
 30
0.0
 11
1.252161963410663
 21
7.33065273685039
 31
0.0
  0
LINE
  5
B7D
330
18
100
AcDbEntity
  8
TEXT
100
AcDbLine
 10
1.247493587094122
 20
7.266376042193624
 30
0.0
 11
1.324141568386679
 21
7.266376042193624
 31
0.0
  0
LINE
  5
B7E
330
18
100
AcDbEntity
  8
TEXT
100
AcDbLine
 10
1.22418972697059
 20
7.303105086989515
 30
0.0
 11
1.22418972697059
 21
7.33065273685039
 31
0.0
  0
ARC
  5
B7F
330
18
100
AcDbEntity
  8
TEXT
100
AcDbCircle
 10
1.255382544033698
 20
7.299407009568125
 30
0.0
 40
0.0314112657011332
100
AcDbArc
 50
95.88484768694724
 51
173.2388340632136
  0
ARC
  5
B80
330
18
100
AcDbEntity
  8
TEXT
100
AcDbCircle
 10
1.247493587094121
 20
7.241470166910962
 30
0.0
 40
0.0249058752826653
100
AcDbArc
 50
89.99971217465335
 51
179.9999999999985
  0
LINE
  5
B81
330
18
100
AcDbEntity
  8
TEXT
100
AcDbLine
 10
1.160292820671089
 20
7.33065273685039
 30
0.0
 11
1.160292820671089
 21
7.225440758296962
 31
0.0
  0
LINE
  5
B82
330
18
100
AcDbEntity
  8
TEXT
100
AcDbLine
 10
1.22418972697059
 20
7.33065273685039
 30
0.0
 11
1.160292820671089
 21
7.33065273685039
 31
0.0
  0
LINE
  5
B83
330
18
100
AcDbEntity
  8
TEXT
100
AcDbLine
 10
1.388519752705305
 20
7.195759272338059
 30
0.0
 11
1.46442328591677
 21
7.064179703861879
 31
0.0
  0
LINE
  5
B84
330
18
100
AcDbEntity
  8
TEXT
100
AcDbLine
 10
1.388519752705305
 20
7.064179703861879
 30
0.0
 11
1.388519752705305
 21
7.195759272338059
 31
0.0
  0
LINE
  5
B85
330
18
100
AcDbEntity
  8
TEXT
100
AcDbLine
 10
1.541001658292976
 20
7.064179703861879
 30
0.0
 11
1.445509434929365
 21
7.220759493909416
 31
0.0
  0
LINE
  5
B86
330
18
100
AcDbEntity
  8
TEXT
100
AcDbLine
 10
1.46442328591677
 20
7.064179703861879
 30
0.0
 11
1.541001658292976
 21
7.064179703861879
 31
0.0
  0
LINE
  5
B87
330
18
100
AcDbEntity
  8
TEXT
100
AcDbLine
 10
1.387976559609458
 20
7.254787410438852
 30
0.0
 11
1.387976559609458
 21
7.39611694261799
 31
0.0
  0
LINE
  5
B88
330
18
100
AcDbEntity
  8
TEXT
100
AcDbLine
 10
1.510066550895071
 20
7.33065273685039
 30
0.0
 11
1.435074718165444
 21
7.33065273685039
 31
0.0
  0
LINE
  5
B89
330
18
100
AcDbEntity
  8
TEXT
100
AcDbLine
 10
1.445509434929365
 20
7.220759493909416
 30
0.0
 11
1.510066550895071
 21
7.33065273685039
 31
0.0
  0
LINE
  5
B8A
330
18
100
AcDbEntity
  8
TEXT
100
AcDbLine
 10
1.435074718165442
 20
7.33065273685039
 30
0.0
 11
1.387976559609458
 21
7.254787410438852
 31
0.0
  0
ENDSEC
  0
SECTION
  2
OBJECTS
  0
DICTIONARY
  5
C
330
0
100
AcDbDictionary
  3
ACAD_GROUP
350
D
  3
ACAD_LAYOUT
350
B8F
  3
ACAD_MLINESTYLE
350
E
  3
ACAD_PLOTSETTINGS
350
B90
  3
ACAD_PLOTSTYLENAME
350
B8D
  3
ACDBHEADERROUNDTRIPXREC
350
B9A
  3
ACDBVARIABLEDICTIONARY
350
B97
  0
DICTIONARY
  5
BBC
330
18
100
AcDbDictionary
280
     1
  3
ACAD_LAYOUTSELFREF
360
BBD
  0
DICTIONARY
  5
BBA
330
15
100
AcDbDictionary
280
     1
  3
ACAD_LAYOUTSELFREF
360
BBB
  0
DICTIONARY
  5
D
102
{ACAD_REACTORS
330
C
102
}
330
C
100
AcDbDictionary
  3
*A1
350
293
  3
*A2
350
44C
  3
*A3
350
6E4
  3
*A4
350
8C1
  3
*A5
350
A7A
  0
DICTIONARY
  5
B8F
102
{ACAD_REACTORS
330
C
102
}
330
C
100
AcDbDictionary
  0
DICTIONARY
  5
E
102
{ACAD_REACTORS
330
C
102
}
330
C
100
AcDbDictionary
  3
STANDARD
350
1B
  0
DICTIONARY
  5
B90
102
{ACAD_REACTORS
330
C
102
}
330
C
100
AcDbDictionary
  0
ACDBDICTIONARYWDFLT
  5
B8D
102
{ACAD_REACTORS
330
C
102
}
330
C
100
AcDbDictionary
281
     1
  3
Normal
350
B8E
100
AcDbDictionaryWithDefault
340
B8E
  0
DICTIONARY
  5
B9A
102
{ACAD_REACTORS
330
C
102
}
330
C
100
AcDbDictionary
  3
CEPSNTYPE
350
BA4
  3
FINGERPRINTGUID
350
BA5
  3
HYPERLINKBASE
350
B9D
  3
INSUNITS
350
BA3
  3
LAYOUTDICT
350
B9F
  3
LWETCUNION
350
BA2
  3
PLOTSETDICT
350
BA0
  3
PLOTSTYLNAMDICT
350
BA1
  3
PSVPSCALE
350
BA7
  3
PUCSBASE
350
BAA
  3
PUCSORGBACK
350
BB0
  3
PUCSORGBOTTOM
350
BAC
  3
PUCSORGFRONT
350
BAF
  3
PUCSORGLEFT
350
BAD
  3
PUCSORGRIGHT
350
BAE
  3
PUCSORGTOP
350
BAB
  3
PUCSORTHOREF
350
BA8
  3
PUCSORTHOVIEW
350
BA9
  3
STYLESHEET
350
B9E
  3
TSTACKALIGN
350
B9B
  3
TSTACKSIZE
350
B9C
  3
UCSBASE
350
BB3
  3
UCSORGBACK
350
BB9
  3
UCSORGBOTTOM
350
BB5
  3
UCSORGFRONT
350
BB8
  3
UCSORGLEFT
350
BB6
  3
UCSORGRIGHT
350
BB7
  3
UCSORGTOP
350
BB4
  3
UCSORTHOREF
350
BB1
  3
UCSORTHOVIEW
350
BB2
  3
VERSIONGUID
350
BA6
  0
DICTIONARY
  5
B97
102
{ACAD_REACTORS
330
C
102
}
330
C
100
AcDbDictionary
  3
DIMASSOC
350
B98
  0
XRECORD
  5
BBD
102
{ACAD_REACTORS
330
BBC
102
}
330
BBC
100
AcDbXrecord
340
18
  0
XRECORD
  5
BBB
102
{ACAD_REACTORS
330
BBA
102
}
330
BBA
100
AcDbXrecord
340
15
  0
GROUP
  5
293
102
{ACAD_REACTORS
330
D
102
}
330
D
100
AcDbGroup
300
BORDER FRAME 10-1-95
 70
     3
 71
     1
  0
GROUP
  5
44C
102
{ACAD_REACTORS
330
D
102
}
330
D
100
AcDbGroup
300

 70
     1
 71
     1
  0
GROUP
  5
6E4
102
{ACAD_REACTORS
330
D
102
}
330
D
100
AcDbGroup
300

 70
     1
 71
     1
  0
GROUP
  5
8C1
102
{ACAD_REACTORS
330
D
102
}
330
D
100
AcDbGroup
300
BORDER FRAME 10-1-95
 70
     3
 71
     1
  0
GROUP
  5
A7A
102
{ACAD_REACTORS
330
D
102
}
330
D
100
AcDbGroup
300

 70
     1
 71
     1
  0
MLINESTYLE
  5
1B
102
{ACAD_REACTORS
330
E
102
}
330
E
100
AcDbMlineStyle
  2
STANDARD
 70
     0
  3

 62
     0
 51
90.0
 52
90.0
 71
     2
 49
0.5
 62
   256
  6
BYLAYER
 49
-0.5
 62
   256
  6
BYLAYER
  0
ACDBPLACEHOLDER
  5
B8E
102
{ACAD_REACTORS
330
B8D
102
}
330
B8D
100
AcDbPlaceHolder
280
     0
  0
XRECORD
  5
BA4
102
{ACAD_REACTORS
330
B9A
102
}
330
B9A
100
AcDbXrecord
 90
        0
  0
XRECORD
  5
BA5
102
{ACAD_REACTORS
330
B9A
102
}
330
B9A
100
AcDbXrecord
  1
{CE534400-8DB9-11D6-88E6-0090279574E7}
  0
XRECORD
  5
B9D
102
{ACAD_REACTORS
330
B9A
102
}
330
B9A
100
AcDbXrecord
  1

  0
XRECORD
  5
BA3
102
{ACAD_REACTORS
330
B9A
102
}
330
B9A
100
AcDbXrecord
 90
        0
  0
XRECORD
  5
B9F
102
{ACAD_REACTORS
330
B9A
102
}
330
B9A
100
AcDbXrecord
340
B8F
  0
XRECORD
  5
BA2
102
{ACAD_REACTORS
330
B9A
102
}
330
B9A
100
AcDbXrecord
 90
    14877
  0
XRECORD
  5
BA0
102
{ACAD_REACTORS
330
B9A
102
}
330
B9A
100
AcDbXrecord
340
B90
  0
XRECORD
  5
BA1
102
{ACAD_REACTORS
330
B9A
102
}
330
B9A
100
AcDbXrecord
340
B8D
  0
XRECORD
  5
BA7
102
{ACAD_REACTORS
330
B9A
102
}
330
B9A
100
AcDbXrecord
 40
0.0
  0
XRECORD
  5
BAA
102
{ACAD_REACTORS
330
B9A
102
}
330
B9A
100
AcDbXrecord
340
0
  0
XRECORD
  5
BB0
102
{ACAD_REACTORS
330
B9A
102
}
330
B9A
100
AcDbXrecord
 10
0.0
 20
0.0
 30
0.0
  0
XRECORD
  5
BAC
102
{ACAD_REACTORS
330
B9A
102
}
330
B9A
100
AcDbXrecord
 10
0.0
 20
0.0
 30
0.0
  0
XRECORD
  5
BAF
102
{ACAD_REACTORS
330
B9A
102
}
330
B9A
100
AcDbXrecord
 10
0.0
 20
0.0
 30
0.0
  0
XRECORD
  5
BAD
102
{ACAD_REACTORS
330
B9A
102
}
330
B9A
100
AcDbXrecord
 10
0.0
 20
0.0
 30
0.0
  0
XRECORD
  5
BAE
102
{ACAD_REACTORS
330
B9A
102
}
330
B9A
100
AcDbXrecord
 10
0.0
 20
0.0
 30
0.0
  0
XRECORD
  5
BAB
102
{ACAD_REACTORS
330
B9A
102
}
330
B9A
100
AcDbXrecord
 10
0.0
 20
0.0
 30
0.0
  0
XRECORD
  5
BA8
102
{ACAD_REACTORS
330
B9A
102
}
330
B9A
100
AcDbXrecord
340
0
  0
XRECORD
  5
BA9
102
{ACAD_REACTORS
330
B9A
102
}
330
B9A
100
AcDbXrecord
 70
     0
  0
XRECORD
  5
B9E
102
{ACAD_REACTORS
330
B9A
102
}
330
B9A
100
AcDbXrecord
  1

  0
XRECORD
  5
B9B
102
{ACAD_REACTORS
330
B9A
102
}
330
B9A
100
AcDbXrecord
 90
        1
  0
XRECORD
  5
B9C
102
{ACAD_REACTORS
330
B9A
102
}
330
B9A
100
AcDbXrecord
 90
       70
  0
XRECORD
  5
BB3
102
{ACAD_REACTORS
330
B9A
102
}
330
B9A
100
AcDbXrecord
340
0
  0
XRECORD
  5
BB9
102
{ACAD_REACTORS
330
B9A
102
}
330
B9A
100
AcDbXrecord
 10
0.0
 20
0.0
 30
0.0
  0
XRECORD
  5
BB5
102
{ACAD_REACTORS
330
B9A
102
}
330
B9A
100
AcDbXrecord
 10
0.0
 20
0.0
 30
0.0
  0
XRECORD
  5
BB8
102
{ACAD_REACTORS
330
B9A
102
}
330
B9A
100
AcDbXrecord
 10
0.0
 20
0.0
 30
0.0
  0
XRECORD
  5
BB6
102
{ACAD_REACTORS
330
B9A
102
}
330
B9A
100
AcDbXrecord
 10
0.0
 20
0.0
 30
0.0
  0
XRECORD
  5
BB7
102
{ACAD_REACTORS
330
B9A
102
}
330
B9A
100
AcDbXrecord
 10
0.0
 20
0.0
 30
0.0
  0
XRECORD
  5
BB4
102
{ACAD_REACTORS
330
B9A
102
}
330
B9A
100
AcDbXrecord
 10
0.0
 20
0.0
 30
0.0
  0
XRECORD
  5
BB1
102
{ACAD_REACTORS
330
B9A
102
}
330
B9A
100
AcDbXrecord
340
0
  0
XRECORD
  5
BB2
102
{ACAD_REACTORS
330
B9A
102
}
330
B9A
100
AcDbXrecord
 70
     0
  0
XRECORD
  5
BA6
102
{ACAD_REACTORS
330
B9A
102
}
330
B9A
100
AcDbXrecord
  1
{CE534402-8DB9-11D6-88E6-0090279574E7}
  0
DICTIONARYVAR
  5
B98
102
{ACAD_REACTORS
330
B97
102
}
330
B97
100
DictionaryVariables
280
     0
  1
1
  0
ENDSEC
  0
EOF
