  0
SECTION
  2
HEADER
  9
$ACADVER
  1
AC1014
  9
$ACADMAINTVER
 70
     9
  9
$DWGCODEPAGE
  3
ANSI_1252
  9
$INSBASE
 10
0.0
 20
0.0
 30
0.0
  9
$EXTMIN
 10
9.687612105073464
 20
1.302339003717972
 30
0.0
  9
$EXTMAX
 10
13.17283142682061
 20
4.290850368445841
 30
0.0
  9
$LIMMIN
 10
0.0
 20
0.0
  9
$LIMMAX
 10
18.0
 20
12.0
  9
$ORTHOMODE
 70
     1
  9
$REGENMODE
 70
     1
  9
$FILLMODE
 70
     1
  9
$QTEXTMODE
 70
     0
  9
$MIRRTEXT
 70
     0
  9
$DRAGMODE
 70
     2
  9
$LTSCALE
 40
1.0
  9
$OSMODE
 70
    39
  9
$ATTMODE
 70
     1
  9
$TEXTSIZE
 40
0.125
  9
$TRACEWID
 40
0.05
  9
$TEXTSTYLE
  7
ROMANS
  9
$CLAYER
  8
TEXT
  9
$CELTYPE
  6
BYLAYER
  9
$CECOLOR
 62
   256
  9
$CELTSCALE
 40
1.0
  9
$DELOBJ
 70
     1
  9
$DISPSILH
 70
     1
  9
$DIMSCALE
 40
1.0
  9
$DIMASZ
 40
0.125
  9
$DIMEXO
 40
0.125
  9
$DIMDLI
 40
0.375
  9
$DIMRND
 40
0.0
  9
$DIMDLE
 40
0.0
  9
$DIMEXE
 40
0.125
  9
$DIMTP
 40
0.0
  9
$DIMTM
 40
0.0
  9
$DIMTXT
 40
0.125
  9
$DIMCEN
 40
-0.125
  9
$DIMTSZ
 40
0.0
  9
$DIMTOL
 70
     0
  9
$DIMLIM
 70
     0
  9
$DIMTIH
 70
     1
  9
$DIMTOH
 70
     1
  9
$DIMSE1
 70
     0
  9
$DIMSE2
 70
     0
  9
$DIMTAD
 70
     0
  9
$DIMZIN
 70
     4
  9
$DIMBLK
  1

  9
$DIMASO
 70
     1
  9
$DIMSHO
 70
     1
  9
$DIMPOST
  1

  9
$DIMAPOST
  1

  9
$DIMALT
 70
     0
  9
$DIMALTD
 70
     2
  9
$DIMALTF
 40
25.4
  9
$DIMLFAC
 40
0.5
  9
$DIMTOFL
 70
     0
  9
$DIMTVP
 40
0.0
  9
$DIMTIX
 70
     0
  9
$DIMSOXD
 70
     0
  9
$DIMSAH
 70
     0
  9
$DIMBLK1
  1

  9
$DIMBLK2
  1

  9
$DIMSTYLE
  2
STANDARD
  9
$DIMCLRD
 70
     0
  9
$DIMCLRE
 70
     0
  9
$DIMCLRT
 70
     0
  9
$DIMTFAC
 40
1.0
  9
$DIMGAP
 40
0.09
  9
$DIMJUST
 70
     0
  9
$DIMSD1
 70
     0
  9
$DIMSD2
 70
     0
  9
$DIMTOLJ
 70
     1
  9
$DIMTZIN
 70
     0
  9
$DIMALTZ
 70
     0
  9
$DIMALTTZ
 70
     0
  9
$DIMFIT
 70
     3
  9
$DIMUPT
 70
     0
  9
$DIMUNIT
 70
     2
  9
$DIMDEC
 70
     3
  9
$DIMTDEC
 70
     4
  9
$DIMALTU
 70
     2
  9
$DIMALTTD
 70
     2
  9
$DIMTXSTY
  7
ROMANS
  9
$DIMAUNIT
 70
     0
  9
$LUNITS
 70
     2
  9
$LUPREC
 70
     3
  9
$SKETCHINC
 40
0.1
  9
$FILLETRAD
 40
0.3
  9
$AUNITS
 70
     0
  9
$AUPREC
 70
     0
  9
$MENU
  1
C:\R13\COM\SUPPORT\ACAD
  9
$ELEVATION
 40
0.0
  9
$PELEVATION
 40
0.0
  9
$THICKNESS
 40
0.0
  9
$LIMCHECK
 70
     0
  9
$BLIPMODE
 70
     0
  9
$CHAMFERA
 40
0.0
  9
$CHAMFERB
 40
0.0
  9
$CHAMFERC
 40
0.0
  9
$CHAMFERD
 40
0.0
  9
$SKPOLY
 70
     0
  9
$TDCREATE
 40
2450021.488457986
  9
$TDUPDATE
 40
2452458.324263345
  9
$TDINDWG
 40
0.0504615625
  9
$TDUSRTIMER
 40
0.0504615625
  9
$USRTIMER
 70
     1
  9
$ANGBASE
 50
0.0
  9
$ANGDIR
 70
     0
  9
$PDMODE
 70
     0
  9
$PDSIZE
 40
0.0
  9
$PLINEWID
 40
0.0
  9
$COORDS
 70
     2
  9
$SPLFRAME
 70
     0
  9
$SPLINETYPE
 70
     6
  9
$SPLINESEGS
 70
     8
  9
$ATTDIA
 70
     0
  9
$ATTREQ
 70
     1
  9
$HANDLING
 70
 22529
  9
$HANDSEED
  5
2B23
  9
$SURFTAB1
 70
     6
  9
$SURFTAB2
 70
     6
  9
$SURFTYPE
 70
     6
  9
$SURFU
 70
     6
  9
$SURFV
 70
     6
  9
$UCSNAME
  2

  9
$UCSORG
 10
0.0
 20
0.0
 30
0.0
  9
$UCSXDIR
 10
1.0
 20
0.0
 30
0.0
  9
$UCSYDIR
 10
0.0
 20
1.0
 30
0.0
  9
$PUCSNAME
  2

  9
$PUCSORG
 10
0.0
 20
0.0
 30
0.0
  9
$PUCSXDIR
 10
1.0
 20
0.0
 30
0.0
  9
$PUCSYDIR
 10
0.0
 20
1.0
 30
0.0
  9
$USERI1
 70
     0
  9
$USERI2
 70
     0
  9
$USERI3
 70
     0
  9
$USERI4
 70
     0
  9
$USERI5
 70
     0
  9
$USERR1
 40
0.0
  9
$USERR2
 40
0.0
  9
$USERR3
 40
0.0
  9
$USERR4
 40
0.0
  9
$USERR5
 40
0.0
  9
$WORLDVIEW
 70
     1
  9
$SHADEDGE
 70
     3
  9
$SHADEDIF
 70
    70
  9
$TILEMODE
 70
     1
  9
$MAXACTVP
 70
    16
  9
$PINSBASE
 10
0.0
 20
0.0
 30
0.0
  9
$PLIMCHECK
 70
     0
  9
$PEXTMIN
 10
1.000000000000000E+20
 20
1.000000000000000E+20
 30
1.000000000000000E+20
  9
$PEXTMAX
 10
-1.000000000000000E+20
 20
-1.000000000000000E+20
 30
-1.000000000000000E+20
  9
$PLIMMIN
 10
0.0
 20
0.0
  9
$PLIMMAX
 10
12.0
 20
9.0
  9
$UNITMODE
 70
     0
  9
$VISRETAIN
 70
     0
  9
$PLINEGEN
 70
     1
  9
$PSLTSCALE
 70
     0
  9
$TREEDEPTH
 70
  3020
  9
$PICKSTYLE
 70
     1
  9
$CMLSTYLE
  2
STANDARD
  9
$CMLJUST
 70
     0
  9
$CMLSCALE
 40
1.0
  9
$PROXYGRAPHICS
 70
     1
  9
$MEASUREMENT
 70
     0
  0
ENDSEC
  0
SECTION
  2
CLASSES
  0
CLASS
  1
LWPOLYLINE
  2
AcDbPolyline
  3
AutoCAD 2000
 90
        0
280
     0
281
     1
  0
CLASS
  1
ACDBDICTIONARYWDFLT
  2
AcDbDictionaryWithDefault
  3
AutoCAD 2000
 90
        0
280
     0
281
     0
  0
CLASS
  1
ACDBPLACEHOLDER
  2
AcDbPlaceHolder
  3
AutoCAD 2000
 90
        0
280
     0
281
     0
  0
CLASS
  1
LAYOUT
  2
AcDbLayout
  3
AutoCAD 2000
 90
        0
280
     0
281
     0
  0
CLASS
  1
DICTIONARYVAR
  2
AcDbDictionaryVar
  3
AutoCAD 2000
 90
        0
280
     0
281
     0
  0
CLASS
  1
LONG_TRANSACTION
  2
AcDbLongTransaction
  3
AutoCAD 2000
 90
        0
280
     0
281
     0
  0
CLASS
  1
LWPOLYLINE
  2
AcDbPolyline
  3
AutoCAD 2000
 90
        0
280
     0
281
     1
  0
CLASS
  1
HATCH
  2
AcDbHatch
  3
AutoCAD 2000
 90
        0
280
     0
281
     1
  0
CLASS
  1
XRECORD
  2
AcDbXrecord
  3
AutoCAD 2000
 90
        0
280
     0
281
     0
  0
ENDSEC
  0
SECTION
  2
TABLES
  0
TABLE
  2
VPORT
  5
2645
330
0
100
AcDbSymbolTable
 70
     2
  0
VPORT
  5
2AFE
330
2645
100
AcDbSymbolTableRecord
100
AcDbViewportTableRecord
  2
*ACTIVE
 70
     0
 10
0.0
 20
0.0
 11
1.0
 21
1.0
 12
15.50362694993999
 22
2.796569848429143
 13
0.0
 23
0.0
 14
0.015625
 24
0.015625
 15
0.0
 25
0.0
 16
0.0
 26
0.0
 36
1.0
 17
0.0
 27
0.0
 37
0.0
 40
3.016303058819328
 41
4.320930232558139
 42
50.0
 43
0.0
 44
0.0
 50
0.0
 51
0.0
 71
     0
 72
  2000
 73
     1
 74
     1
 75
     0
 76
     0
 77
     0
 78
     0
  0
ENDTAB
  0
TABLE
  2
LTYPE
  5
2642
330
0
100
AcDbSymbolTable
 70
     1
  0
LTYPE
  5
264F
330
2642
100
AcDbSymbolTableRecord
100
AcDbLinetypeTableRecord
  2
BYBLOCK
 70
     0
  3

 72
    65
 73
     0
 40
0.0
  0
LTYPE
  5
2650
330
2642
100
AcDbSymbolTableRecord
100
AcDbLinetypeTableRecord
  2
BYLAYER
 70
     0
  3

 72
    65
 73
     0
 40
0.0
  0
LTYPE
  5
2651
330
2642
100
AcDbSymbolTableRecord
100
AcDbLinetypeTableRecord
  2
CONTINUOUS
 70
     0
  3
Solid line
 72
    65
 73
     0
 40
0.0
  0
ENDTAB
  0
TABLE
  2
LAYER
  5
263F
330
0
100
AcDbSymbolTable
 70
     2
  0
LAYER
  5
264C
330
263F
100
AcDbSymbolTableRecord
100
AcDbLayerTableRecord
  2
0
 70
     0
 62
     7
  6
CONTINUOUS
  0
LAYER
  5
2662
330
263F
100
AcDbSymbolTableRecord
100
AcDbLayerTableRecord
  2
TEXT
 70
     0
 62
     3
  6
CONTINUOUS
  0
ENDTAB
  0
TABLE
  2
STYLE
  5
2640
330
0
100
AcDbSymbolTable
 70
     3
  0
STYLE
  5
264D
330
2640
100
AcDbSymbolTableRecord
100
AcDbTextStyleTableRecord
  2
STANDARD
 70
     0
 40
0.0
 41
1.0
 50
0.0
 71
     0
 42
0.125
  3
txt
  4

  0
STYLE
  5
265B
330
2640
100
AcDbSymbolTableRecord
100
AcDbTextStyleTableRecord
  2
ROMANS
 70
     0
 40
0.0
 41
1.0
 50
0.0
 71
     0
 42
0.125
  3
romans.shx
  4

  0
STYLE
  5
29EC
330
2640
100
AcDbSymbolTableRecord
100
AcDbTextStyleTableRecord
  2
ITALICC
 70
     0
 40
0.0
 41
1.0
 50
0.0
 71
     0
 42
0.125
  3
italicc
  4

  0
ENDTAB
  0
TABLE
  2
VIEW
  5
2643
330
0
100
AcDbSymbolTable
 70
     0
  0
ENDTAB
  0
TABLE
  2
UCS
  5
2644
330
0
100
AcDbSymbolTable
 70
     0
  0
ENDTAB
  0
TABLE
  2
APPID
  5
2646
330
0
100
AcDbSymbolTable
 70
     1
  0
APPID
  5
264E
330
2646
100
AcDbSymbolTableRecord
100
AcDbRegAppTableRecord
  2
ACAD
 70
     0
  0
ENDTAB
  0
TABLE
  2
DIMSTYLE
  5
2647
330
0
100
AcDbSymbolTable
 70
     1
  0
DIMSTYLE
105
266A
330
2647
100
AcDbSymbolTableRecord
100
AcDbDimStyleTableRecord
  2
STANDARD
 70
     0
  3

  4

  5

  6

  7

 40
1.0
 41
0.18
 42
0.0625
 43
0.38
 44
0.18
 45
0.0
 46
0.0
 47
0.0
 48
0.0
140
0.18
141
0.09
142
0.0
143
25.4
144
1.0
145
0.0
146
1.0
147
0.09
 71
     0
 72
     0
 73
     1
 74
     1
 75
     0
 76
     0
 77
     0
 78
     0
170
     0
171
     2
172
     0
173
     0
174
     0
175
     0
176
     0
177
     0
178
     0
270
     2
271
     4
272
     4
273
     2
274
     2
340
264D
275
     0
280
     0
281
     0
282
     0
283
     1
284
     0
285
     0
286
     0
287
     3
288
     0
  0
ENDTAB
  0
TABLE
  2
BLOCK_RECORD
  5
263E
330
0
100
AcDbSymbolTable
 70
     0
  0
BLOCK_RECORD
  5
2655
102
{ACAD_XDICTIONARY
360
2B21
102
}
330
263E
100
AcDbSymbolTableRecord
100
AcDbBlockTableRecord
  2
*MODEL_SPACE
  0
BLOCK_RECORD
  5
2652
102
{ACAD_XDICTIONARY
360
2B1F
102
}
330
263E
100
AcDbSymbolTableRecord
100
AcDbBlockTableRecord
  2
*PAPER_SPACE
  0
ENDTAB
  0
ENDSEC
  0
SECTION
  2
BLOCKS
  0
BLOCK
  5
2668
330
2655
100
AcDbEntity
  8
0
100
AcDbBlockBegin
  2
*MODEL_SPACE
 70
     0
 10
0.0
 20
0.0
 30
0.0
  3
*MODEL_SPACE
  1

  0
ENDBLK
  5
2669
330
2655
100
AcDbEntity
  8
0
100
AcDbBlockEnd
  0
BLOCK
  5
2666
330
2652
100
AcDbEntity
 67
     1
  8
0
100
AcDbBlockBegin
  2
*PAPER_SPACE
 70
     0
 10
0.0
 20
0.0
 30
0.0
  3
*PAPER_SPACE
  1

  0
ENDBLK
  5
2667
330
2652
100
AcDbEntity
 67
     1
  8
0
100
AcDbBlockEnd
  0
ENDSEC
  0
SECTION
  2
ENTITIES
  0
LWPOLYLINE
  5
211
330
2655
100
AcDbEntity
  8
0
100
AcDbPolyline
 90
       30
 70
     1
 43
0.0
 10
11.16878379067836
 20
3.103350368445841
 10
11.23128379067835
 20
3.103350368445841
 10
11.23128379067835
 20
3.905850368445841
 10
11.22128379067836
 20
3.915850368445841
 10
11.23128379067835
 20
3.925850368445841
 10
11.23128379067835
 20
4.259600368445841
 42
1.0
 10
11.16878379067836
 20
4.259600368445841
 10
11.16878379067836
 20
3.165850368445841
 10
11.10628379067835
 20
3.165850368445841
 10
11.10628379067835
 20
2.790850368445841
 10
10.62190879067836
 20
2.790850368445841
 42
0.4142135623730951
 10
10.60628379067835
 20
2.775225368445841
 10
10.60628379067835
 20
2.681475368445841
 42
0.4142135623730951
 10
10.62190879067836
 20
2.665850368445841
 10
11.10628379067835
 20
2.665850368445841
 10
11.10628379067835
 20
2.181475368445841
 42
0.4142135623730951
 10
11.12190879067836
 20
2.165850368445841
 10
11.21565879067836
 20
2.165850368445841
 42
0.4142135623730951
 10
11.23128379067835
 20
2.181475368445841
 10
11.23128379067835
 20
2.665850368445841
 10
11.60628379067836
 20
2.665850368445841
 10
11.60628379067836
 20
2.728350368445841
 10
12.70003379067836
 20
2.728350368445841
 42
1.0
 10
12.70003379067836
 20
2.790850368445841
 10
12.36628379067836
 20
2.790850368445841
 10
12.35628379067835
 20
2.780850368445841
 10
12.34628379067836
 20
2.790850368445841
 10
11.54378379067835
 20
2.790850368445841
 10
11.54378379067835
 20
2.728350368445841
 10
11.16878379067836
 20
2.728350368445841
  0
TEXT
  5
2A71
330
2655
100
AcDbEntity
  8
TEXT
100
AcDbText
 10
10.67464130334822
 20
1.760357607800553
 30
0.0
 40
0.125
  1
PART #120075
  7
ITALICC
 72
     1
 11
11.4305936843006
 21
1.760357607800553
 31
0.0
100
AcDbText
  0
LWPOLYLINE
  5
2A72
330
2655
100
AcDbEntity
  8
TEXT
100
AcDbPolyline
 90
        3
 70
     0
 43
0.0
 10
11.06155287802437
 20
1.580280616437488
 10
10.94325271920832
 20
1.580280616437488
 10
10.94325271920832
 20
1.553113119676592
 42
-1.960274751411753
  0
LWPOLYLINE
  5
2A73
330
2655
100
AcDbEntity
  8
TEXT
100
AcDbPolyline
 90
        4
 70
     0
 43
0.0
 10
11.02641852748016
 20
1.508450132614609
 10
11.02641852748016
 20
1.313807583448974
 10
11.09489681076802
 20
1.313807583448974
 10
11.09489681076802
 20
1.357298528399412
 42
-1.714843617202739
  0
LWPOLYLINE
  5
2A74
330
2655
100
AcDbEntity
  8
TEXT
100
AcDbPolyline
 90
        2
 70
     0
 43
0.0001332181640625
 10
9.927737845796119
 20
1.340487921124986
 10
9.867789671967996
 20
1.400436094953112
  0
LWPOLYLINE
  5
2A75
330
2655
100
AcDbEntity
  8
TEXT
100
AcDbPolyline
 90
        3
 70
     0
 43
0.0006660908203125
 10
9.841146039155495
 20
1.340487921124986
 10
9.927737845796119
 20
1.340487921124986
 10
9.927737845796119
 20
1.427079727765613
  0
LWPOLYLINE
  5
2A76
330
2655
100
AcDbEntity
  8
TEXT
100
AcDbPolyline
 90
        3
 70
     0
 43
0.0006660908203125
 10
9.841146039155495
 20
1.313844288312485
 10
9.95438147860862
 20
1.313844288312485
 10
9.95438147860862
 20
1.427079727765613
  0
LWPOLYLINE
  5
2A77
330
2655
100
AcDbEntity
  8
TEXT
100
AcDbPolyline
 90
        2
 70
     0
 43
0.0001332181640625
 10
9.95438147860862
 20
1.427079727765613
 10
9.881111488374244
 20
1.437071090070298
  0
LWPOLYLINE
  5
2A78
330
2655
100
AcDbEntity
  8
TEXT
100
AcDbPolyline
 90
        2
 70
     0
 43
0.0001332181640625
 10
9.927737845796119
 20
1.427079727765613
 10
9.867789671967996
 20
1.437071090070298
  0
LWPOLYLINE
  5
2A79
330
2655
100
AcDbEntity
  8
TEXT
100
AcDbPolyline
 90
        2
 70
     0
 43
0.0001332181640625
 10
9.714588783296118
 20
1.340487921124986
 10
9.774536957124245
 20
1.400436094953112
  0
LWPOLYLINE
  5
2A7A
330
2655
100
AcDbEntity
  8
TEXT
100
AcDbPolyline
 90
        2
 70
     0
 43
0.0001332181640625
 10
9.714588783296118
 20
1.427079727765613
 10
9.774536957124245
 20
1.437071090070298
  0
LWPOLYLINE
  5
2A7B
330
2655
100
AcDbEntity
  8
TEXT
100
AcDbPolyline
 90
        3
 70
     0
 43
0.0006660908203125
 10
9.687945150483621
 20
1.427079727765613
 10
9.687945150483621
 20
1.313844288312485
 10
9.801180589936743
 20
1.313844288312485
  0
LWPOLYLINE
  5
2A7C
330
2655
100
AcDbEntity
  8
TEXT
100
AcDbPolyline
 90
        3
 70
     0
 43
0.0006660908203125
 10
9.714588783296118
 20
1.427079727765613
 10
9.714588783296118
 20
1.340487921124986
 10
9.801180589936743
 20
1.340487921124986
  0
LWPOLYLINE
  5
2A7D
330
2655
100
AcDbEntity
  8
TEXT
100
AcDbPolyline
 90
        5
 70
     0
 43
0.0001332181640625
 10
9.811171952241434
 20
1.387114278546861
 10
9.811171952241434
 20
1.400436094953112
 10
9.774536957124245
 20
1.400436094953112
 10
9.774536957124245
 20
1.437071090070298
 10
9.761215140717995
 20
1.437071090070298
  0
LWPOLYLINE
  5
2A7E
330
2655
100
AcDbEntity
  8
TEXT
100
AcDbPolyline
 90
        2
 70
     0
 43
0.0006660908203125
 10
9.714588783296118
 20
1.427079727765613
 10
9.687945150483621
 20
1.427079727765613
  0
LWPOLYLINE
  5
2A7F
330
2655
100
AcDbEntity
  8
TEXT
100
AcDbPolyline
 90
        2
 70
     0
 43
0.0001332181640625
 10
9.761215140717995
 20
1.437071090070298
 10
9.687945150483621
 20
1.427079727765613
  0
LWPOLYLINE
  5
2A80
330
2655
100
AcDbEntity
  8
TEXT
100
AcDbPolyline
 90
        2
 70
     0
 43
0.0006660908203125
 10
9.801180589936743
 20
1.340487921124986
 10
9.801180589936743
 20
1.313844288312485
  0
LWPOLYLINE
  5
2A81
330
2655
100
AcDbEntity
  8
TEXT
100
AcDbPolyline
 90
        2
 70
     0
 43
0.0001332181640625
 10
9.801180589936743
 20
1.340487921124986
 10
9.811171952241434
 20
1.400436094953112
  0
LWPOLYLINE
  5
2A82
330
2655
100
AcDbEntity
  8
TEXT
100
AcDbPolyline
 90
        2
 70
     0
 43
0.0001332181640625
 10
9.801180589936743
 20
1.313844288312485
 10
9.811171952241434
 20
1.387114278546861
  0
LWPOLYLINE
  5
2A83
330
2655
100
AcDbEntity
  8
TEXT
100
AcDbPolyline
 90
        2
 70
     0
 43
0.0001332181640625
 10
9.841146039155495
 20
1.340487921124986
 10
9.831154676850806
 20
1.400436094953112
  0
LWPOLYLINE
  5
2A84
330
2655
100
AcDbEntity
  8
TEXT
100
AcDbPolyline
 90
        2
 70
     0
 43
0.0001332181640625
 10
9.831154676850806
 20
1.387114278546861
 10
9.841146039155495
 20
1.313844288312485
  0
LWPOLYLINE
  5
2A85
330
2655
100
AcDbEntity
  8
TEXT
100
AcDbPolyline
 90
        2
 70
     0
 43
0.0006660908203125
 10
9.841146039155495
 20
1.340487921124986
 10
9.841146039155495
 20
1.313844288312485
  0
LWPOLYLINE
  5
2A86
330
2655
100
AcDbEntity
  8
TEXT
100
AcDbPolyline
 90
        5
 70
     0
 43
0.0001332181640625
 10
9.881111488374244
 20
1.437071090070298
 10
9.867789671967996
 20
1.437071090070298
 10
9.867789671967996
 20
1.400436094953112
 10
9.831154676850806
 20
1.400436094953112
 10
9.831154676850806
 20
1.387114278546861
  0
LWPOLYLINE
  5
2A87
330
2655
100
AcDbEntity
  8
TEXT
100
AcDbPolyline
 90
        2
 70
     0
 43
0.0006660908203125
 10
9.927737845796119
 20
1.427079727765613
 10
9.95438147860862
 20
1.427079727765613
  0
LWPOLYLINE
  5
2A88
330
2655
100
AcDbEntity
  8
TEXT
100
AcDbPolyline
 90
        3
 70
     0
 43
0.0006660908203125
 10
9.95438147860862
 20
1.467045176984361
 10
9.95438147860862
 20
1.580280616437488
 10
9.841146039155495
 20
1.580280616437488
  0
LWPOLYLINE
  5
2A89
330
2655
100
AcDbEntity
  8
TEXT
100
AcDbPolyline
 90
        3
 70
     0
 43
0.0006660908203125
 10
9.927737845796119
 20
1.467045176984361
 10
9.927737845796119
 20
1.553636983624987
 10
9.841146039155495
 20
1.553636983624987
  0
LWPOLYLINE
  5
2A8A
330
2655
100
AcDbEntity
  8
TEXT
100
AcDbPolyline
 90
        2
 70
     0
 43
0.0001332181640625
 10
9.881111488374244
 20
1.457053814679672
 10
9.95438147860862
 20
1.467045176984361
  0
LWPOLYLINE
  5
2A8B
330
2655
100
AcDbEntity
  8
TEXT
100
AcDbPolyline
 90
        2
 70
     0
 43
0.0001332181640625
 10
9.927737845796119
 20
1.467045176984361
 10
9.867789671967996
 20
1.457053814679672
  0
LWPOLYLINE
  5
2A8C
330
2655
100
AcDbEntity
  8
TEXT
100
AcDbPolyline
 90
        2
 70
     0
 43
0.0001332181640625
 10
9.927737845796119
 20
1.553636983624987
 10
9.867789671967996
 20
1.493688809796862
  0
LWPOLYLINE
  5
2A8D
330
2655
100
AcDbEntity
  8
TEXT
100
AcDbPolyline
 90
        2
 70
     0
 43
0.0001332181640625
 10
9.714588783296118
 20
1.553636983624987
 10
9.774536957124244
 20
1.493688809796862
  0
LWPOLYLINE
  5
2A8E
330
2655
100
AcDbEntity
  8
TEXT
100
AcDbPolyline
 90
        2
 70
     0
 43
0.0001332181640625
 10
9.714588783296118
 20
1.467045176984361
 10
9.774536957124244
 20
1.457053814679672
  0
LWPOLYLINE
  5
2A8F
330
2655
100
AcDbEntity
  8
TEXT
100
AcDbPolyline
 90
        3
 70
     0
 43
0.0006660908203125
 10
9.801180589936743
 20
1.580280616437488
 10
9.687945150483621
 20
1.580280616437488
 10
9.687945150483621
 20
1.467045176984361
  0
LWPOLYLINE
  5
2A90
330
2655
100
AcDbEntity
  8
TEXT
100
AcDbPolyline
 90
        3
 70
     0
 43
0.0006660908203125
 10
9.801180589936743
 20
1.553636983624987
 10
9.714588783296118
 20
1.553636983624987
 10
9.714588783296118
 20
1.467045176984361
  0
LWPOLYLINE
  5
2A91
330
2655
100
AcDbEntity
  8
TEXT
100
AcDbPolyline
 90
        5
 70
     0
 43
0.0001332181640625
 10
9.761215140717995
 20
1.457053814679672
 10
9.774536957124244
 20
1.457053814679672
 10
9.774536957124244
 20
1.493688809796862
 10
9.811171952241434
 20
1.493688809796862
 10
9.811171952241434
 20
1.507010626203109
  0
LWPOLYLINE
  5
2A92
330
2655
100
AcDbEntity
  8
TEXT
100
AcDbPolyline
 90
        2
 70
     0
 43
0.0001332181640625
 10
9.687945150483621
 20
1.467045176984361
 10
9.761215140717995
 20
1.457053814679672
  0
LWPOLYLINE
  5
2A93
330
2655
100
AcDbEntity
  8
TEXT
100
AcDbPolyline
 90
        2
 70
     0
 43
0.0006660908203125
 10
9.714588783296118
 20
1.467045176984361
 10
9.687945150483621
 20
1.467045176984361
  0
LWPOLYLINE
  5
2A94
330
2655
100
AcDbEntity
  8
TEXT
100
AcDbPolyline
 90
        2
 70
     0
 43
0.0006660908203125
 10
9.801180589936743
 20
1.553636983624987
 10
9.801180589936743
 20
1.580280616437488
  0
LWPOLYLINE
  5
2A95
330
2655
100
AcDbEntity
  8
TEXT
100
AcDbPolyline
 90
        2
 70
     0
 43
0.0001332181640625
 10
9.811171952241434
 20
1.507010626203109
 10
9.801180589936743
 20
1.580280616437488
  0
LWPOLYLINE
  5
2A96
330
2655
100
AcDbEntity
  8
TEXT
100
AcDbPolyline
 90
        2
 70
     0
 43
0.0001332181640625
 10
9.801180589936743
 20
1.553636983624987
 10
9.811171952241434
 20
1.493688809796862
  0
LWPOLYLINE
  5
2A97
330
2655
100
AcDbEntity
  8
TEXT
100
AcDbPolyline
 90
        5
 70
     0
 43
0.0001332181640625
 10
9.831154676850806
 20
1.507010626203109
 10
9.831154676850806
 20
1.493688809796862
 10
9.867789671967996
 20
1.493688809796862
 10
9.867789671967996
 20
1.457053814679672
 10
9.881111488374244
 20
1.457053814679672
  0
LWPOLYLINE
  5
2A98
330
2655
100
AcDbEntity
  8
TEXT
100
AcDbPolyline
 90
        2
 70
     0
 43
0.0006660908203125
 10
9.841146039155495
 20
1.553636983624987
 10
9.841146039155495
 20
1.580280616437488
  0
LWPOLYLINE
  5
2A99
330
2655
100
AcDbEntity
  8
TEXT
100
AcDbPolyline
 90
        2
 70
     0
 43
0.0001332181640625
 10
9.841146039155495
 20
1.553636983624987
 10
9.831154676850806
 20
1.493688809796862
  0
LWPOLYLINE
  5
2A9A
330
2655
100
AcDbEntity
  8
TEXT
100
AcDbPolyline
 90
        2
 70
     0
 43
0.0001332181640625
 10
9.841146039155495
 20
1.580280616437488
 10
9.831154676850806
 20
1.507010626203109
  0
LWPOLYLINE
  5
2A9B
330
2655
100
AcDbEntity
  8
TEXT
100
AcDbPolyline
 90
        2
 70
     0
 43
0.0006660908203125
 10
9.927737845796119
 20
1.467045176984361
 10
9.95438147860862
 20
1.467045176984361
  0
LINE
  5
2A9C
330
2655
100
AcDbEntity
  8
TEXT
100
AcDbLine
 10
10.5758616932638
 20
1.333766089553987
 30
0.0
 11
10.67316139935725
 21
1.498116300489255
 31
0.0
  0
LINE
  5
2A9D
330
2655
100
AcDbEntity
  8
TEXT
100
AcDbLine
 10
10.58546193026076
 20
1.479408620324364
 30
0.0
 11
10.52683160922882
 21
1.580280616437485
 31
0.0
  0
LINE
  5
2A9E
330
2655
100
AcDbEntity
  8
TEXT
100
AcDbLine
 10
10.39140126948561
 20
1.516003921780719
 30
0.0
 11
10.39140126948561
 21
1.373599974787024
 31
0.0
  0
LWPOLYLINE
  5
2A9F
330
2655
100
AcDbEntity
  8
TEXT
100
AcDbPolyline
 90
        6
 70
     1
 43
0.0
 10
10.48781168054087
 20
1.516003921780719
 10
10.45749508632066
 20
1.516003921780719
 10
10.45749508632066
 20
1.392892923725825
 42
0.407328721240804
 10
10.46903873748214
 20
1.381074009049439
 10
10.52966043652687
 20
1.381074009049439
 10
10.54712577693418
 20
1.413886238092918
  0
ARC
  5
2AA0
330
2655
100
AcDbEntity
  8
TEXT
100
AcDbCircle
 10
10.21925828534239
 20
1.498193156990983
 30
0.0
 40
0.0820874594465043
100
AcDbArc
 50
90.0
 51
270.0
  0
ARC
  5
2AA1
330
2655
100
AcDbEntity
  8
TEXT
100
AcDbCircle
 10
10.29009575170094
 20
1.397003391809531
 30
0.0
 40
0.0831958083605586
100
AcDbArc
 50
270.0
 51
90.0
  0
LINE
  5
2AA2
330
2655
100
AcDbEntity
  8
TEXT
100
AcDbLine
 10
10.21925828534239
 20
1.416105697544478
 30
0.0
 11
10.29503612560722
 21
1.416105697544478
 31
0.0
  0
LINE
  5
2AA3
330
2655
100
AcDbEntity
  8
TEXT
100
AcDbLine
 10
10.13717082589589
 20
1.313807583448974
 30
0.0
 11
10.29009575170094
 21
1.313807583448974
 31
0.0
  0
LINE
  5
2AA4
330
2655
100
AcDbEntity
  8
TEXT
100
AcDbLine
 10
10.29503612560722
 20
1.382164589782413
 30
0.0
 11
10.13717082589589
 21
1.382164589782413
 31
0.0
  0
LINE
  5
2AA5
330
2655
100
AcDbEntity
  8
TEXT
100
AcDbLine
 10
10.13717082589589
 20
1.382164589782413
 30
0.0
 11
10.13717082589589
 21
1.313807583448974
 31
0.0
  0
ARC
  5
2AA6
330
2655
100
AcDbEntity
  8
TEXT
100
AcDbCircle
 10
10.29503612560722
 20
1.399135143663447
 30
0.0
 40
0.0169705538810321
100
AcDbArc
 50
270.0
 51
90.0
  0
LINE
  5
2AA7
330
2655
100
AcDbEntity
  8
TEXT
100
AcDbLine
 10
10.44528787696572
 20
1.313807583448974
 30
0.0
 11
10.54192812804071
 21
1.314078222547256
 31
0.0
  0
ARC
  5
2AA8
330
2655
100
AcDbEntity
  8
TEXT
100
AcDbCircle
 10
10.45151728745936
 20
1.373599974787024
 30
0.0
 40
0.0601160179737537
100
AcDbArc
 50
180.0000000000003
 51
264.0521544866073
  0
ARC
  5
2AA9
330
2655
100
AcDbEntity
  8
TEXT
100
AcDbCircle
 10
10.54181813335159
 20
1.353355305722669
 30
0.0
 40
0.0392772371940762
100
AcDbArc
 50
270.1604552698595
 51
330.0831797321295
  0
LINE
  5
2AAA
330
2655
100
AcDbEntity
  8
TEXT
100
AcDbLine
 10
10.22449561545664
 20
1.516003921780719
 30
0.0
 11
10.39140126948561
 21
1.516003921780719
 31
0.0
  0
LINE
  5
2AAB
330
2655
100
AcDbEntity
  8
TEXT
100
AcDbLine
 10
10.3949900382409
 20
1.580280616437485
 30
0.0
 11
10.21925828534239
 21
1.580280616437485
 31
0.0
  0
LINE
  5
2AAC
330
2655
100
AcDbEntity
  8
TEXT
100
AcDbLine
 10
10.29009575170094
 20
1.480199200170091
 30
0.0
 11
10.22449561545664
 21
1.480199200170091
 31
0.0
  0
ARC
  5
2AAD
330
2655
100
AcDbEntity
  8
TEXT
100
AcDbCircle
 10
10.22449561545664
 20
1.498101560975407
 30
0.0
 40
0.017902360805315
100
AcDbArc
 50
90.0
 51
270.0
  0
LINE
  5
2AAE
330
2655
100
AcDbEntity
  8
TEXT
100
AcDbLine
 10
10.52683160922882
 20
1.580280616437485
 30
0.0
 11
10.45503264308491
 21
1.580280616437485
 31
0.0
  0
LINE
  5
2AAF
330
2655
100
AcDbEntity
  8
TEXT
100
AcDbLine
 10
10.45503264308491
 20
1.580280616437485
 30
0.0
 11
10.45503264308491
 21
1.614668534031623
 31
0.0
  0
LINE
  5
2AB0
330
2655
100
AcDbEntity
  8
TEXT
100
AcDbLine
 10
10.3949900382409
 20
1.614668534031623
 30
0.0
 11
10.3949900382409
 21
1.580280616437485
 31
0.0
  0
LINE
  5
2AB1
330
2655
100
AcDbEntity
  8
TEXT
100
AcDbLine
 10
10.45503264308491
 20
1.614668534031623
 30
0.0
 11
10.3949900382409
 21
1.614668534031623
 31
0.0
  0
LINE
  5
2AB2
330
2655
100
AcDbEntity
  8
TEXT
100
AcDbLine
 10
10.96473114139309
 20
1.313807583448974
 30
0.0
 11
10.96473114139309
 21
1.516003921780719
 31
0.0
  0
LINE
  5
2AB3
330
2655
100
AcDbEntity
  8
TEXT
100
AcDbLine
 10
10.89767309461125
 20
1.508450132614609
 30
0.0
 11
10.89767309461125
 21
1.313807583448974
 31
0.0
  0
LINE
  5
2AB4
330
2655
100
AcDbEntity
  8
TEXT
100
AcDbLine
 10
10.74114111842636
 20
1.396195421551973
 30
0.0
 11
10.74114111842636
 21
1.648292094176295
 31
0.0
  0
LINE
  5
2AB5
330
2655
100
AcDbEntity
  8
TEXT
100
AcDbLine
 10
10.77345297256403
 20
1.580280616437485
 30
0.0
 11
10.77345297256403
 21
1.379416409705076
 31
0.0
  0
LINE
  5
2AB6
330
2655
100
AcDbEntity
  8
TEXT
100
AcDbLine
 10
10.84028402562199
 20
1.313807583448974
 30
0.0
 11
10.84028402562199
 21
1.516003921780719
 31
0.0
  0
LINE
  5
2AB7
330
2655
100
AcDbEntity
  8
TEXT
100
AcDbLine
 10
10.67316139935725
 20
1.498116300489255
 30
0.0
 11
10.67316139935725
 21
1.365358925663898
 31
0.0
  0
LINE
  5
2AB8
330
2655
100
AcDbEntity
  8
TEXT
100
AcDbLine
 10
10.74228069192256
 20
1.313807583448974
 30
0.0
 11
10.84028402562199
 21
1.313807583448974
 31
0.0
  0
LWPOLYLINE
  5
2AB9
330
2655
100
AcDbEntity
  8
TEXT
100
AcDbPolyline
 90
        2
 70
     0
 43
0.0
 10
10.67316139935725
 20
1.365358925663902
 42
0.3318488747599744
 10
10.74228069192256
 20
1.313807583448974
 42
-6.868794160588311
  0
ARC
  5
2ABA
330
2655
100
AcDbEntity
  8
TEXT
100
AcDbCircle
 10
10.75645933567942
 20
1.394798215948502
 30
0.0
 40
0.0153818062434269
100
AcDbArc
 50
174.7883570302258
 51
270.0
  0
LINE
  5
2ABB
330
2655
100
AcDbEntity
  8
TEXT
100
AcDbLine
 10
10.77345297256403
 20
1.379416409705076
 30
0.0
 11
10.75645933567942
 21
1.379416409705076
 31
0.0
  0
LINE
  5
2ABC
330
2655
100
AcDbEntity
  8
TEXT
100
AcDbLine
 10
10.89767309461125
 20
1.313807583448974
 30
0.0
 11
10.96473114139309
 21
1.313807583448974
 31
0.0
  0
LINE
  5
2ABD
330
2655
100
AcDbEntity
  8
TEXT
100
AcDbLine
 10
10.90747102849516
 20
1.580280616437485
 30
0.0
 11
10.77345297256403
 21
1.580280616437485
 31
0.0
  0
LINE
  5
2ABE
330
2655
100
AcDbEntity
  8
TEXT
100
AcDbLine
 10
10.67433240586
 20
1.648292094176295
 30
0.0
 11
10.67433240586
 21
1.580280616437485
 31
0.0
  0
LINE
  5
2ABF
330
2655
100
AcDbEntity
  8
TEXT
100
AcDbLine
 10
10.67433240586
 20
1.580280616437485
 30
0.0
 11
10.64421049306662
 21
1.580280616437485
 31
0.0
  0
LINE
  5
2AC0
330
2655
100
AcDbEntity
  8
TEXT
100
AcDbLine
 10
10.64421049306662
 20
1.580280616437485
 30
0.0
 11
10.58546193026076
 21
1.479408620324364
 31
0.0
  0
LINE
  5
2AC1
330
2655
100
AcDbEntity
  8
TEXT
100
AcDbLine
 10
10.74114111842636
 20
1.648292094176295
 30
0.0
 11
10.67433240586
 21
1.648292094176295
 31
0.0
  0
LWPOLYLINE
  5
2AC2
330
2655
100
AcDbEntity
  8
TEXT
100
AcDbPolyline
 90
        2
 70
     0
 43
0.0
 10
10.90747102849516
 20
1.580280616437488
 42
-0.3328679258950098
 10
10.94325271920832
 20
1.553113119676592
 42
6.772930709997214
  0
LINE
  5
2AC3
330
2655
100
AcDbEntity
  8
TEXT
100
AcDbLine
 10
10.84028402562199
 20
1.516003921780719
 30
0.0
 11
10.89011930544514
 21
1.516003921780719
 31
0.0
  0
LWPOLYLINE
  5
2AC4
330
2655
100
AcDbEntity
  8
TEXT
100
AcDbPolyline
 90
        2
 70
     0
 43
0.0
 10
10.89011930544514
 20
1.516003921780719
 42
-0.4142135623731017
 10
10.89767309461125
 20
1.508450132614609
 42
-0.9999999999999998
  0
LWPOLYLINE
  5
2AC5
330
2655
100
AcDbEntity
  8
TEXT
100
AcDbPolyline
 90
        2
 70
     0
 43
0.0
 10
11.01886473831404
 20
1.516003921780719
 42
-0.4142135623731017
 10
11.02641852748016
 20
1.508450132614609
 42
-0.9999999999999998
  0
LINE
  5
2AC6
330
2655
100
AcDbEntity
  8
TEXT
100
AcDbLine
 10
10.96473114139309
 20
1.516003921780719
 30
0.0
 11
11.01886473831405
 21
1.516003921780719
 31
0.0
  0
TEXT
  5
2AC7
330
2655
100
AcDbEntity
  8
TEXT
100
AcDbText
 10
11.84389884255093
 20
1.313434965128178
 30
0.0
 40
0.0522247191011236
  1
Phone  1-800-328-2495
 41
1.272321428571429
 72
     5
 11
13.17283142682059
 21
1.313434965128178
 31
0.0
100
AcDbText
  0
TEXT
  5
2AC8
330
2655
100
AcDbEntity
  8
TEXT
100
AcDbText
 10
11.84389884255093
 20
1.593210246027054
 30
0.0
 40
0.0522247191011236
  1
Stylmark  Incorporated
 41
1.221428571428571
 72
     5
 11
13.17283142682059
 21
1.593210246027054
 31
0.0
100
AcDbText
  0
TEXT
  5
2AC9
330
2655
100
AcDbEntity
  8
TEXT
100
AcDbText
 10
11.84389884255093
 20
1.499951819060762
 30
0.0
 40
0.0522247191011236
  1
6536 Main St. N.E. * P.O. Box 32008
 41
0.8388932496075353
 72
     5
 11
13.17283142682059
 21
1.499951819060762
 31
0.0
100
AcDbText
  0
TEXT
  5
2ACA
330
2655
100
AcDbEntity
  8
TEXT
100
AcDbText
 10
11.84389884255093
 20
1.40669339209447
 30
0.0
 40
0.0522247191011236
  1
Minneapolis, MN 55432-0008
 41
1.11444212721585
 72
     5
 11
13.17283142682059
 21
1.40669339209447
 31
0.0
100
AcDbText
  0
LINE
  5
2ACB
330
2655
100
AcDbEntity
  8
TEXT
100
AcDbLine
 10
11.538810155768
 20
1.645744822205085
 30
0.0
 11
11.47049527721873
 21
1.645744822205085
 31
0.0
  0
LINE
  5
2ACC
330
2655
100
AcDbEntity
  8
TEXT
100
AcDbLine
 10
11.47497516454523
 20
1.313807583448974
 30
0.0
 11
11.53935334886385
 21
1.313807583448974
 31
0.0
  0
LINE
  5
2ACD
330
2655
100
AcDbEntity
  8
TEXT
100
AcDbLine
 10
11.47497516454522
 20
1.516003921780719
 30
0.0
 11
11.47497516454523
 21
1.313807583448974
 31
0.0
  0
LINE
  5
2ACE
330
2655
100
AcDbEntity
  8
TEXT
100
AcDbLine
 10
11.37342130797001
 20
1.313807583448974
 30
0.0
 11
11.37342130797
 21
1.491098088880442
 31
0.0
  0
LWPOLYLINE
  5
2ACF
330
2655
100
AcDbEntity
  8
TEXT
100
AcDbPolyline
 90
        2
 70
     0
 43
0.0
 10
11.31506609413467
 20
1.357298528399412
 42
-0.2901071551932486
 10
11.27199016126703
 20
1.313807583448974
 42
-5.328517124445184
  0
LWPOLYLINE
  5
2AD0
330
2655
100
AcDbEntity
  8
TEXT
100
AcDbPolyline
 90
        4
 70
     1
 43
0.0
 10
11.25186769619713
 20
1.416771561432999
 10
11.16320737753728
 20
1.416771561432999
 42
0.9999999999999998
 10
11.16320737753728
 20
1.374373020929138
 10
11.25186769619713
 20
1.374373020929138
 42
1.0
  0
LWPOLYLINE
  5
2AD1
330
2655
100
AcDbEntity
  8
TEXT
100
AcDbPolyline
 90
        2
 70
     0
 43
0.0
 10
11.13797274363565
 20
1.313807583448974
 10
11.27199016126703
 20
1.313807583448974
 42
0.9999999999999998
  0
LWPOLYLINE
  5
2AD2
330
2655
100
AcDbEntity
  8
TEXT
100
AcDbPolyline
 90
        2
 70
     0
 43
0.0
 10
11.09489681076802
 20
1.357298528399412
 42
0.2901071551932823
 10
11.13797274363565
 20
1.313807583448974
 42
5.328517124445801
  0
LWPOLYLINE
  5
2AD3
330
2655
100
AcDbEntity
  8
TEXT
100
AcDbPolyline
 90
        2
 70
     0
 43
0.0
 10
11.31506609413467
 20
1.357298528399412
 10
11.31506609413467
 20
1.313807583448974
  0
LWPOLYLINE
  5
2AD4
330
2655
100
AcDbEntity
  8
TEXT
100
AcDbPolyline
 90
        2
 70
     0
 43
0.0
 10
11.31506609413467
 20
1.313807583448974
 10
11.37342130797001
 20
1.313807583448974
  0
LINE
  5
2AD5
330
2655
100
AcDbEntity
  8
TEXT
100
AcDbLine
 10
11.31112641682963
 20
1.475068637884057
 30
0.0
 11
11.26737564564773
 21
1.557318913880203
 31
0.0
  0
LINE
  5
2AD6
330
2655
100
AcDbEntity
  8
TEXT
100
AcDbLine
 10
11.20313557961011
 20
1.516003921780719
 30
0.0
 11
11.09592930622282
 21
1.516003921780719
 31
0.0
  0
LINE
  5
2AD7
330
2655
100
AcDbEntity
  8
TEXT
100
AcDbLine
 10
11.15664866513085
 20
1.478728948318587
 30
0.0
 11
11.23893665491424
 21
1.478728948318587
 31
0.0
  0
LINE
  5
2AD8
330
2655
100
AcDbEntity
  8
TEXT
100
AcDbLine
 10
11.23216647795459
 20
1.580280616437485
 30
0.0
 11
11.09733456873753
 21
1.580280616437485
 31
0.0
  0
LINE
  5
2AD9
330
2655
100
AcDbEntity
  8
TEXT
100
AcDbLine
 10
11.09592930622282
 20
1.516003921780719
 30
0.0
 11
11.09592930622282
 21
1.440951515706513
 31
0.0
  0
ARC
  5
2ADA
330
2655
100
AcDbEntity
  8
TEXT
100
AcDbCircle
 10
11.15664866513085
 20
1.411043367174468
 30
0.0
 40
0.0676855811441166
100
AcDbArc
 50
90.0
 51
153.7768192527749
  0
LINE
  5
2ADB
330
2655
100
AcDbEntity
  8
TEXT
100
AcDbLine
 10
11.09733456873753
 20
1.580280616437485
 30
0.0
 11
11.09733456873753
 21
1.551958070667841
 31
0.0
  0
LWPOLYLINE
  5
2ADC
330
2655
100
AcDbEntity
  8
TEXT
100
AcDbPolyline
 90
        2
 70
     0
 43
0.0
 10
11.06155287802437
 20
1.580280616437488
 42
-0.3277054968067132
 10
11.09733456873753
 20
1.551958070667844
 42
6.667889725900311
  0
ARC
  5
2ADD
330
2655
100
AcDbEntity
  8
TEXT
100
AcDbCircle
 10
11.20313557961011
 20
1.487644546780722
 30
0.0
 40
0.028359375
100
AcDbArc
 50
25.78218179591245
 51
90.0
  0
LINE
  5
2ADE
330
2655
100
AcDbEntity
  8
TEXT
100
AcDbLine
 10
11.23893665491424
 20
1.478728948318587
 30
0.0
 11
11.22867189450067
 21
1.499979487891281
 31
0.0
  0
ARC
  5
2ADF
330
2655
100
AcDbEntity
  8
TEXT
100
AcDbCircle
 10
11.23013953817752
 20
1.538697049316582
 30
0.0
 40
0.0416329381542859
100
AcDbArc
 50
26.56974201007528
 51
87.20939649401342
  0
LINE
  5
2AE0
330
2655
100
AcDbEntity
  8
TEXT
100
AcDbLine
 10
11.47049527721873
 20
1.645744822205085
 30
0.0
 11
11.47049527721872
 21
1.580280616437485
 31
0.0
  0
LINE
  5
2AE1
330
2655
100
AcDbEntity
  8
TEXT
100
AcDbLine
 10
11.47049527721872
 20
1.580280616437485
 30
0.0
 11
11.40299555956921
 21
1.580280616437485
 31
0.0
  0
LINE
  5
2AE2
330
2655
100
AcDbEntity
  8
TEXT
100
AcDbLine
 10
11.39832718325267
 20
1.516003921780719
 30
0.0
 11
11.47497516454522
 21
1.516003921780719
 31
0.0
  0
LINE
  5
2AE3
330
2655
100
AcDbEntity
  8
TEXT
100
AcDbLine
 10
11.37502332312913
 20
1.55273296657661
 30
0.0
 11
11.37502332312913
 21
1.580280616437485
 31
0.0
  0
ARC
  5
2AE4
330
2655
100
AcDbEntity
  8
TEXT
100
AcDbCircle
 10
11.40621614019224
 20
1.54903488915522
 30
0.0
 40
0.0314112657011332
100
AcDbArc
 50
95.88484768694724
 51
173.2388340632136
  0
ARC
  5
2AE5
330
2655
100
AcDbEntity
  8
TEXT
100
AcDbCircle
 10
11.39832718325267
 20
1.491098046498056
 30
0.0
 40
0.0249058752826653
100
AcDbArc
 50
89.99971217465335
 51
179.9999999999985
  0
LINE
  5
2AE6
330
2655
100
AcDbEntity
  8
TEXT
100
AcDbLine
 10
11.31112641682963
 20
1.580280616437485
 30
0.0
 11
11.31112641682963
 21
1.475068637884057
 31
0.0
  0
LINE
  5
2AE7
330
2655
100
AcDbEntity
  8
TEXT
100
AcDbLine
 10
11.37502332312913
 20
1.580280616437485
 30
0.0
 11
11.31112641682963
 21
1.580280616437485
 31
0.0
  0
LINE
  5
2AE8
330
2655
100
AcDbEntity
  8
TEXT
100
AcDbLine
 10
11.53935334886385
 20
1.445387151925154
 30
0.0
 11
11.61525688207531
 21
1.313807583448974
 31
0.0
  0
LINE
  5
2AE9
330
2655
100
AcDbEntity
  8
TEXT
100
AcDbLine
 10
11.53935334886385
 20
1.313807583448974
 30
0.0
 11
11.53935334886385
 21
1.445387151925154
 31
0.0
  0
LINE
  5
2AEA
330
2655
100
AcDbEntity
  8
TEXT
100
AcDbLine
 10
11.69183525445152
 20
1.313807583448974
 30
0.0
 11
11.59634303108791
 21
1.470387373496511
 31
0.0
  0
LINE
  5
2AEB
330
2655
100
AcDbEntity
  8
TEXT
100
AcDbLine
 10
11.61525688207531
 20
1.313807583448974
 30
0.0
 11
11.69183525445152
 21
1.313807583448974
 31
0.0
  0
LINE
  5
2AEC
330
2655
100
AcDbEntity
  8
TEXT
100
AcDbLine
 10
11.538810155768
 20
1.504415290025947
 30
0.0
 11
11.538810155768
 21
1.645744822205085
 31
0.0
  0
LINE
  5
2AED
330
2655
100
AcDbEntity
  8
TEXT
100
AcDbLine
 10
11.66090014705362
 20
1.580280616437485
 30
0.0
 11
11.58590831432399
 21
1.580280616437485
 31
0.0
  0
LINE
  5
2AEE
330
2655
100
AcDbEntity
  8
TEXT
100
AcDbLine
 10
11.59634303108791
 20
1.470387373496511
 30
0.0
 11
11.66090014705362
 21
1.580280616437485
 31
0.0
  0
LINE
  5
2AEF
330
2655
100
AcDbEntity
  8
TEXT
100
AcDbLine
 10
11.58590831432399
 20
1.580280616437485
 30
0.0
 11
11.538810155768
 21
1.504415290025947
 31
0.0
  0
ENDSEC
  0
SECTION
  2
OBJECTS
  0
DICTIONARY
  5
2649
330
0
100
AcDbDictionary
  3
ACAD_GROUP
350
264A
  3
ACAD_LAYOUT
350
2AF4
  3
ACAD_MLINESTYLE
350
264B
  3
ACAD_PLOTSETTINGS
350
2AF5
  3
ACAD_PLOTSTYLENAME
350
2AF2
  3
ACDBHEADERROUNDTRIPXREC
350
2AFF
  3
ACDBVARIABLEDICTIONARY
350
2AFC
  0
DICTIONARY
  5
2B21
330
2655
100
AcDbDictionary
280
     1
  3
ACAD_LAYOUTSELFREF
360
2B22
  0
DICTIONARY
  5
2B1F
330
2652
100
AcDbDictionary
280
     1
  3
ACAD_LAYOUTSELFREF
360
2B20
  0
DICTIONARY
  5
264A
102
{ACAD_REACTORS
330
2649
102
}
330
2649
100
AcDbDictionary
  3
*A1
350
2677
  3
*A2
350
29E0
  0
DICTIONARY
  5
2AF4
102
{ACAD_REACTORS
330
2649
102
}
330
2649
100
AcDbDictionary
  0
DICTIONARY
  5
264B
102
{ACAD_REACTORS
330
2649
102
}
330
2649
100
AcDbDictionary
  3
STANDARD
350
2658
  0
DICTIONARY
  5
2AF5
102
{ACAD_REACTORS
330
2649
102
}
330
2649
100
AcDbDictionary
  0
ACDBDICTIONARYWDFLT
  5
2AF2
102
{ACAD_REACTORS
330
2649
102
}
330
2649
100
AcDbDictionary
281
     1
  3
Normal
350
2AF3
100
AcDbDictionaryWithDefault
340
2AF3
  0
DICTIONARY
  5
2AFF
102
{ACAD_REACTORS
330
2649
102
}
330
2649
100
AcDbDictionary
  3
CEPSNTYPE
350
2B09
  3
FINGERPRINTGUID
350
2B0A
  3
HYPERLINKBASE
350
2B02
  3
INSUNITS
350
2B08
  3
LAYOUTDICT
350
2B04
  3
LWETCUNION
350
2B07
  3
PLOTSETDICT
350
2B05
  3
PLOTSTYLNAMDICT
350
2B06
  3
PSVPSCALE
350
2B0C
  3
PUCSBASE
350
2B0F
  3
PUCSORGBACK
350
2B15
  3
PUCSORGBOTTOM
350
2B11
  3
PUCSORGFRONT
350
2B14
  3
PUCSORGLEFT
350
2B12
  3
PUCSORGRIGHT
350
2B13
  3
PUCSORGTOP
350
2B10
  3
PUCSORTHOREF
350
2B0D
  3
PUCSORTHOVIEW
350
2B0E
  3
STYLESHEET
350
2B03
  3
TSTACKALIGN
350
2B00
  3
TSTACKSIZE
350
2B01
  3
UCSBASE
350
2B18
  3
UCSORGBACK
350
2B1E
  3
UCSORGBOTTOM
350
2B1A
  3
UCSORGFRONT
350
2B1D
  3
UCSORGLEFT
350
2B1B
  3
UCSORGRIGHT
350
2B1C
  3
UCSORGTOP
350
2B19
  3
UCSORTHOREF
350
2B16
  3
UCSORTHOVIEW
350
2B17
  3
VERSIONGUID
350
2B0B
  0
DICTIONARY
  5
2AFC
102
{ACAD_REACTORS
330
2649
102
}
330
2649
100
AcDbDictionary
  3
DIMASSOC
350
2AFD
  0
XRECORD
  5
2B22
102
{ACAD_REACTORS
330
2B21
102
}
330
2B21
100
AcDbXrecord
340
2655
  0
XRECORD
  5
2B20
102
{ACAD_REACTORS
330
2B1F
102
}
330
2B1F
100
AcDbXrecord
340
2652
  0
GROUP
  5
2677
102
{ACAD_REACTORS
330
264A
102
}
330
264A
100
AcDbGroup
300
BORDER FRAME 10-1-95
 70
     3
 71
     1
  0
GROUP
  5
29E0
102
{ACAD_REACTORS
330
264A
102
}
330
264A
100
AcDbGroup
300

 70
     1
 71
     1
  0
MLINESTYLE
  5
2658
102
{ACAD_REACTORS
330
264B
102
}
330
264B
100
AcDbMlineStyle
  2
STANDARD
 70
     0
  3

 62
     0
 51
90.0
 52
90.0
 71
     2
 49
0.5
 62
   256
  6
BYLAYER
 49
-0.5
 62
   256
  6
BYLAYER
  0
ACDBPLACEHOLDER
  5
2AF3
102
{ACAD_REACTORS
330
2AF2
102
}
330
2AF2
100
AcDbPlaceHolder
280
     0
  0
XRECORD
  5
2B09
102
{ACAD_REACTORS
330
2AFF
102
}
330
2AFF
100
AcDbXrecord
 90
        0
  0
XRECORD
  5
2B0A
102
{ACAD_REACTORS
330
2AFF
102
}
330
2AFF
100
AcDbXrecord
  1
{C8F27810-8DB9-11D6-88E6-0090279574E7}
  0
XRECORD
  5
2B02
102
{ACAD_REACTORS
330
2AFF
102
}
330
2AFF
100
AcDbXrecord
  1

  0
XRECORD
  5
2B08
102
{ACAD_REACTORS
330
2AFF
102
}
330
2AFF
100
AcDbXrecord
 90
        0
  0
XRECORD
  5
2B04
102
{ACAD_REACTORS
330
2AFF
102
}
330
2AFF
100
AcDbXrecord
340
2AF4
  0
XRECORD
  5
2B07
102
{ACAD_REACTORS
330
2AFF
102
}
330
2AFF
100
AcDbXrecord
 90
    14877
  0
XRECORD
  5
2B05
102
{ACAD_REACTORS
330
2AFF
102
}
330
2AFF
100
AcDbXrecord
340
2AF5
  0
XRECORD
  5
2B06
102
{ACAD_REACTORS
330
2AFF
102
}
330
2AFF
100
AcDbXrecord
340
2AF2
  0
XRECORD
  5
2B0C
102
{ACAD_REACTORS
330
2AFF
102
}
330
2AFF
100
AcDbXrecord
 40
0.0
  0
XRECORD
  5
2B0F
102
{ACAD_REACTORS
330
2AFF
102
}
330
2AFF
100
AcDbXrecord
340
0
  0
XRECORD
  5
2B15
102
{ACAD_REACTORS
330
2AFF
102
}
330
2AFF
100
AcDbXrecord
 10
0.0
 20
0.0
 30
0.0
  0
XRECORD
  5
2B11
102
{ACAD_REACTORS
330
2AFF
102
}
330
2AFF
100
AcDbXrecord
 10
0.0
 20
0.0
 30
0.0
  0
XRECORD
  5
2B14
102
{ACAD_REACTORS
330
2AFF
102
}
330
2AFF
100
AcDbXrecord
 10
0.0
 20
0.0
 30
0.0
  0
XRECORD
  5
2B12
102
{ACAD_REACTORS
330
2AFF
102
}
330
2AFF
100
AcDbXrecord
 10
0.0
 20
0.0
 30
0.0
  0
XRECORD
  5
2B13
102
{ACAD_REACTORS
330
2AFF
102
}
330
2AFF
100
AcDbXrecord
 10
0.0
 20
0.0
 30
0.0
  0
XRECORD
  5
2B10
102
{ACAD_REACTORS
330
2AFF
102
}
330
2AFF
100
AcDbXrecord
 10
0.0
 20
0.0
 30
0.0
  0
XRECORD
  5
2B0D
102
{ACAD_REACTORS
330
2AFF
102
}
330
2AFF
100
AcDbXrecord
340
0
  0
XRECORD
  5
2B0E
102
{ACAD_REACTORS
330
2AFF
102
}
330
2AFF
100
AcDbXrecord
 70
     0
  0
XRECORD
  5
2B03
102
{ACAD_REACTORS
330
2AFF
102
}
330
2AFF
100
AcDbXrecord
  1

  0
XRECORD
  5
2B00
102
{ACAD_REACTORS
330
2AFF
102
}
330
2AFF
100
AcDbXrecord
 90
        1
  0
XRECORD
  5
2B01
102
{ACAD_REACTORS
330
2AFF
102
}
330
2AFF
100
AcDbXrecord
 90
       70
  0
XRECORD
  5
2B18
102
{ACAD_REACTORS
330
2AFF
102
}
330
2AFF
100
AcDbXrecord
340
0
  0
XRECORD
  5
2B1E
102
{ACAD_REACTORS
330
2AFF
102
}
330
2AFF
100
AcDbXrecord
 10
0.0
 20
0.0
 30
0.0
  0
XRECORD
  5
2B1A
102
{ACAD_REACTORS
330
2AFF
102
}
330
2AFF
100
AcDbXrecord
 10
0.0
 20
0.0
 30
0.0
  0
XRECORD
  5
2B1D
102
{ACAD_REACTORS
330
2AFF
102
}
330
2AFF
100
AcDbXrecord
 10
0.0
 20
0.0
 30
0.0
  0
XRECORD
  5
2B1B
102
{ACAD_REACTORS
330
2AFF
102
}
330
2AFF
100
AcDbXrecord
 10
0.0
 20
0.0
 30
0.0
  0
XRECORD
  5
2B1C
102
{ACAD_REACTORS
330
2AFF
102
}
330
2AFF
100
AcDbXrecord
 10
0.0
 20
0.0
 30
0.0
  0
XRECORD
  5
2B19
102
{ACAD_REACTORS
330
2AFF
102
}
330
2AFF
100
AcDbXrecord
 10
0.0
 20
0.0
 30
0.0
  0
XRECORD
  5
2B16
102
{ACAD_REACTORS
330
2AFF
102
}
330
2AFF
100
AcDbXrecord
340
0
  0
XRECORD
  5
2B17
102
{ACAD_REACTORS
330
2AFF
102
}
330
2AFF
100
AcDbXrecord
 70
     0
  0
XRECORD
  5
2B0B
102
{ACAD_REACTORS
330
2AFF
102
}
330
2AFF
100
AcDbXrecord
  1
{C8F27812-8DB9-11D6-88E6-0090279574E7}
  0
DICTIONARYVAR
  5
2AFD
102
{ACAD_REACTORS
330
2AFC
102
}
330
2AFC
100
DictionaryVariables
280
     0
  1
1
  0
ENDSEC
  0
EOF
