  0
SECTION
  2
HEADER
  9
$ACADVER
  1
AC1014
  9
$ACADMAINTVER
 70
     9
  9
$DWGCODEPAGE
  3
ANSI_1252
  9
$INSBASE
 10
1.596417272710965
 20
1.713197957168441
 30
0.0
  9
$EXTMIN
 10
0.0344574469270784
 20
0.0264105372536197
 30
0.0
  9
$EXTMAX
 10
3.519676768674206
 20
1.869426724068173
 30
0.0
  9
$LIMMIN
 10
0.0
 20
0.0
  9
$LIMMAX
 10
18.0
 20
12.0
  9
$ORTHOMODE
 70
     0
  9
$REGENMODE
 70
     1
  9
$FILLMODE
 70
     1
  9
$QTEXTMODE
 70
     0
  9
$MIRRTEXT
 70
     0
  9
$DRAGMODE
 70
     2
  9
$LTSCALE
 40
1.0
  9
$OSMODE
 70
    39
  9
$ATTMODE
 70
     1
  9
$TEXTSIZE
 40
0.125
  9
$TRACEWID
 40
0.05
  9
$TEXTSTYLE
  7
ROMANS
  9
$CLAYER
  8
0
  9
$CELTYPE
  6
BYLAYER
  9
$CECOLOR
 62
   256
  9
$CELTSCALE
 40
1.0
  9
$DELOBJ
 70
     1
  9
$DISPSILH
 70
     1
  9
$DIMSCALE
 40
1.0
  9
$DIMASZ
 40
0.125
  9
$DIMEXO
 40
0.125
  9
$DIMDLI
 40
0.375
  9
$DIMRND
 40
0.0
  9
$DIMDLE
 40
0.0
  9
$DIMEXE
 40
0.125
  9
$DIMTP
 40
0.0
  9
$DIMTM
 40
0.0
  9
$DIMTXT
 40
0.125
  9
$DIMCEN
 40
-0.125
  9
$DIMTSZ
 40
0.0
  9
$DIMTOL
 70
     0
  9
$DIMLIM
 70
     0
  9
$DIMTIH
 70
     1
  9
$DIMTOH
 70
     1
  9
$DIMSE1
 70
     0
  9
$DIMSE2
 70
     0
  9
$DIMTAD
 70
     0
  9
$DIMZIN
 70
     4
  9
$DIMBLK
  1

  9
$DIMASO
 70
     1
  9
$DIMSHO
 70
     1
  9
$DIMPOST
  1

  9
$DIMAPOST
  1

  9
$DIMALT
 70
     0
  9
$DIMALTD
 70
     2
  9
$DIMALTF
 40
25.4
  9
$DIMLFAC
 40
1.0
  9
$DIMTOFL
 70
     0
  9
$DIMTVP
 40
0.0
  9
$DIMTIX
 70
     1
  9
$DIMSOXD
 70
     0
  9
$DIMSAH
 70
     0
  9
$DIMBLK1
  1

  9
$DIMBLK2
  1

  9
$DIMSTYLE
  2
STANDARD
  9
$DIMCLRD
 70
     0
  9
$DIMCLRE
 70
     0
  9
$DIMCLRT
 70
     0
  9
$DIMTFAC
 40
1.0
  9
$DIMGAP
 40
0.09
  9
$DIMJUST
 70
     0
  9
$DIMSD1
 70
     0
  9
$DIMSD2
 70
     0
  9
$DIMTOLJ
 70
     1
  9
$DIMTZIN
 70
     4
  9
$DIMALTZ
 70
     0
  9
$DIMALTTZ
 70
     0
  9
$DIMFIT
 70
     3
  9
$DIMUPT
 70
     0
  9
$DIMUNIT
 70
     2
  9
$DIMDEC
 70
     3
  9
$DIMTDEC
 70
     3
  9
$DIMALTU
 70
     2
  9
$DIMALTTD
 70
     2
  9
$DIMTXSTY
  7
ROMANS
  9
$DIMAUNIT
 70
     0
  9
$LUNITS
 70
     2
  9
$LUPREC
 70
     3
  9
$SKETCHINC
 40
0.1
  9
$FILLETRAD
 40
0.03125
  9
$AUNITS
 70
     0
  9
$AUPREC
 70
     0
  9
$MENU
  1
ACAD
  9
$ELEVATION
 40
0.0
  9
$PELEVATION
 40
0.0
  9
$THICKNESS
 40
0.0
  9
$LIMCHECK
 70
     0
  9
$BLIPMODE
 70
     0
  9
$CHAMFERA
 40
0.0
  9
$CHAMFERB
 40
0.0
  9
$CHAMFERC
 40
0.0
  9
$CHAMFERD
 40
0.0
  9
$SKPOLY
 70
     0
  9
$TDCREATE
 40
2448994.697860069
  9
$TDUPDATE
 40
2452458.324165174
  9
$TDINDWG
 40
0.0030380440
  9
$TDUSRTIMER
 40
0.0030380440
  9
$USRTIMER
 70
     1
  9
$ANGBASE
 50
0.0
  9
$ANGDIR
 70
     0
  9
$PDMODE
 70
     0
  9
$PDSIZE
 40
0.0
  9
$PLINEWID
 40
0.0
  9
$COORDS
 70
     2
  9
$SPLFRAME
 70
     0
  9
$SPLINETYPE
 70
     6
  9
$SPLINESEGS
 70
     8
  9
$ATTDIA
 70
     0
  9
$ATTREQ
 70
     1
  9
$HANDLING
 70
 22529
  9
$HANDSEED
  5
7DE1B343D9E2DE3
  9
$SURFTAB1
 70
     6
  9
$SURFTAB2
 70
     6
  9
$SURFTYPE
 70
     6
  9
$SURFU
 70
     6
  9
$SURFV
 70
     6
  9
$UCSNAME
  2

  9
$UCSORG
 10
0.0
 20
0.0
 30
0.0
  9
$UCSXDIR
 10
1.0
 20
0.0
 30
0.0
  9
$UCSYDIR
 10
0.0
 20
1.0
 30
0.0
  9
$PUCSNAME
  2

  9
$PUCSORG
 10
0.0
 20
0.0
 30
0.0
  9
$PUCSXDIR
 10
1.0
 20
0.0
 30
0.0
  9
$PUCSYDIR
 10
0.0
 20
1.0
 30
0.0
  9
$USERI1
 70
     0
  9
$USERI2
 70
     0
  9
$USERI3
 70
     0
  9
$USERI4
 70
     0
  9
$USERI5
 70
     0
  9
$USERR1
 40
0.0
  9
$USERR2
 40
0.0
  9
$USERR3
 40
0.0
  9
$USERR4
 40
0.0
  9
$USERR5
 40
0.0
  9
$WORLDVIEW
 70
     1
  9
$SHADEDGE
 70
     3
  9
$SHADEDIF
 70
    70
  9
$TILEMODE
 70
     1
  9
$MAXACTVP
 70
    16
  9
$PINSBASE
 10
0.8561294839525006
 20
50.00000000000001
 30
1.356707300744701
  9
$PLIMCHECK
 70
     0
  9
$PEXTMIN
 10
1.000000000000000E+20
 20
1.000000000000000E+20
 30
1.000000000000000E+20
  9
$PEXTMAX
 10
-1.000000000000000E+20
 20
-1.000000000000000E+20
 30
-1.000000000000000E+20
  9
$PLIMMIN
 10
0.0
 20
0.0
  9
$PLIMMAX
 10
12.0
 20
9.0
  9
$UNITMODE
 70
     0
  9
$VISRETAIN
 70
     0
  9
$PLINEGEN
 70
     1
  9
$PSLTSCALE
 70
     0
  9
$TREEDEPTH
 70
  3020
  9
$PICKSTYLE
 70
     1
  9
$CMLSTYLE
  2
STANDARD
  9
$CMLJUST
 70
     0
  9
$CMLSCALE
 40
1.0
  9
$PROXYGRAPHICS
 70
     1
  9
$MEASUREMENT
 70
     0
  0
ENDSEC
  0
SECTION
  2
CLASSES
  0
CLASS
  1
LWPOLYLINE
  2
AcDbPolyline
  3
AutoCAD 2000
 90
        0
280
     0
281
     1
  0
CLASS
  1
ACDBDICTIONARYWDFLT
  2
AcDbDictionaryWithDefault
  3
AutoCAD 2000
 90
        0
280
     0
281
     0
  0
CLASS
  1
ACDBPLACEHOLDER
  2
AcDbPlaceHolder
  3
AutoCAD 2000
 90
        0
280
     0
281
     0
  0
CLASS
  1
LAYOUT
  2
AcDbLayout
  3
AutoCAD 2000
 90
        0
280
     0
281
     0
  0
CLASS
  1
DICTIONARYVAR
  2
AcDbDictionaryVar
  3
AutoCAD 2000
 90
        0
280
     0
281
     0
  0
CLASS
  1
LONG_TRANSACTION
  2
AcDbLongTransaction
  3
AutoCAD 2000
 90
        0
280
     0
281
     0
  0
CLASS
  1
LWPOLYLINE
  2
AcDbPolyline
  3
AutoCAD 2000
 90
        0
280
     0
281
     1
  0
CLASS
  1
HATCH
  2
AcDbHatch
  3
AutoCAD 2000
 90
        0
280
     0
281
     1
  0
CLASS
  1
XRECORD
  2
AcDbXrecord
  3
AutoCAD 2000
 90
        0
280
     0
281
     0
  0
ENDSEC
  0
SECTION
  2
TABLES
  0
TABLE
  2
VPORT
  5
7DE1B343D9E2B04
330
0
100
AcDbSymbolTable
 70
     2
  0
VPORT
  5
7DE1B343D9E2DBE
330
7DE1B343D9E2B04
100
AcDbSymbolTableRecord
100
AcDbViewportTableRecord
  2
*ACTIVE
 70
     0
 10
0.0
 20
0.0
 11
1.0
 21
1.0
 12
4.75351222585996
 22
0.948120139246015
 13
0.0
 23
0.0
 14
0.015625
 24
0.015625
 15
0.0
 25
0.0
 16
0.0
 26
0.0
 36
1.0
 17
0.0
 27
0.0
 37
0.0
 40
2.282647215150728
 41
4.320930232558139
 42
50.0
 43
0.0
 44
0.0
 50
0.0
 51
0.0
 71
     0
 72
  2000
 73
     1
 74
     0
 75
     0
 76
     0
 77
     0
 78
     0
  0
ENDTAB
  0
TABLE
  2
LTYPE
  5
7DE1B343D9E2B01
330
0
100
AcDbSymbolTable
 70
     1
  0
LTYPE
  5
7DE1B343D9E2B0E
330
7DE1B343D9E2B01
100
AcDbSymbolTableRecord
100
AcDbLinetypeTableRecord
  2
BYBLOCK
 70
     0
  3

 72
    65
 73
     0
 40
0.0
  0
LTYPE
  5
7DE1B343D9E2B0F
330
7DE1B343D9E2B01
100
AcDbSymbolTableRecord
100
AcDbLinetypeTableRecord
  2
BYLAYER
 70
     0
  3

 72
    65
 73
     0
 40
0.0
  0
LTYPE
  5
7DE1B343D9E2B10
330
7DE1B343D9E2B01
100
AcDbSymbolTableRecord
100
AcDbLinetypeTableRecord
  2
CONTINUOUS
 70
     0
  3
Solid line
 72
    65
 73
     0
 40
0.0
  0
ENDTAB
  0
TABLE
  2
LAYER
  5
7DE1B343D9E2AFE
330
0
100
AcDbSymbolTable
 70
     2
  0
LAYER
  5
7DE1B343D9E2B0B
330
7DE1B343D9E2AFE
100
AcDbSymbolTableRecord
100
AcDbLayerTableRecord
  2
0
 70
     0
 62
     7
  6
CONTINUOUS
  0
LAYER
  5
7DE1B343D9E2B1B
330
7DE1B343D9E2AFE
100
AcDbSymbolTableRecord
100
AcDbLayerTableRecord
  2
TEXT
 70
     0
 62
     3
  6
CONTINUOUS
  0
ENDTAB
  0
TABLE
  2
STYLE
  5
7DE1B343D9E2AFF
330
0
100
AcDbSymbolTable
 70
     3
  0
STYLE
  5
7DE1B343D9E2B0C
330
7DE1B343D9E2AFF
100
AcDbSymbolTableRecord
100
AcDbTextStyleTableRecord
  2
STANDARD
 70
     0
 40
0.0
 41
1.0
 50
0.0
 71
     0
 42
0.3125
  3
txt
  4

  0
STYLE
  5
7DE1B343D9E2B18
330
7DE1B343D9E2AFF
100
AcDbSymbolTableRecord
100
AcDbTextStyleTableRecord
  2
ITALICC
 70
     0
 40
0.0
 41
1.0
 50
0.0
 71
     0
 42
0.125
  3
italicc
  4

  0
STYLE
  5
7DE1B343D9E2B28
330
7DE1B343D9E2AFF
100
AcDbSymbolTableRecord
100
AcDbTextStyleTableRecord
  2
ROMANS
 70
     0
 40
0.0
 41
1.0
 50
0.0
 71
     0
 42
0.125
  3
romans.shx
  4

  0
ENDTAB
  0
TABLE
  2
VIEW
  5
7DE1B343D9E2B02
330
0
100
AcDbSymbolTable
 70
     0
  0
ENDTAB
  0
TABLE
  2
UCS
  5
7DE1B343D9E2B03
330
0
100
AcDbSymbolTable
 70
     0
  0
ENDTAB
  0
TABLE
  2
APPID
  5
7DE1B343D9E2B05
330
0
100
AcDbSymbolTable
 70
     1
  0
APPID
  5
7DE1B343D9E2B0D
330
7DE1B343D9E2B05
100
AcDbSymbolTableRecord
100
AcDbRegAppTableRecord
  2
ACAD
 70
     0
  0
ENDTAB
  0
TABLE
  2
DIMSTYLE
  5
7DE1B343D9E2B06
330
0
100
AcDbSymbolTable
 70
     1
  0
DIMSTYLE
105
7DE1B343D9E2B20
330
7DE1B343D9E2B06
100
AcDbSymbolTableRecord
100
AcDbDimStyleTableRecord
  2
STANDARD
 70
     0
  3

  4

  5

  6

  7

 40
1.0
 41
0.125
 42
0.125
 43
0.375
 44
0.125
 45
0.0
 46
0.0
 47
0.0
 48
0.0
140
0.125
141
-0.125
142
0.0
143
25.4
144
1.0
145
0.0
146
1.0
147
0.09
 71
     0
 72
     0
 73
     1
 74
     1
 75
     0
 76
     0
 77
     0
 78
     4
170
     0
171
     2
172
     0
173
     0
174
     1
175
     0
176
     0
177
     0
178
     0
270
     2
271
     3
272
     3
273
     2
274
     2
340
7DE1B343D9E2B28
275
     0
280
     0
281
     0
282
     0
283
     1
284
     4
285
     0
286
     0
287
     3
288
     0
  0
ENDTAB
  0
TABLE
  2
BLOCK_RECORD
  5
7DE1B343D9E2AFD
330
0
100
AcDbSymbolTable
 70
     0
  0
BLOCK_RECORD
  5
7DE1B343D9E2B14
102
{ACAD_XDICTIONARY
360
7DE1B343D9E2DE1
102
}
330
7DE1B343D9E2AFD
100
AcDbSymbolTableRecord
100
AcDbBlockTableRecord
  2
*MODEL_SPACE
  0
BLOCK_RECORD
  5
7DE1B343D9E2B11
102
{ACAD_XDICTIONARY
360
7DE1B343D9E2DDF
102
}
330
7DE1B343D9E2AFD
100
AcDbSymbolTableRecord
100
AcDbBlockTableRecord
  2
*PAPER_SPACE
  0
ENDTAB
  0
ENDSEC
  0
SECTION
  2
BLOCKS
  0
BLOCK
  5
7DE1B343D9E2B1E
330
7DE1B343D9E2B14
100
AcDbEntity
  8
0
100
AcDbBlockBegin
  2
*MODEL_SPACE
 70
     0
 10
0.0
 20
0.0
 30
0.0
  3
*MODEL_SPACE
  1

  0
ENDBLK
  5
7DE1B343D9E2B1F
330
7DE1B343D9E2B14
100
AcDbEntity
  8
0
100
AcDbBlockEnd
  0
BLOCK
  5
7DE1B343D9E2B1C
330
7DE1B343D9E2B11
100
AcDbEntity
 67
     1
  8
0
100
AcDbBlockBegin
  2
*PAPER_SPACE
 70
     0
 10
0.0
 20
0.0
 30
0.0
  3
*PAPER_SPACE
  1

  0
ENDBLK
  5
7DE1B343D9E2B1D
330
7DE1B343D9E2B11
100
AcDbEntity
 67
     1
  8
0
100
AcDbBlockEnd
  0
ENDSEC
  0
SECTION
  2
ENTITIES
  0
TEXT
  5
7DE1B343D9E29BF
330
7DE1B343D9E2B14
100
AcDbEntity
  8
TEXT
100
AcDbText
 10
1.024462835678031
 20
0.4844291413362013
 30
0.0
 40
0.125
  1
PART #120074
  7
ITALICC
 72
     1
 11
1.777439026154221
 21
0.4844291413362013
 31
0.0
100
AcDbText
  0
TEXT
  5
7DE1B343D9E29C0
330
7DE1B343D9E2B14
100
AcDbEntity
  8
TEXT
100
AcDbText
 10
2.190744184404542
 20
0.0375064986638261
 30
0.0
 40
0.0522247191011236
  1
Phone  1-800-328-2495
 41
1.272321428571429
 72
     5
 11
3.519676768674206
 21
0.0375064986638261
 31
0.0
100
AcDbText
  0
TEXT
  5
7DE1B343D9E29C1
330
7DE1B343D9E2B14
100
AcDbEntity
  8
TEXT
100
AcDbText
 10
2.190744184404542
 20
0.3172817795627026
 30
0.0
 40
0.0522247191011236
  1
Stylmark  Incorporated
 41
1.221428571428571
 72
     5
 11
3.519676768674206
 21
0.3172817795627026
 31
0.0
100
AcDbText
  0
TEXT
  5
7DE1B343D9E29C2
330
7DE1B343D9E2B14
100
AcDbEntity
  8
TEXT
100
AcDbText
 10
2.190744184404542
 20
0.2240233525964104
 30
0.0
 40
0.0522247191011236
  1
6536 Main St. N.E. * P.O. Box 32008
 41
0.8388932496075355
 72
     5
 11
3.519676768674206
 21
0.2240233525964104
 31
0.0
100
AcDbText
  0
TEXT
  5
7DE1B343D9E29C3
330
7DE1B343D9E2B14
100
AcDbEntity
  8
TEXT
100
AcDbText
 10
2.190744184404542
 20
0.1307649256301183
 30
0.0
 40
0.0522247191011236
  1
Minneapolis, MN 55432-0008
 41
1.11444212721585
 72
     5
 11
3.519676768674206
 21
0.1307649256301183
 31
0.0
100
AcDbText
  0
LWPOLYLINE
  5
7DE1B343D9E29C4
330
7DE1B343D9E2B14
100
AcDbEntity
  8
TEXT
100
AcDbPolyline
 90
        3
 70
     0
 43
0.0006660908203125
 10
0.0347904923372346
 20
0.1511512613012609
 10
0.0347904923372346
 20
0.0379158218481333
 10
0.1480259317903569
 20
0.0379158218481333
  0
LWPOLYLINE
  5
7DE1B343D9E29C9
330
7DE1B343D9E2B14
100
AcDbEntity
  8
TEXT
100
AcDbPolyline
 90
        3
 70
     0
 43
0.0006660908203125
 10
0.0614341251497321
 20
0.1511512613012609
 10
0.0614341251497321
 20
0.0645594546606344
 10
0.1480259317903569
 20
0.0645594546606344
  0
LWPOLYLINE
  5
7DE1B343D9E29CE
330
7DE1B343D9E2B14
100
AcDbEntity
  8
TEXT
100
AcDbPolyline
 90
        2
 70
     0
 43
0.0001332181640625
 10
0.1080604825716089
 20
0.1611426236059462
 10
0.0347904923372346
 20
0.1511512613012609
  0
LWPOLYLINE
  5
7DE1B343D9E29D2
330
7DE1B343D9E2B14
100
AcDbEntity
  8
TEXT
100
AcDbPolyline
 90
        2
 70
     0
 43
0.0001332181640625
 10
0.0614341251497321
 20
0.1511512613012609
 10
0.1213822989778595
 20
0.1611426236059462
  0
LWPOLYLINE
  5
7DE1B343D9E29D6
330
7DE1B343D9E2B14
100
AcDbEntity
  8
TEXT
100
AcDbPolyline
 90
        2
 70
     0
 43
0.0001332181640625
 10
0.0614341251497321
 20
0.0645594546606344
 10
0.1213822989778595
 20
0.1245076284887599
  0
LWPOLYLINE
  5
7DE1B343D9E29DA
330
7DE1B343D9E2B14
100
AcDbEntity
  8
TEXT
100
AcDbPolyline
 90
        3
 70
     0
 43
0.0006660908203125
 10
0.1480259317903569
 20
0.3043521499731366
 10
0.0347904923372346
 20
0.3043521499731366
 10
0.0347904923372346
 20
0.1911167105200089
  0
LWPOLYLINE
  5
7DE1B343D9E29DF
330
7DE1B343D9E2B14
100
AcDbEntity
  8
TEXT
100
AcDbPolyline
 90
        3
 70
     0
 43
0.0006660908203125
 10
0.1480259317903569
 20
0.2777085171606355
 10
0.0614341251497321
 20
0.2777085171606355
 10
0.0614341251497321
 20
0.1911167105200089
  0
LWPOLYLINE
  5
7DE1B343D9E29E4
330
7DE1B343D9E2B14
100
AcDbEntity
  8
TEXT
100
AcDbPolyline
 90
        2
 70
     0
 43
0.0001332181640625
 10
0.0614341251497321
 20
0.2777085171606355
 10
0.1213822989778577
 20
0.21776034333251
  0
LWPOLYLINE
  5
7DE1B343D9E29E8
330
7DE1B343D9E2B14
100
AcDbEntity
  8
TEXT
100
AcDbPolyline
 90
        2
 70
     0
 43
0.0001332181640625
 10
0.0614341251497321
 20
0.1911167105200089
 10
0.1213822989778577
 20
0.1811253482153201
  0
LWPOLYLINE
  5
7DE1B343D9E29EC
330
7DE1B343D9E2B14
100
AcDbEntity
  8
TEXT
100
AcDbPolyline
 90
        2
 70
     0
 43
0.0001332181640625
 10
0.0347904923372346
 20
0.1911167105200089
 10
0.1080604825716089
 20
0.1811253482153201
  0
LWPOLYLINE
  5
7DE1B343D9E29F0
330
7DE1B343D9E2B14
100
AcDbEntity
  8
TEXT
100
AcDbPolyline
 90
        2
 70
     0
 43
0.0006660908203125
 10
0.0614341251497321
 20
0.1511512613012609
 10
0.0347904923372346
 20
0.1511512613012609
  0
LWPOLYLINE
  5
7DE1B343D9E29F4
330
7DE1B343D9E2B14
100
AcDbEntity
  8
TEXT
100
AcDbPolyline
 90
        2
 70
     0
 43
0.0006660908203125
 10
0.0614341251497321
 20
0.1911167105200089
 10
0.0347904923372346
 20
0.1911167105200089
  0
LINE
  5
7DE1B343D9E29F8
330
7DE1B343D9E2B14
100
AcDbEntity
  8
TEXT
100
AcDbLine
 10
1.549980921463732
 20
0.2400754553163676
 30
0.0
 11
1.442774648076442
 21
0.2400754553163676
 31
0.0
  0
LINE
  5
7DE1B343D9E29F9
330
7DE1B343D9E2B14
100
AcDbEntity
  8
TEXT
100
AcDbLine
 10
1.57901181980821
 20
0.304352149973133
 30
0.0
 11
1.444179910591151
 21
0.304352149973133
 31
0.0
  0
ARC
  5
7DE1B343D9E29FA
330
7DE1B343D9E2B14
100
AcDbEntity
  8
TEXT
100
AcDbCircle
 10
1.503494006984468
 20
0.1351149007101167
 30
0.0
 40
0.0676855811441166
100
AcDbArc
 50
90.0
 51
153.7768192527749
  0
LWPOLYLINE
  5
7DE1B343D9E29FB
330
7DE1B343D9E2B14
100
AcDbEntity
  8
TEXT
100
AcDbPolyline
 90
        2
 70
     0
 43
0.0
 10
1.441742152621632
 20
0.0813700619350602
 42
0.2901071551932823
 10
1.484818085489268
 20
0.0378791169846221
 42
5.328517124445801
  0
ARC
  5
7DE1B343D9E29FF
330
7DE1B343D9E2B14
100
AcDbEntity
  8
TEXT
100
AcDbCircle
 10
0.7983626293129827
 20
0.0976715083226719
 30
0.0
 40
0.0601160179737537
100
AcDbArc
 50
180.0000000000003
 51
264.0521544866073
  0
LINE
  5
7DE1B343D9E2A00
330
7DE1B343D9E2B14
100
AcDbEntity
  8
TEXT
100
AcDbLine
 10
0.8018779849385303
 20
0.3387400675672712
 30
0.0
 11
0.7418353800945235
 21
0.3387400675672712
 31
0.0
  0
ARC
  5
7DE1B343D9E2A01
330
7DE1B343D9E2B14
100
AcDbEntity
  8
TEXT
100
AcDbCircle
 10
0.5661036271960121
 20
0.2222646905266313
 30
0.0
 40
0.0820874594465043
100
AcDbArc
 50
90.0
 51
270.0
  0
LWPOLYLINE
  5
7DE1B343D9E2A02
330
7DE1B343D9E2B14
100
AcDbEntity
  8
TEXT
100
AcDbPolyline
 90
        2
 70
     0
 43
0.0001332181640625
 10
0.1580172940950475
 20
0.2310821597387569
 10
0.1480259317903569
 20
0.3043521499731366
  0
LWPOLYLINE
  5
7DE1B343D9E2A06
330
7DE1B343D9E2B14
100
AcDbEntity
  8
TEXT
100
AcDbPolyline
 90
        2
 70
     0
 43
0.0001332181640625
 10
0.1480259317903569
 20
0.2777085171606355
 10
0.1580172940950475
 20
0.21776034333251
  0
LWPOLYLINE
  5
7DE1B343D9E2A0A
330
7DE1B343D9E2B14
100
AcDbEntity
  8
TEXT
100
AcDbPolyline
 90
        3
 70
     0
 43
0.0006660908203125
 10
0.3012268204622344
 20
0.1911167105200089
 10
0.3012268204622344
 20
0.3043521499731366
 10
0.1879913810091085
 20
0.3043521499731366
  0
LWPOLYLINE
  5
7DE1B343D9E2A0F
330
7DE1B343D9E2B14
100
AcDbEntity
  8
TEXT
100
AcDbPolyline
 90
        3
 70
     0
 43
0.0006660908203125
 10
0.2745831876497333
 20
0.1911167105200089
 10
0.2745831876497333
 20
0.2777085171606355
 10
0.1879913810091085
 20
0.2777085171606355
  0
LWPOLYLINE
  5
7DE1B343D9E2A14
330
7DE1B343D9E2B14
100
AcDbEntity
  8
TEXT
100
AcDbPolyline
 90
        2
 70
     0
 43
0.0001332181640625
 10
0.2745831876497333
 20
0.2777085171606355
 10
0.2146350138216095
 20
0.21776034333251
  0
LWPOLYLINE
  5
7DE1B343D9E2A18
330
7DE1B343D9E2B14
100
AcDbEntity
  8
TEXT
100
AcDbPolyline
 90
        2
 70
     0
 43
0.0001332181640625
 10
0.1879913810091085
 20
0.2777085171606355
 10
0.1780000187044197
 20
0.21776034333251
  0
LWPOLYLINE
  5
7DE1B343D9E2A1C
330
7DE1B343D9E2B14
100
AcDbEntity
  8
TEXT
100
AcDbPolyline
 90
        2
 70
     0
 43
0.0001332181640625
 10
0.1879913810091085
 20
0.3043521499731366
 10
0.1780000187044197
 20
0.2310821597387569
  0
LWPOLYLINE
  5
7DE1B343D9E2A20
330
7DE1B343D9E2B14
100
AcDbEntity
  8
TEXT
100
AcDbPolyline
 90
        2
 70
     0
 43
0.0001332181640625
 10
0.2279568302278583
 20
0.1811253482153201
 10
0.3012268204622344
 20
0.1911167105200089
  0
LWPOLYLINE
  5
7DE1B343D9E2A24
330
7DE1B343D9E2B14
100
AcDbEntity
  8
TEXT
100
AcDbPolyline
 90
        2
 70
     0
 43
0.0001332181640625
 10
0.2745831876497333
 20
0.1911167105200089
 10
0.2146350138216095
 20
0.1811253482153201
  0
LWPOLYLINE
  5
7DE1B343D9E2A28
330
7DE1B343D9E2B14
100
AcDbEntity
  8
TEXT
100
AcDbPolyline
 90
        2
 70
     0
 43
0.0001332181640625
 10
0.3012268204622344
 20
0.1511512613012609
 10
0.2279568302278583
 20
0.1611426236059462
  0
LWPOLYLINE
  5
7DE1B343D9E2A2C
330
7DE1B343D9E2B14
100
AcDbEntity
  8
TEXT
100
AcDbPolyline
 90
        2
 70
     0
 43
0.0001332181640625
 10
0.2745831876497333
 20
0.1511512613012609
 10
0.2146350138216095
 20
0.1611426236059462
  0
LWPOLYLINE
  5
7DE1B343D9E2A30
330
7DE1B343D9E2B14
100
AcDbEntity
  8
TEXT
100
AcDbPolyline
 90
        2
 70
     0
 43
0.0001332181640625
 10
0.2745831876497333
 20
0.0645594546606344
 10
0.2146350138216095
 20
0.1245076284887599
  0
LWPOLYLINE
  5
7DE1B343D9E2A34
330
7DE1B343D9E2B14
100
AcDbEntity
  8
TEXT
100
AcDbPolyline
 90
        3
 70
     0
 43
0.0006660908203125
 10
0.1879913810091085
 20
0.0645594546606344
 10
0.2745831876497333
 20
0.0645594546606344
 10
0.2745831876497333
 20
0.1511512613012609
  0
LWPOLYLINE
  5
7DE1B343D9E2A39
330
7DE1B343D9E2B14
100
AcDbEntity
  8
TEXT
100
AcDbPolyline
 90
        3
 70
     0
 43
0.0006660908203125
 10
0.1879913810091085
 20
0.0379158218481333
 10
0.3012268204622344
 20
0.0379158218481333
 10
0.3012268204622344
 20
0.1511512613012609
  0
LWPOLYLINE
  5
7DE1B343D9E2A3E
330
7DE1B343D9E2B14
100
AcDbEntity
  8
TEXT
100
AcDbPolyline
 90
        5
 70
     0
 43
0.0001332181640625
 10
0.1580172940950475
 20
0.1111858120825094
 10
0.1580172940950475
 20
0.1245076284887599
 10
0.1213822989778595
 20
0.1245076284887599
 10
0.1213822989778595
 20
0.1611426236059462
 10
0.1080604825716089
 20
0.1611426236059462
  0
LWPOLYLINE
  5
7DE1B343D9E2A45
330
7DE1B343D9E2B14
100
AcDbEntity
  8
TEXT
100
AcDbPolyline
 90
        2
 70
     0
 43
0.0006660908203125
 10
0.1480259317903569
 20
0.0645594546606344
 10
0.1480259317903569
 20
0.0379158218481333
  0
LWPOLYLINE
  5
7DE1B343D9E2A49
330
7DE1B343D9E2B14
100
AcDbEntity
  8
TEXT
100
AcDbPolyline
 90
        2
 70
     0
 43
0.0001332181640625
 10
0.1480259317903569
 20
0.0645594546606344
 10
0.1580172940950475
 20
0.1245076284887599
  0
LWPOLYLINE
  5
7DE1B343D9E2A4D
330
7DE1B343D9E2B14
100
AcDbEntity
  8
TEXT
100
AcDbPolyline
 90
        2
 70
     0
 43
0.0001332181640625
 10
0.1480259317903569
 20
0.0379158218481333
 10
0.1580172940950475
 20
0.1111858120825094
  0
LWPOLYLINE
  5
7DE1B343D9E2A51
330
7DE1B343D9E2B14
100
AcDbEntity
  8
TEXT
100
AcDbPolyline
 90
        5
 70
     0
 43
0.0001332181640625
 10
0.1080604825716089
 20
0.1811253482153201
 10
0.1213822989778577
 20
0.1811253482153201
 10
0.1213822989778577
 20
0.21776034333251
 10
0.1580172940950475
 20
0.21776034333251
 10
0.1580172940950475
 20
0.2310821597387569
  0
LWPOLYLINE
  5
7DE1B343D9E2A58
330
7DE1B343D9E2B14
100
AcDbEntity
  8
TEXT
100
AcDbPolyline
 90
        5
 70
     0
 43
0.0001332181640625
 10
0.1780000187044197
 20
0.2310821597387569
 10
0.1780000187044197
 20
0.21776034333251
 10
0.2146350138216095
 20
0.21776034333251
 10
0.2146350138216095
 20
0.1811253482153201
 10
0.2279568302278583
 20
0.1811253482153201
  0
LWPOLYLINE
  5
7DE1B343D9E2A5F
330
7DE1B343D9E2B14
100
AcDbEntity
  8
TEXT
100
AcDbPolyline
 90
        2
 70
     0
 43
0.0001332181640625
 10
0.1879913810091085
 20
0.0645594546606344
 10
0.1780000187044197
 20
0.1245076284887599
  0
LWPOLYLINE
  5
7DE1B343D9E2A63
330
7DE1B343D9E2B14
100
AcDbEntity
  8
TEXT
100
AcDbPolyline
 90
        2
 70
     0
 43
0.0001332181640625
 10
0.1780000187044197
 20
0.1111858120825094
 10
0.1879913810091085
 20
0.0379158218481333
  0
LWPOLYLINE
  5
7DE1B343D9E2A67
330
7DE1B343D9E2B14
100
AcDbEntity
  8
TEXT
100
AcDbPolyline
 90
        2
 70
     0
 43
0.0006660908203125
 10
0.1879913810091085
 20
0.0645594546606344
 10
0.1879913810091085
 20
0.0379158218481333
  0
LWPOLYLINE
  5
7DE1B343D9E2A6B
330
7DE1B343D9E2B14
100
AcDbEntity
  8
TEXT
100
AcDbPolyline
 90
        5
 70
     0
 43
0.0001332181640625
 10
0.2279568302278583
 20
0.1611426236059462
 10
0.2146350138216095
 20
0.1611426236059462
 10
0.2146350138216095
 20
0.1245076284887599
 10
0.1780000187044197
 20
0.1245076284887599
 10
0.1780000187044197
 20
0.1111858120825094
  0
LWPOLYLINE
  5
7DE1B343D9E2A72
330
7DE1B343D9E2B14
100
AcDbEntity
  8
TEXT
100
AcDbPolyline
 90
        2
 70
     0
 43
0.0006660908203125
 10
0.2745831876497333
 20
0.1911167105200089
 10
0.3012268204622344
 20
0.1911167105200089
  0
LWPOLYLINE
  5
7DE1B343D9E2A76
330
7DE1B343D9E2B14
100
AcDbEntity
  8
TEXT
100
AcDbPolyline
 90
        2
 70
     0
 43
0.0006660908203125
 10
0.2745831876497333
 20
0.1511512613012609
 10
0.3012268204622344
 20
0.1511512613012609
  0
LINE
  5
7DE1B343D9E2A7A
330
7DE1B343D9E2B14
100
AcDbEntity
  8
TEXT
100
AcDbLine
 10
0.5713409573102593
 20
0.2400754553163676
 30
0.0
 11
0.7382466113392306
 21
0.2400754553163676
 31
0.0
  0
LINE
  5
7DE1B343D9E2A7B
330
7DE1B343D9E2B14
100
AcDbEntity
  8
TEXT
100
AcDbLine
 10
0.6369410935545603
 20
0.2042707337057397
 30
0.0
 11
0.5713409573102593
 21
0.2042707337057397
 31
0.0
  0
LINE
  5
7DE1B343D9E2A7C
330
7DE1B343D9E2B14
100
AcDbEntity
  8
TEXT
100
AcDbLine
 10
0.4840161677495077
 20
0.0378791169846221
 30
0.0
 11
0.6369410935545603
 21
0.0378791169846221
 31
0.0
  0
LINE
  5
7DE1B343D9E2A7D
330
7DE1B343D9E2B14
100
AcDbEntity
  8
TEXT
100
AcDbLine
 10
0.64188146746084
 20
0.1062361233180614
 30
0.0
 11
0.4840161677495059
 21
0.1062361233180614
 31
0.0
  0
LINE
  5
7DE1B343D9E2A7E
330
7DE1B343D9E2B14
100
AcDbEntity
  8
TEXT
100
AcDbLine
 10
0.5661036271960112
 20
0.140177231080126
 30
0.0
 11
0.64188146746084
 21
0.140177231080126
 31
0.0
  0
ARC
  5
7DE1B343D9E2A7F
330
7DE1B343D9E2B14
100
AcDbEntity
  8
TEXT
100
AcDbCircle
 10
0.5713409573102602
 20
0.2221730945110554
 30
0.0
 40
0.017902360805315
100
AcDbArc
 50
90.0
 51
270.0
  0
LINE
  5
7DE1B343D9E2A80
330
7DE1B343D9E2B14
100
AcDbEntity
  8
TEXT
100
AcDbLine
 10
0.4840161677495059
 20
0.1062361233180614
 30
0.0
 11
0.4840161677495077
 21
0.0378791169846221
 31
0.0
  0
LINE
  5
7DE1B343D9E2A81
330
7DE1B343D9E2B14
100
AcDbEntity
  8
TEXT
100
AcDbLine
 10
0.7382466113392306
 20
0.2400754553163676
 30
0.0
 11
0.7382466113392306
 21
0.0976715083226719
 31
0.0
  0
ARC
  5
7DE1B343D9E2A82
330
7DE1B343D9E2B14
100
AcDbEntity
  8
TEXT
100
AcDbCircle
 10
0.6369410935545612
 20
0.1210749253451791
 30
0.0
 40
0.0831958083605586
100
AcDbArc
 50
270.0
 51
90.0
  0
ARC
  5
7DE1B343D9E2A83
330
7DE1B343D9E2B14
100
AcDbEntity
  8
TEXT
100
AcDbCircle
 10
0.6418814674608409
 20
0.1232066771990954
 30
0.0
 40
0.0169705538810321
100
AcDbArc
 50
270.0
 51
90.0
  0
LWPOLYLINE
  5
7DE1B343D9E2A84
330
7DE1B343D9E2B14
100
AcDbEntity
  8
TEXT
100
AcDbPolyline
 90
        2
 70
     0
 43
0.0006660908203125
 10
0.1480259317903569
 20
0.2777085171606355
 10
0.1480259317903569
 20
0.3043521499731366
  0
LWPOLYLINE
  5
7DE1B343D9E2A88
330
7DE1B343D9E2B14
100
AcDbEntity
  8
TEXT
100
AcDbPolyline
 90
        2
 70
     0
 43
0.0006660908203125
 10
0.1879913810091085
 20
0.2777085171606355
 10
0.1879913810091085
 20
0.3043521499731366
  0
LINE
  5
7DE1B343D9E2A8C
330
7DE1B343D9E2B14
100
AcDbEntity
  8
TEXT
100
AcDbLine
 10
0.7418353800945235
 20
0.304352149973133
 30
0.0
 11
0.5661036271960112
 21
0.304352149973133
 31
0.0
  0
LINE
  5
7DE1B343D9E2A8D
330
7DE1B343D9E2B14
100
AcDbEntity
  8
TEXT
100
AcDbLine
 10
0.7418353800945235
 20
0.3387400675672712
 30
0.0
 11
0.7418353800945235
 21
0.304352149973133
 31
0.0
  0
LINE
  5
7DE1B343D9E2A8E
330
7DE1B343D9E2B14
100
AcDbEntity
  8
TEXT
100
AcDbLine
 10
0.9323072721143756
 20
0.2034801538600124
 30
0.0
 11
0.8736769510824377
 21
0.304352149973133
 31
0.0
  0
LINE
  5
7DE1B343D9E2A8F
330
7DE1B343D9E2B14
100
AcDbEntity
  8
TEXT
100
AcDbLine
 10
0.991055834920241
 20
0.304352149973133
 30
0.0
 11
0.9323072721143756
 21
0.2034801538600124
 31
0.0
  0
LINE
  5
7DE1B343D9E2A90
330
7DE1B343D9E2B14
100
AcDbEntity
  8
TEXT
100
AcDbLine
 10
1.087986460279982
 20
0.1202669550876212
 30
0.0
 11
1.087986460279982
 21
0.3723636277119436
 31
0.0
  0
LINE
  5
7DE1B343D9E2A91
330
7DE1B343D9E2B14
100
AcDbEntity
  8
TEXT
100
AcDbLine
 10
1.120298314417642
 20
0.304352149973133
 30
0.0
 11
1.120298314417642
 21
0.1034879432407248
 31
0.0
  0
LINE
  5
7DE1B343D9E2A92
330
7DE1B343D9E2B14
100
AcDbEntity
  8
TEXT
100
AcDbLine
 10
1.120298314417642
 20
0.1034879432407248
 30
0.0
 11
1.103304677533041
 21
0.1034879432407248
 31
0.0
  0
LINE
  5
7DE1B343D9E2A93
330
7DE1B343D9E2B14
100
AcDbEntity
  8
TEXT
100
AcDbLine
 10
1.089126033776177
 20
0.0378791169846221
 30
0.0
 11
1.187129367475611
 21
0.0378791169846221
 31
0.0
  0
LINE
  5
7DE1B343D9E2A94
330
7DE1B343D9E2B14
100
AcDbEntity
  8
TEXT
100
AcDbLine
 10
0.9227070351174212
 20
0.057837623089635
 30
0.0
 11
1.020006741210865
 21
0.2221878340249031
 31
0.0
  0
ARC
  5
7DE1B343D9E2A95
330
7DE1B343D9E2B14
100
AcDbEntity
  8
TEXT
100
AcDbCircle
 10
0.8886634752052074
 20
0.0774268392583178
 30
0.0
 40
0.0392772371940762
100
AcDbArc
 50
270.1604552698595
 51
330.0831797321295
  0
LINE
  5
7DE1B343D9E2A96
330
7DE1B343D9E2B14
100
AcDbEntity
  8
TEXT
100
AcDbLine
 10
0.7921332188193362
 20
0.0378791169846221
 30
0.0
 11
0.8887734698943305
 21
0.0381497560829043
 31
0.0
  0
LWPOLYLINE
  5
7DE1B343D9E2A97
330
7DE1B343D9E2B14
100
AcDbEntity
  8
TEXT
100
AcDbPolyline
 90
        6
 70
     1
 43
0.0
 10
0.8346570223944858
 20
0.2400754553163676
 10
0.8043404281742777
 20
0.2400754553163676
 10
0.8043404281742777
 20
0.1169644572614732
 42
0.407328721240804
 10
0.8158840793357541
 20
0.1051455425850872
 10
0.8765057783804849
 20
0.1051455425850872
 10
0.8939711187878028
 20
0.1379577716285663
  0
LINE
  5
7DE1B343D9E2A9F
330
7DE1B343D9E2B14
100
AcDbEntity
  8
TEXT
100
AcDbLine
 10
1.020006741210865
 20
0.2221878340249031
 30
0.0
 11
1.020006741210865
 21
0.0894304591995468
 31
0.0
  0
ARC
  5
7DE1B343D9E2AA0
330
7DE1B343D9E2B14
100
AcDbEntity
  8
TEXT
100
AcDbCircle
 10
1.103304677533039
 20
0.1188697494841502
 30
0.0
 40
0.0153818062434269
100
AcDbArc
 50
174.7883570302258
 51
270.0
  0
LWPOLYLINE
  5
7DE1B343D9E2AA1
330
7DE1B343D9E2B14
100
AcDbEntity
  8
TEXT
100
AcDbPolyline
 90
        2
 70
     0
 43
0.0
 10
1.020006741210864
 20
0.0894304591995504
 42
0.3318488747599744
 10
1.089126033776177
 20
0.0378791169846221
 42
-6.868794160588311
  0
LINE
  5
7DE1B343D9E2AA5
330
7DE1B343D9E2B14
100
AcDbEntity
  8
TEXT
100
AcDbLine
 10
1.244518436464872
 20
0.0378791169846221
 30
0.0
 11
1.311576483246712
 21
0.0378791169846221
 31
0.0
  0
LINE
  5
7DE1B343D9E2AA6
330
7DE1B343D9E2B14
100
AcDbEntity
  8
TEXT
100
AcDbLine
 10
1.244518436464872
 20
0.2325216661502576
 30
0.0
 11
1.244518436464872
 21
0.0378791169846221
 31
0.0
  0
LINE
  5
7DE1B343D9E2AA7
330
7DE1B343D9E2B14
100
AcDbEntity
  8
TEXT
100
AcDbLine
 10
1.187129367475611
 20
0.2400754553163676
 30
0.0
 11
1.236964647298759
 21
0.2400754553163676
 31
0.0
  0
LINE
  5
7DE1B343D9E2AA8
330
7DE1B343D9E2B14
100
AcDbEntity
  8
TEXT
100
AcDbLine
 10
1.187129367475611
 20
0.0378791169846221
 30
0.0
 11
1.187129367475611
 21
0.2400754553163676
 31
0.0
  0
LWPOLYLINE
  5
7DE1B343D9E2AA9
330
7DE1B343D9E2B14
100
AcDbEntity
  8
TEXT
100
AcDbPolyline
 90
        2
 70
     0
 43
0.0
 10
1.236964647298757
 20
0.2400754553163676
 42
-0.4142135623731017
 10
1.244518436464871
 20
0.2325216661502576
 42
-0.9999999999999998
  0
LINE
  5
7DE1B343D9E2AAD
330
7DE1B343D9E2B14
100
AcDbEntity
  8
TEXT
100
AcDbLine
 10
1.442774648076442
 20
0.2400754553163676
 30
0.0
 11
1.442774648076442
 21
0.165023049242161
 31
0.0
  0
LINE
  5
7DE1B343D9E2AAE
330
7DE1B343D9E2B14
100
AcDbEntity
  8
TEXT
100
AcDbLine
 10
1.311576483246712
 20
0.2400754553163676
 30
0.0
 11
1.365710080167663
 21
0.2400754553163676
 31
0.0
  0
LINE
  5
7DE1B343D9E2AAF
330
7DE1B343D9E2B14
100
AcDbEntity
  8
TEXT
100
AcDbLine
 10
1.311576483246712
 20
0.0378791169846221
 30
0.0
 11
1.311576483246712
 21
0.2400754553163676
 31
0.0
  0
LWPOLYLINE
  5
7DE1B343D9E2AB0
330
7DE1B343D9E2B14
100
AcDbEntity
  8
TEXT
100
AcDbPolyline
 90
        2
 70
     0
 43
0.0
 10
1.365710080167661
 20
0.2400754553163676
 42
-0.4142135623731017
 10
1.373263869333774
 20
0.2325216661502576
 42
-0.9999999999999998
  0
LWPOLYLINE
  5
7DE1B343D9E2AB4
330
7DE1B343D9E2B14
100
AcDbEntity
  8
TEXT
100
AcDbPolyline
 90
        4
 70
     0
 43
0.0
 10
1.373263869333774
 20
0.2325216661502576
 10
1.373263869333774
 20
0.0378791169846221
 10
1.441742152621632
 20
0.0378791169846221
 10
1.441742152621632
 20
0.0813700619350602
 42
-1.714843617202739
  0
LINE
  5
7DE1B343D9E2ABA
330
7DE1B343D9E2B14
100
AcDbEntity
  8
TEXT
100
AcDbLine
 10
0.8018779849385303
 20
0.304352149973133
 30
0.0
 11
0.8018779849385303
 21
0.3387400675672712
 31
0.0
  0
LINE
  5
7DE1B343D9E2ABB
330
7DE1B343D9E2B14
100
AcDbEntity
  8
TEXT
100
AcDbLine
 10
0.8736769510824377
 20
0.304352149973133
 30
0.0
 11
0.8018779849385303
 21
0.304352149973133
 31
0.0
  0
LINE
  5
7DE1B343D9E2ABC
330
7DE1B343D9E2B14
100
AcDbEntity
  8
TEXT
100
AcDbLine
 10
1.021177747713617
 20
0.304352149973133
 30
0.0
 11
0.991055834920241
 21
0.304352149973133
 31
0.0
  0
LINE
  5
7DE1B343D9E2ABD
330
7DE1B343D9E2B14
100
AcDbEntity
  8
TEXT
100
AcDbLine
 10
1.021177747713617
 20
0.3723636277119436
 30
0.0
 11
1.021177747713617
 21
0.304352149973133
 31
0.0
  0
LINE
  5
7DE1B343D9E2ABE
330
7DE1B343D9E2B14
100
AcDbEntity
  8
TEXT
100
AcDbLine
 10
1.087986460279982
 20
0.3723636277119436
 30
0.0
 11
1.021177747713617
 21
0.3723636277119436
 31
0.0
  0
LWPOLYLINE
  5
7DE1B343D9E2ABF
330
7DE1B343D9E2B14
100
AcDbEntity
  8
TEXT
100
AcDbPolyline
 90
        3
 70
     0
 43
0.0
 10
1.408398219877984
 20
0.3043521499731366
 10
1.29009806106194
 20
0.3043521499731366
 10
1.29009806106194
 20
0.2771846532122407
 42
-1.960274751411753
  0
LINE
  5
7DE1B343D9E2AC4
330
7DE1B343D9E2B14
100
AcDbEntity
  8
TEXT
100
AcDbLine
 10
1.254316370348778
 20
0.304352149973133
 30
0.0
 11
1.120298314417642
 21
0.304352149973133
 31
0.0
  0
LWPOLYLINE
  5
7DE1B343D9E2AC5
330
7DE1B343D9E2B14
100
AcDbEntity
  8
TEXT
100
AcDbPolyline
 90
        2
 70
     0
 43
0.0
 10
1.254316370348778
 20
0.3043521499731366
 42
-0.3328679258950098
 10
1.29009806106194
 20
0.2771846532122407
 42
6.772930709997214
  0
LINE
  5
7DE1B343D9E2AC9
330
7DE1B343D9E2B14
100
AcDbEntity
  8
TEXT
100
AcDbLine
 10
1.444179910591151
 20
0.304352149973133
 30
0.0
 11
1.444179910591151
 21
0.2760296042034891
 31
0.0
  0
LWPOLYLINE
  5
7DE1B343D9E2ACA
330
7DE1B343D9E2B14
100
AcDbEntity
  8
TEXT
100
AcDbPolyline
 90
        2
 70
     0
 43
0.0
 10
1.408398219877984
 20
0.3043521499731366
 42
-0.3277054968067132
 10
1.444179910591149
 20
0.2760296042034927
 42
6.667889725900311
  0
LINE
  5
7DE1B343D9E2ACE
330
7DE1B343D9E2B14
100
AcDbEntity
  8
TEXT
100
AcDbLine
 10
1.657971758683251
 20
0.1991401714197057
 30
0.0
 11
1.61422098750135
 21
0.2813904474158509
 31
0.0
  0
LINE
  5
7DE1B343D9E2ACF
330
7DE1B343D9E2B14
100
AcDbEntity
  8
TEXT
100
AcDbLine
 10
1.657971758683251
 20
0.304352149973133
 30
0.0
 11
1.657971758683251
 21
0.1991401714197057
 31
0.0
  0
LINE
  5
7DE1B343D9E2AD0
330
7DE1B343D9E2B14
100
AcDbEntity
  8
TEXT
100
AcDbLine
 10
1.88565549762162
 20
0.2284868235615949
 30
0.0
 11
1.88565549762162
 21
0.3698163557407337
 31
0.0
  0
LINE
  5
7DE1B343D9E2AD1
330
7DE1B343D9E2B14
100
AcDbEntity
  8
TEXT
100
AcDbLine
 10
1.932753656177604
 20
0.304352149973133
 30
0.0
 11
1.88565549762162
 21
0.2284868235615949
 31
0.0
  0
LINE
  5
7DE1B343D9E2AD2
330
7DE1B343D9E2B14
100
AcDbEntity
  8
TEXT
100
AcDbLine
 10
1.943188372941527
 20
0.1944589070321594
 30
0.0
 11
2.007745488907233
 21
0.304352149973133
 31
0.0
  0
LINE
  5
7DE1B343D9E2AD3
330
7DE1B343D9E2B14
100
AcDbEntity
  8
TEXT
100
AcDbLine
 10
1.821820506398847
 20
0.0378791169846221
 30
0.0
 11
1.886198690717467
 21
0.0378791169846221
 31
0.0
  0
LWPOLYLINE
  5
7DE1B343D9E2AD4
330
7DE1B343D9E2B14
100
AcDbEntity
  8
TEXT
100
AcDbPolyline
 90
        2
 70
     0
 43
0.0
 10
1.661911435988289
 20
0.0813700619350602
 42
-0.2901071551932486
 10
1.618835503120644
 20
0.0378791169846221
 42
-5.328517124445184
  0
ARC
  5
7DE1B343D9E2AD8
330
7DE1B343D9E2B14
100
AcDbEntity
  8
TEXT
100
AcDbCircle
 10
1.54998092146373
 20
0.2117160803163703
 30
0.0
 40
0.028359375
100
AcDbArc
 50
25.78218179591245
 51
90.0
  0
LINE
  5
7DE1B343D9E2AD9
330
7DE1B343D9E2B14
100
AcDbEntity
  8
TEXT
100
AcDbLine
 10
1.585781996767853
 20
0.2028004818542353
 30
0.0
 11
1.575517236354289
 21
0.2240510214269296
 31
0.0
  0
LINE
  5
7DE1B343D9E2ADA
330
7DE1B343D9E2B14
100
AcDbEntity
  8
TEXT
100
AcDbLine
 10
1.50349400698447
 20
0.2028004818542353
 30
0.0
 11
1.585781996767853
 21
0.2028004818542353
 31
0.0
  0
LWPOLYLINE
  5
7DE1B343D9E2ADB
330
7DE1B343D9E2B14
100
AcDbEntity
  8
TEXT
100
AcDbPolyline
 90
        4
 70
     1
 43
0.0
 10
1.598713038050752
 20
0.1408430949686473
 10
1.510052719390893
 20
0.1408430949686473
 42
0.9999999999999998
 10
1.510052719390893
 20
0.0984445544647866
 10
1.598713038050752
 20
0.0984445544647866
 42
1.0
  0
LWPOLYLINE
  5
7DE1B343D9E2AE1
330
7DE1B343D9E2B14
100
AcDbEntity
  8
TEXT
100
AcDbPolyline
 90
        2
 70
     0
 43
0.0
 10
1.484818085489268
 20
0.0378791169846221
 10
1.618835503120644
 20
0.0378791169846221
 42
0.9999999999999998
  0
LINE
  5
7DE1B343D9E2AE5
330
7DE1B343D9E2B14
100
AcDbEntity
  8
TEXT
100
AcDbLine
 10
1.745172525106284
 20
0.2400754553163676
 30
0.0
 11
1.821820506398842
 21
0.2400754553163676
 31
0.0
  0
LINE
  5
7DE1B343D9E2AE6
330
7DE1B343D9E2B14
100
AcDbEntity
  8
TEXT
100
AcDbLine
 10
1.821820506398842
 20
0.2400754553163676
 30
0.0
 11
1.821820506398847
 21
0.0378791169846221
 31
0.0
  0
ARC
  5
7DE1B343D9E2AE7
330
7DE1B343D9E2B14
100
AcDbEntity
  8
TEXT
100
AcDbCircle
 10
1.745172525106282
 20
0.2151695800337048
 30
0.0
 40
0.0249058752826653
100
AcDbArc
 50
89.99971217465335
 51
179.9999999999985
  0
LINE
  5
7DE1B343D9E2AE8
330
7DE1B343D9E2B14
100
AcDbEntity
  8
TEXT
100
AcDbLine
 10
1.720266649823625
 20
0.0378791169846221
 30
0.0
 11
1.720266649823619
 21
0.2151696224160904
 31
0.0
  0
LWPOLYLINE
  5
7DE1B343D9E2AE9
330
7DE1B343D9E2B14
100
AcDbEntity
  8
TEXT
100
AcDbPolyline
 90
        2
 70
     0
 43
0.0
 10
1.661911435988289
 20
0.0378791169846221
 10
1.720266649823623
 20
0.0378791169846221
  0
LWPOLYLINE
  5
7DE1B343D9E2AED
330
7DE1B343D9E2B14
100
AcDbEntity
  8
TEXT
100
AcDbPolyline
 90
        2
 70
     0
 43
0.0
 10
1.661911435988289
 20
0.0813700619350602
 10
1.661911435988289
 20
0.0378791169846221
  0
LINE
  5
7DE1B343D9E2AF1
330
7DE1B343D9E2B14
100
AcDbEntity
  8
TEXT
100
AcDbLine
 10
2.038680596305138
 20
0.0378791169846221
 30
0.0
 11
1.943188372941527
 21
0.1944589070321594
 31
0.0
  0
LINE
  5
7DE1B343D9E2AF2
330
7DE1B343D9E2B14
100
AcDbEntity
  8
TEXT
100
AcDbLine
 10
1.962102223928932
 20
0.0378791169846221
 30
0.0
 11
2.038680596305138
 21
0.0378791169846221
 31
0.0
  0
LINE
  5
7DE1B343D9E2AF3
330
7DE1B343D9E2B14
100
AcDbEntity
  8
TEXT
100
AcDbLine
 10
1.886198690717467
 20
0.1694586854608023
 30
0.0
 11
1.962102223928932
 21
0.0378791169846221
 31
0.0
  0
LINE
  5
7DE1B343D9E2AF4
330
7DE1B343D9E2B14
100
AcDbEntity
  8
TEXT
100
AcDbLine
 10
1.886198690717467
 20
0.0378791169846221
 30
0.0
 11
1.886198690717467
 21
0.1694586854608023
 31
0.0
  0
LINE
  5
7DE1B343D9E2AF5
330
7DE1B343D9E2B14
100
AcDbEntity
  8
TEXT
100
AcDbLine
 10
1.88565549762162
 20
0.3698163557407337
 30
0.0
 11
1.817340619072347
 21
0.3698163557407337
 31
0.0
  0
ARC
  5
7DE1B343D9E2AF6
330
7DE1B343D9E2B14
100
AcDbEntity
  8
TEXT
100
AcDbCircle
 10
1.576984880031141
 20
0.2627685828522306
 30
0.0
 40
0.0416329381542859
100
AcDbArc
 50
26.56974201007528
 51
87.20939649401342
  0
LINE
  5
7DE1B343D9E2AF7
330
7DE1B343D9E2B14
100
AcDbEntity
  8
TEXT
100
AcDbLine
 10
1.721868664982752
 20
0.304352149973133
 30
0.0
 11
1.657971758683251
 21
0.304352149973133
 31
0.0
  0
LINE
  5
7DE1B343D9E2AF8
330
7DE1B343D9E2B14
100
AcDbEntity
  8
TEXT
100
AcDbLine
 10
1.721868664982752
 20
0.2768045001122584
 30
0.0
 11
1.721868664982752
 21
0.304352149973133
 31
0.0
  0
ARC
  5
7DE1B343D9E2AF9
330
7DE1B343D9E2B14
100
AcDbEntity
  8
TEXT
100
AcDbCircle
 10
1.75306148204586
 20
0.2731064226908682
 30
0.0
 40
0.0314112657011332
100
AcDbArc
 50
95.88484768694724
 51
173.2388340632136
  0
LINE
  5
7DE1B343D9E2AFA
330
7DE1B343D9E2B14
100
AcDbEntity
  8
TEXT
100
AcDbLine
 10
1.817340619072341
 20
0.304352149973133
 30
0.0
 11
1.749840901422825
 21
0.304352149973133
 31
0.0
  0
LINE
  5
7DE1B343D9E2AFB
330
7DE1B343D9E2B14
100
AcDbEntity
  8
TEXT
100
AcDbLine
 10
1.817340619072347
 20
0.3698163557407337
 30
0.0
 11
1.817340619072341
 21
0.304352149973133
 31
0.0
  0
LINE
  5
7DE1B343D9E2AFC
330
7DE1B343D9E2B14
100
AcDbEntity
  8
TEXT
100
AcDbLine
 10
2.007745488907233
 20
0.304352149973133
 30
0.0
 11
1.932753656177606
 21
0.304352149973133
 31
0.0
  0
LWPOLYLINE
  5
7DE1B343D9E2D7A
330
7DE1B343D9E2B14
100
AcDbEntity
  8
0
100
AcDbPolyline
 90
        4
 70
     1
 43
0.0
 10
3.00224529860973
 20
1.438213520632593
 10
3.00224529860973
 20
1.788213520632594
 10
2.327245298609732
 20
1.78821352063258
 10
2.327245298609732
 20
1.438213520632593
  0
LWPOLYLINE
  5
7DE1B343D9E2D7B
330
7DE1B343D9E2B14
100
AcDbEntity
  8
0
100
AcDbPolyline
 90
       18
 70
     0
 43
0.0
 10
1.938847838988202
 20
1.488213520632586
 10
1.75224529860973
 20
1.438213520632579
 10
0.2822452986097312
 20
1.438213520632593
 42
0.4142135623730951
 10
0.2522452986097301
 20
1.408213520632592
 10
0.2522452986097301
 20
1.393213520632584
 42
0.4142135623730951
 10
0.2822452986097312
 20
1.363213520632583
 10
3.00224529860973
 20
1.36321352063259
 42
1.0
 10
3.00224529860973
 20
1.863213520632591
 10
1.782245298609732
 20
1.863213520632577
 42
0.4142135623730972
 10
1.75224529860973
 20
1.833213520632589
 10
1.75224529860973
 20
1.78821352063258
 10
2.222245298609728
 20
1.788213520632594
 42
-0.4142135623730951
 10
2.25224529860973
 20
1.758213520632593
 10
2.25224529860973
 20
1.468213520632594
 42
-0.4142135623730951
 10
2.222245298609728
 20
1.438213520632593
 10
1.972797413915824
 20
1.438213520632593
 10
1.972797413915824
 20
1.458213520632586
 42
0.4931454260313063
 10
1.935032842562748
 20
1.487191295421258
  0
ENDSEC
  0
SECTION
  2
OBJECTS
  0
DICTIONARY
  5
7DE1B343D9E2B08
330
0
100
AcDbDictionary
  3
ACAD_GROUP
350
7DE1B343D9E2B09
  3
ACAD_LAYOUT
350
7DE1B343D9E2DB4
  3
ACAD_MLINESTYLE
350
7DE1B343D9E2B0A
  3
ACAD_PLOTSETTINGS
350
7DE1B343D9E2DB5
  3
ACAD_PLOTSTYLENAME
350
7DE1B343D9E2DB2
  3
ACDBHEADERROUNDTRIPXREC
350
7DE1B343D9E2DBF
  3
ACDBVARIABLEDICTIONARY
350
7DE1B343D9E2DBC
  0
DICTIONARY
  5
7DE1B343D9E2DE1
330
7DE1B343D9E2B14
100
AcDbDictionary
280
     1
  3
ACAD_LAYOUTSELFREF
360
7DE1B343D9E2DE2
  0
DICTIONARY
  5
7DE1B343D9E2DDF
330
7DE1B343D9E2B11
100
AcDbDictionary
280
     1
  3
ACAD_LAYOUTSELFREF
360
7DE1B343D9E2DE0
  0
DICTIONARY
  5
7DE1B343D9E2B09
102
{ACAD_REACTORS
330
7DE1B343D9E2B08
102
}
330
7DE1B343D9E2B08
100
AcDbDictionary
  0
DICTIONARY
  5
7DE1B343D9E2DB4
102
{ACAD_REACTORS
330
7DE1B343D9E2B08
102
}
330
7DE1B343D9E2B08
100
AcDbDictionary
  0
DICTIONARY
  5
7DE1B343D9E2B0A
102
{ACAD_REACTORS
330
7DE1B343D9E2B08
102
}
330
7DE1B343D9E2B08
100
AcDbDictionary
  3
STANDARD
350
7DE1B343D9E2B17
  0
DICTIONARY
  5
7DE1B343D9E2DB5
102
{ACAD_REACTORS
330
7DE1B343D9E2B08
102
}
330
7DE1B343D9E2B08
100
AcDbDictionary
  0
ACDBDICTIONARYWDFLT
  5
7DE1B343D9E2DB2
102
{ACAD_REACTORS
330
7DE1B343D9E2B08
102
}
330
7DE1B343D9E2B08
100
AcDbDictionary
281
     1
  3
Normal
350
7DE1B343D9E2DB3
100
AcDbDictionaryWithDefault
340
7DE1B343D9E2DB3
  0
DICTIONARY
  5
7DE1B343D9E2DBF
102
{ACAD_REACTORS
330
7DE1B343D9E2B08
102
}
330
7DE1B343D9E2B08
100
AcDbDictionary
  3
CEPSNTYPE
350
7DE1B343D9E2DC9
  3
FINGERPRINTGUID
350
7DE1B343D9E2DCA
  3
HYPERLINKBASE
350
7DE1B343D9E2DC2
  3
INSUNITS
350
7DE1B343D9E2DC8
  3
LAYOUTDICT
350
7DE1B343D9E2DC4
  3
LWETCUNION
350
7DE1B343D9E2DC7
  3
PLOTSETDICT
350
7DE1B343D9E2DC5
  3
PLOTSTYLNAMDICT
350
7DE1B343D9E2DC6
  3
PSVPSCALE
350
7DE1B343D9E2DCC
  3
PUCSBASE
350
7DE1B343D9E2DCF
  3
PUCSORGBACK
350
7DE1B343D9E2DD5
  3
PUCSORGBOTTOM
350
7DE1B343D9E2DD1
  3
PUCSORGFRONT
350
7DE1B343D9E2DD4
  3
PUCSORGLEFT
350
7DE1B343D9E2DD2
  3
PUCSORGRIGHT
350
7DE1B343D9E2DD3
  3
PUCSORGTOP
350
7DE1B343D9E2DD0
  3
PUCSORTHOREF
350
7DE1B343D9E2DCD
  3
PUCSORTHOVIEW
350
7DE1B343D9E2DCE
  3
STYLESHEET
350
7DE1B343D9E2DC3
  3
TSTACKALIGN
350
7DE1B343D9E2DC0
  3
TSTACKSIZE
350
7DE1B343D9E2DC1
  3
UCSBASE
350
7DE1B343D9E2DD8
  3
UCSORGBACK
350
7DE1B343D9E2DDE
  3
UCSORGBOTTOM
350
7DE1B343D9E2DDA
  3
UCSORGFRONT
350
7DE1B343D9E2DDD
  3
UCSORGLEFT
350
7DE1B343D9E2DDB
  3
UCSORGRIGHT
350
7DE1B343D9E2DDC
  3
UCSORGTOP
350
7DE1B343D9E2DD9
  3
UCSORTHOREF
350
7DE1B343D9E2DD6
  3
UCSORTHOVIEW
350
7DE1B343D9E2DD7
  3
VERSIONGUID
350
7DE1B343D9E2DCB
  0
DICTIONARY
  5
7DE1B343D9E2DBC
102
{ACAD_REACTORS
330
7DE1B343D9E2B08
102
}
330
7DE1B343D9E2B08
100
AcDbDictionary
  3
DIMASSOC
350
7DE1B343D9E2DBD
  0
XRECORD
  5
7DE1B343D9E2DE2
102
{ACAD_REACTORS
330
7DE1B343D9E2DE1
102
}
330
7DE1B343D9E2DE1
100
AcDbXrecord
340
7DE1B343D9E2B14
  0
XRECORD
  5
7DE1B343D9E2DE0
102
{ACAD_REACTORS
330
7DE1B343D9E2DDF
102
}
330
7DE1B343D9E2DDF
100
AcDbXrecord
340
7DE1B343D9E2B11
  0
MLINESTYLE
  5
7DE1B343D9E2B17
102
{ACAD_REACTORS
330
7DE1B343D9E2B0A
102
}
330
7DE1B343D9E2B0A
100
AcDbMlineStyle
  2
STANDARD
 70
     0
  3

 62
     0
 51
90.0
 52
90.0
 71
     2
 49
0.5
 62
   256
  6
BYLAYER
 49
-0.5
 62
   256
  6
BYLAYER
  0
ACDBPLACEHOLDER
  5
7DE1B343D9E2DB3
102
{ACAD_REACTORS
330
7DE1B343D9E2DB2
102
}
330
7DE1B343D9E2DB2
100
AcDbPlaceHolder
280
     0
  0
XRECORD
  5
7DE1B343D9E2DC9
102
{ACAD_REACTORS
330
7DE1B343D9E2DBF
102
}
330
7DE1B343D9E2DBF
100
AcDbXrecord
 90
        0
  0
XRECORD
  5
7DE1B343D9E2DCA
102
{ACAD_REACTORS
330
7DE1B343D9E2DBF
102
}
330
7DE1B343D9E2DBF
100
AcDbXrecord
  1
{C3145EC0-8DB9-11D6-88E6-0090279574E7}
  0
XRECORD
  5
7DE1B343D9E2DC2
102
{ACAD_REACTORS
330
7DE1B343D9E2DBF
102
}
330
7DE1B343D9E2DBF
100
AcDbXrecord
  1

  0
XRECORD
  5
7DE1B343D9E2DC8
102
{ACAD_REACTORS
330
7DE1B343D9E2DBF
102
}
330
7DE1B343D9E2DBF
100
AcDbXrecord
 90
        0
  0
XRECORD
  5
7DE1B343D9E2DC4
102
{ACAD_REACTORS
330
7DE1B343D9E2DBF
102
}
330
7DE1B343D9E2DBF
100
AcDbXrecord
340
7DE1B343D9E2DB4
  0
XRECORD
  5
7DE1B343D9E2DC7
102
{ACAD_REACTORS
330
7DE1B343D9E2DBF
102
}
330
7DE1B343D9E2DBF
100
AcDbXrecord
 90
    14877
  0
XRECORD
  5
7DE1B343D9E2DC5
102
{ACAD_REACTORS
330
7DE1B343D9E2DBF
102
}
330
7DE1B343D9E2DBF
100
AcDbXrecord
340
7DE1B343D9E2DB5
  0
XRECORD
  5
7DE1B343D9E2DC6
102
{ACAD_REACTORS
330
7DE1B343D9E2DBF
102
}
330
7DE1B343D9E2DBF
100
AcDbXrecord
340
7DE1B343D9E2DB2
  0
XRECORD
  5
7DE1B343D9E2DCC
102
{ACAD_REACTORS
330
7DE1B343D9E2DBF
102
}
330
7DE1B343D9E2DBF
100
AcDbXrecord
 40
0.0
  0
XRECORD
  5
7DE1B343D9E2DCF
102
{ACAD_REACTORS
330
7DE1B343D9E2DBF
102
}
330
7DE1B343D9E2DBF
100
AcDbXrecord
340
0
  0
XRECORD
  5
7DE1B343D9E2DD5
102
{ACAD_REACTORS
330
7DE1B343D9E2DBF
102
}
330
7DE1B343D9E2DBF
100
AcDbXrecord
 10
0.0
 20
0.0
 30
0.0
  0
XRECORD
  5
7DE1B343D9E2DD1
102
{ACAD_REACTORS
330
7DE1B343D9E2DBF
102
}
330
7DE1B343D9E2DBF
100
AcDbXrecord
 10
0.0
 20
0.0
 30
0.0
  0
XRECORD
  5
7DE1B343D9E2DD4
102
{ACAD_REACTORS
330
7DE1B343D9E2DBF
102
}
330
7DE1B343D9E2DBF
100
AcDbXrecord
 10
0.0
 20
0.0
 30
0.0
  0
XRECORD
  5
7DE1B343D9E2DD2
102
{ACAD_REACTORS
330
7DE1B343D9E2DBF
102
}
330
7DE1B343D9E2DBF
100
AcDbXrecord
 10
0.0
 20
0.0
 30
0.0
  0
XRECORD
  5
7DE1B343D9E2DD3
102
{ACAD_REACTORS
330
7DE1B343D9E2DBF
102
}
330
7DE1B343D9E2DBF
100
AcDbXrecord
 10
0.0
 20
0.0
 30
0.0
  0
XRECORD
  5
7DE1B343D9E2DD0
102
{ACAD_REACTORS
330
7DE1B343D9E2DBF
102
}
330
7DE1B343D9E2DBF
100
AcDbXrecord
 10
0.0
 20
0.0
 30
0.0
  0
XRECORD
  5
7DE1B343D9E2DCD
102
{ACAD_REACTORS
330
7DE1B343D9E2DBF
102
}
330
7DE1B343D9E2DBF
100
AcDbXrecord
340
0
  0
XRECORD
  5
7DE1B343D9E2DCE
102
{ACAD_REACTORS
330
7DE1B343D9E2DBF
102
}
330
7DE1B343D9E2DBF
100
AcDbXrecord
 70
     0
  0
XRECORD
  5
7DE1B343D9E2DC3
102
{ACAD_REACTORS
330
7DE1B343D9E2DBF
102
}
330
7DE1B343D9E2DBF
100
AcDbXrecord
  1

  0
XRECORD
  5
7DE1B343D9E2DC0
102
{ACAD_REACTORS
330
7DE1B343D9E2DBF
102
}
330
7DE1B343D9E2DBF
100
AcDbXrecord
 90
        1
  0
XRECORD
  5
7DE1B343D9E2DC1
102
{ACAD_REACTORS
330
7DE1B343D9E2DBF
102
}
330
7DE1B343D9E2DBF
100
AcDbXrecord
 90
       70
  0
XRECORD
  5
7DE1B343D9E2DD8
102
{ACAD_REACTORS
330
7DE1B343D9E2DBF
102
}
330
7DE1B343D9E2DBF
100
AcDbXrecord
340
0
  0
XRECORD
  5
7DE1B343D9E2DDE
102
{ACAD_REACTORS
330
7DE1B343D9E2DBF
102
}
330
7DE1B343D9E2DBF
100
AcDbXrecord
 10
0.0
 20
0.0
 30
0.0
  0
XRECORD
  5
7DE1B343D9E2DDA
102
{ACAD_REACTORS
330
7DE1B343D9E2DBF
102
}
330
7DE1B343D9E2DBF
100
AcDbXrecord
 10
0.0
 20
0.0
 30
0.0
  0
XRECORD
  5
7DE1B343D9E2DDD
102
{ACAD_REACTORS
330
7DE1B343D9E2DBF
102
}
330
7DE1B343D9E2DBF
100
AcDbXrecord
 10
0.0
 20
0.0
 30
0.0
  0
XRECORD
  5
7DE1B343D9E2DDB
102
{ACAD_REACTORS
330
7DE1B343D9E2DBF
102
}
330
7DE1B343D9E2DBF
100
AcDbXrecord
 10
0.0
 20
0.0
 30
0.0
  0
XRECORD
  5
7DE1B343D9E2DDC
102
{ACAD_REACTORS
330
7DE1B343D9E2DBF
102
}
330
7DE1B343D9E2DBF
100
AcDbXrecord
 10
0.0
 20
0.0
 30
0.0
  0
XRECORD
  5
7DE1B343D9E2DD9
102
{ACAD_REACTORS
330
7DE1B343D9E2DBF
102
}
330
7DE1B343D9E2DBF
100
AcDbXrecord
 10
0.0
 20
0.0
 30
0.0
  0
XRECORD
  5
7DE1B343D9E2DD6
102
{ACAD_REACTORS
330
7DE1B343D9E2DBF
102
}
330
7DE1B343D9E2DBF
100
AcDbXrecord
340
0
  0
XRECORD
  5
7DE1B343D9E2DD7
102
{ACAD_REACTORS
330
7DE1B343D9E2DBF
102
}
330
7DE1B343D9E2DBF
100
AcDbXrecord
 70
     0
  0
XRECORD
  5
7DE1B343D9E2DCB
102
{ACAD_REACTORS
330
7DE1B343D9E2DBF
102
}
330
7DE1B343D9E2DBF
100
AcDbXrecord
  1
{C3145EC2-8DB9-11D6-88E6-0090279574E7}
  0
DICTIONARYVAR
  5
7DE1B343D9E2DBD
102
{ACAD_REACTORS
330
7DE1B343D9E2DBC
102
}
330
7DE1B343D9E2DBC
100
DictionaryVariables
280
     0
  1
1
  0
ENDSEC
  0
EOF
