  0
SECTION
  2
HEADER
  9
$ACADVER
  1
AC1014
  9
$ACADMAINTVER
 70
     9
  9
$DWGCODEPAGE
  3
ANSI_1252
  9
$INSBASE
 10
1.315035920866901
 20
0.8047507025530366
 30
0.0
  9
$EXTMIN
 10
-0.4279456583602422
 20
0.0359662319412915
 30
0.0
  9
$EXTMAX
 10
3.057273663386885
 20
2.023500702553036
 30
0.0
  9
$LIMMIN
 10
0.0
 20
0.0
  9
$LIMMAX
 10
18.0
 20
12.0
  9
$ORTHOMODE
 70
     1
  9
$REGENMODE
 70
     1
  9
$FILLMODE
 70
     1
  9
$QTEXTMODE
 70
     0
  9
$MIRRTEXT
 70
     0
  9
$DRAGMODE
 70
     2
  9
$LTSCALE
 40
1.0
  9
$OSMODE
 70
    39
  9
$ATTMODE
 70
     1
  9
$TEXTSIZE
 40
0.125
  9
$TRACEWID
 40
0.05
  9
$TEXTSTYLE
  7
ROMANS
  9
$CLAYER
  8
0
  9
$CELTYPE
  6
BYLAYER
  9
$CECOLOR
 62
   256
  9
$CELTSCALE
 40
1.0
  9
$DELOBJ
 70
     1
  9
$DISPSILH
 70
     1
  9
$DIMSCALE
 40
1.0
  9
$DIMASZ
 40
0.125
  9
$DIMEXO
 40
0.125
  9
$DIMDLI
 40
0.375
  9
$DIMRND
 40
0.0
  9
$DIMDLE
 40
0.0
  9
$DIMEXE
 40
0.125
  9
$DIMTP
 40
0.0
  9
$DIMTM
 40
0.0
  9
$DIMTXT
 40
0.125
  9
$DIMCEN
 40
-0.125
  9
$DIMTSZ
 40
0.0
  9
$DIMTOL
 70
     0
  9
$DIMLIM
 70
     0
  9
$DIMTIH
 70
     1
  9
$DIMTOH
 70
     1
  9
$DIMSE1
 70
     0
  9
$DIMSE2
 70
     0
  9
$DIMTAD
 70
     0
  9
$DIMZIN
 70
     4
  9
$DIMBLK
  1

  9
$DIMASO
 70
     1
  9
$DIMSHO
 70
     1
  9
$DIMPOST
  1

  9
$DIMAPOST
  1

  9
$DIMALT
 70
     0
  9
$DIMALTD
 70
     2
  9
$DIMALTF
 40
25.4
  9
$DIMLFAC
 40
1.0
  9
$DIMTOFL
 70
     0
  9
$DIMTVP
 40
0.0
  9
$DIMTIX
 70
     1
  9
$DIMSOXD
 70
     0
  9
$DIMSAH
 70
     0
  9
$DIMBLK1
  1

  9
$DIMBLK2
  1

  9
$DIMSTYLE
  2
STANDARD
  9
$DIMCLRD
 70
     0
  9
$DIMCLRE
 70
     0
  9
$DIMCLRT
 70
     0
  9
$DIMTFAC
 40
1.0
  9
$DIMGAP
 40
0.09
  9
$DIMJUST
 70
     0
  9
$DIMSD1
 70
     0
  9
$DIMSD2
 70
     0
  9
$DIMTOLJ
 70
     1
  9
$DIMTZIN
 70
     4
  9
$DIMALTZ
 70
     0
  9
$DIMALTTZ
 70
     0
  9
$DIMFIT
 70
     3
  9
$DIMUPT
 70
     0
  9
$DIMUNIT
 70
     2
  9
$DIMDEC
 70
     3
  9
$DIMTDEC
 70
     3
  9
$DIMALTU
 70
     2
  9
$DIMALTTD
 70
     2
  9
$DIMTXSTY
  7
ROMANS
  9
$DIMAUNIT
 70
     0
  9
$LUNITS
 70
     2
  9
$LUPREC
 70
     3
  9
$SKETCHINC
 40
0.1
  9
$FILLETRAD
 40
0.03125
  9
$AUNITS
 70
     0
  9
$AUPREC
 70
     0
  9
$MENU
  1
ACAD
  9
$ELEVATION
 40
0.0
  9
$PELEVATION
 40
0.0
  9
$THICKNESS
 40
0.0
  9
$LIMCHECK
 70
     0
  9
$BLIPMODE
 70
     0
  9
$CHAMFERA
 40
0.0
  9
$CHAMFERB
 40
0.0
  9
$CHAMFERC
 40
0.0
  9
$CHAMFERD
 40
0.0
  9
$SKPOLY
 70
     0
  9
$TDCREATE
 40
2448994.697069907
  9
$TDUPDATE
 40
2452458.324050081
  9
$TDINDWG
 40
0.0005835185
  9
$TDUSRTIMER
 40
0.0005835185
  9
$USRTIMER
 70
     1
  9
$ANGBASE
 50
0.0
  9
$ANGDIR
 70
     0
  9
$PDMODE
 70
     0
  9
$PDSIZE
 40
0.0
  9
$PLINEWID
 40
0.0
  9
$COORDS
 70
     2
  9
$SPLFRAME
 70
     0
  9
$SPLINETYPE
 70
     6
  9
$SPLINESEGS
 70
     8
  9
$ATTDIA
 70
     0
  9
$ATTREQ
 70
     1
  9
$HANDLING
 70
 22529
  9
$HANDSEED
  5
7DE1B343D9E2666
  9
$SURFTAB1
 70
     6
  9
$SURFTAB2
 70
     6
  9
$SURFTYPE
 70
     6
  9
$SURFU
 70
     6
  9
$SURFV
 70
     6
  9
$UCSNAME
  2

  9
$UCSORG
 10
0.0
 20
0.0
 30
0.0
  9
$UCSXDIR
 10
1.0
 20
0.0
 30
0.0
  9
$UCSYDIR
 10
0.0
 20
1.0
 30
0.0
  9
$PUCSNAME
  2

  9
$PUCSORG
 10
0.0
 20
0.0
 30
0.0
  9
$PUCSXDIR
 10
1.0
 20
0.0
 30
0.0
  9
$PUCSYDIR
 10
0.0
 20
1.0
 30
0.0
  9
$USERI1
 70
     0
  9
$USERI2
 70
     0
  9
$USERI3
 70
     0
  9
$USERI4
 70
     0
  9
$USERI5
 70
     0
  9
$USERR1
 40
0.0
  9
$USERR2
 40
0.0
  9
$USERR3
 40
0.0
  9
$USERR4
 40
0.0
  9
$USERR5
 40
0.0
  9
$WORLDVIEW
 70
     1
  9
$SHADEDGE
 70
     3
  9
$SHADEDIF
 70
    70
  9
$TILEMODE
 70
     1
  9
$MAXACTVP
 70
    16
  9
$PINSBASE
 10
0.0
 20
0.0
 30
0.0
  9
$PLIMCHECK
 70
     0
  9
$PEXTMIN
 10
1.000000000000000E+20
 20
1.000000000000000E+20
 30
1.000000000000000E+20
  9
$PEXTMAX
 10
-1.000000000000000E+20
 20
-1.000000000000000E+20
 30
-1.000000000000000E+20
  9
$PLIMMIN
 10
0.0
 20
0.0
  9
$PLIMMAX
 10
12.0
 20
9.0
  9
$UNITMODE
 70
     0
  9
$VISRETAIN
 70
     0
  9
$PLINEGEN
 70
     1
  9
$PSLTSCALE
 70
     0
  9
$TREEDEPTH
 70
  3020
  9
$PICKSTYLE
 70
     1
  9
$CMLSTYLE
  2
STANDARD
  9
$CMLJUST
 70
     0
  9
$CMLSCALE
 40
1.0
  9
$PROXYGRAPHICS
 70
     1
  9
$MEASUREMENT
 70
     0
  0
ENDSEC
  0
SECTION
  2
CLASSES
  0
CLASS
  1
LWPOLYLINE
  2
AcDbPolyline
  3
AutoCAD 2000
 90
        0
280
     0
281
     1
  0
CLASS
  1
ACDBDICTIONARYWDFLT
  2
AcDbDictionaryWithDefault
  3
AutoCAD 2000
 90
        0
280
     0
281
     0
  0
CLASS
  1
ACDBPLACEHOLDER
  2
AcDbPlaceHolder
  3
AutoCAD 2000
 90
        0
280
     0
281
     0
  0
CLASS
  1
LAYOUT
  2
AcDbLayout
  3
AutoCAD 2000
 90
        0
280
     0
281
     0
  0
CLASS
  1
DICTIONARYVAR
  2
AcDbDictionaryVar
  3
AutoCAD 2000
 90
        0
280
     0
281
     0
  0
CLASS
  1
LONG_TRANSACTION
  2
AcDbLongTransaction
  3
AutoCAD 2000
 90
        0
280
     0
281
     0
  0
CLASS
  1
LWPOLYLINE
  2
AcDbPolyline
  3
AutoCAD 2000
 90
        0
280
     0
281
     1
  0
CLASS
  1
HATCH
  2
AcDbHatch
  3
AutoCAD 2000
 90
        0
280
     0
281
     1
  0
CLASS
  1
XRECORD
  2
AcDbXrecord
  3
AutoCAD 2000
 90
        0
280
     0
281
     0
  0
ENDSEC
  0
SECTION
  2
TABLES
  0
TABLE
  2
VPORT
  5
7DE1B343D9E260D
330
0
100
AcDbSymbolTable
 70
     2
  0
VPORT
  5
7DE1B343D9E2641
330
7DE1B343D9E260D
100
AcDbSymbolTableRecord
100
AcDbViewportTableRecord
  2
*ACTIVE
 70
     0
 10
0.0
 20
0.0
 11
1.0
 21
1.0
 12
4.291149482637838
 22
1.029602072934622
 13
0.0
 23
0.0
 14
0.015625
 24
0.015625
 15
0.0
 25
0.0
 16
0.0
 26
0.0
 36
1.0
 17
0.0
 27
0.0
 37
0.0
 40
2.282612513748573
 41
4.320930232558139
 42
50.0
 43
0.0
 44
0.0
 50
0.0
 51
0.0
 71
     0
 72
  2000
 73
     1
 74
     0
 75
     0
 76
     0
 77
     0
 78
     0
  0
ENDTAB
  0
TABLE
  2
LTYPE
  5
7DE1B343D9E260A
330
0
100
AcDbSymbolTable
 70
     1
  0
LTYPE
  5
7DE1B343D9E2617
330
7DE1B343D9E260A
100
AcDbSymbolTableRecord
100
AcDbLinetypeTableRecord
  2
BYBLOCK
 70
     0
  3

 72
    65
 73
     0
 40
0.0
  0
LTYPE
  5
7DE1B343D9E2618
330
7DE1B343D9E260A
100
AcDbSymbolTableRecord
100
AcDbLinetypeTableRecord
  2
BYLAYER
 70
     0
  3

 72
    65
 73
     0
 40
0.0
  0
LTYPE
  5
7DE1B343D9E2619
330
7DE1B343D9E260A
100
AcDbSymbolTableRecord
100
AcDbLinetypeTableRecord
  2
CONTINUOUS
 70
     0
  3
Solid line
 72
    65
 73
     0
 40
0.0
  0
ENDTAB
  0
TABLE
  2
LAYER
  5
7DE1B343D9E2607
330
0
100
AcDbSymbolTable
 70
     2
  0
LAYER
  5
7DE1B343D9E2614
330
7DE1B343D9E2607
100
AcDbSymbolTableRecord
100
AcDbLayerTableRecord
  2
0
 70
     0
 62
     7
  6
CONTINUOUS
  0
LAYER
  5
7DE1B343D9E2624
330
7DE1B343D9E2607
100
AcDbSymbolTableRecord
100
AcDbLayerTableRecord
  2
TEXT
 70
     0
 62
     3
  6
CONTINUOUS
  0
ENDTAB
  0
TABLE
  2
STYLE
  5
7DE1B343D9E2608
330
0
100
AcDbSymbolTable
 70
     3
  0
STYLE
  5
7DE1B343D9E2615
330
7DE1B343D9E2608
100
AcDbSymbolTableRecord
100
AcDbTextStyleTableRecord
  2
STANDARD
 70
     0
 40
0.0
 41
1.0
 50
0.0
 71
     0
 42
0.3125
  3
txt
  4

  0
STYLE
  5
7DE1B343D9E2621
330
7DE1B343D9E2608
100
AcDbSymbolTableRecord
100
AcDbTextStyleTableRecord
  2
ITALICC
 70
     0
 40
0.0
 41
1.0
 50
0.0
 71
     0
 42
0.125
  3
italicc
  4

  0
STYLE
  5
7DE1B343D9E2631
330
7DE1B343D9E2608
100
AcDbSymbolTableRecord
100
AcDbTextStyleTableRecord
  2
ROMANS
 70
     0
 40
0.0
 41
1.0
 50
0.0
 71
     0
 42
0.125
  3
romans.shx
  4

  0
ENDTAB
  0
TABLE
  2
VIEW
  5
7DE1B343D9E260B
330
0
100
AcDbSymbolTable
 70
     0
  0
ENDTAB
  0
TABLE
  2
UCS
  5
7DE1B343D9E260C
330
0
100
AcDbSymbolTable
 70
     0
  0
ENDTAB
  0
TABLE
  2
APPID
  5
7DE1B343D9E260E
330
0
100
AcDbSymbolTable
 70
     1
  0
APPID
  5
7DE1B343D9E2616
330
7DE1B343D9E260E
100
AcDbSymbolTableRecord
100
AcDbRegAppTableRecord
  2
ACAD
 70
     0
  0
ENDTAB
  0
TABLE
  2
DIMSTYLE
  5
7DE1B343D9E260F
330
0
100
AcDbSymbolTable
 70
     1
  0
DIMSTYLE
105
7DE1B343D9E2629
330
7DE1B343D9E260F
100
AcDbSymbolTableRecord
100
AcDbDimStyleTableRecord
  2
STANDARD
 70
     0
  3

  4

  5

  6

  7

 40
1.0
 41
0.125
 42
0.125
 43
0.375
 44
0.125
 45
0.0
 46
0.0
 47
0.0
 48
0.0
140
0.125
141
-0.125
142
0.0
143
25.4
144
1.0
145
0.0
146
1.0
147
0.09
 71
     0
 72
     0
 73
     1
 74
     1
 75
     0
 76
     0
 77
     0
 78
     4
170
     0
171
     2
172
     0
173
     0
174
     1
175
     0
176
     0
177
     0
178
     0
270
     2
271
     3
272
     3
273
     2
274
     2
340
7DE1B343D9E2631
275
     0
280
     0
281
     0
282
     0
283
     1
284
     4
285
     0
286
     0
287
     3
288
     0
  0
ENDTAB
  0
TABLE
  2
BLOCK_RECORD
  5
7DE1B343D9E2606
330
0
100
AcDbSymbolTable
 70
     0
  0
BLOCK_RECORD
  5
7DE1B343D9E261D
102
{ACAD_XDICTIONARY
360
7DE1B343D9E2664
102
}
330
7DE1B343D9E2606
100
AcDbSymbolTableRecord
100
AcDbBlockTableRecord
  2
*MODEL_SPACE
  0
BLOCK_RECORD
  5
7DE1B343D9E261A
102
{ACAD_XDICTIONARY
360
7DE1B343D9E2662
102
}
330
7DE1B343D9E2606
100
AcDbSymbolTableRecord
100
AcDbBlockTableRecord
  2
*PAPER_SPACE
  0
ENDTAB
  0
ENDSEC
  0
SECTION
  2
BLOCKS
  0
BLOCK
  5
7DE1B343D9E2627
330
7DE1B343D9E261D
100
AcDbEntity
  8
0
100
AcDbBlockBegin
  2
*MODEL_SPACE
 70
     0
 10
0.0
 20
0.0
 30
0.0
  3
*MODEL_SPACE
  1

  0
ENDBLK
  5
7DE1B343D9E2628
330
7DE1B343D9E261D
100
AcDbEntity
  8
0
100
AcDbBlockEnd
  0
BLOCK
  5
7DE1B343D9E2625
330
7DE1B343D9E261A
100
AcDbEntity
 67
     1
  8
0
100
AcDbBlockBegin
  2
*PAPER_SPACE
 70
     0
 10
0.0
 20
0.0
 30
0.0
  3
*PAPER_SPACE
  1

  0
ENDBLK
  5
7DE1B343D9E2626
330
7DE1B343D9E261A
100
AcDbEntity
 67
     1
  8
0
100
AcDbBlockEnd
  0
ENDSEC
  0
SECTION
  2
ENTITIES
  0
LWPOLYLINE
  5
7DE1B343D9E110A
330
7DE1B343D9E261D
100
AcDbEntity
  8
0
100
AcDbPolyline
 90
       26
 70
     1
 43
0.0
 10
1.3152859208669
 20
2.023500702553036
 10
1.4090359208669
 20
2.023500702553036
 10
1.4090359208669
 20
1.554750702553036
 10
1.492785920866901
 20
1.554750702553037
 10
1.5027859208669
 20
1.544750702553037
 10
1.5127859208669
 20
1.554750702553036
 10
1.5652859208669
 20
1.554750702553037
 10
1.5652859208669
 20
2.023500702553036
 10
1.6277859208669
 20
2.023500702553036
 10
1.6277859208669
 20
1.846000702553038
 10
1.6177859208669
 20
1.836000702553038
 10
1.6277859208669
 20
1.826000702553038
 10
1.627785920866902
 20
0.8985007025530368
 10
1.7525359208669
 20
0.8985007025530366
 10
1.7525359208669
 20
0.8047507025530366
 10
0.8775359208669012
 20
0.8047507025530366
 10
0.8775359208669012
 20
1.179750702553036
 10
0.902535920866901
 20
1.223051972742258
 10
0.902535920866901
 20
1.554750702553036
 10
0.947535920866901
 20
1.554750702553036
 10
0.947535920866901
 20
1.211000702553036
 10
1.260035920866901
 20
1.211000702553036
 10
1.260035920866901
 20
1.554750702553036
 10
1.3465359208669
 20
1.554750702553036
 10
1.3465359208669
 20
1.711000702553036
 10
1.315285920866901
 20
1.711000702553036
  0
LWPOLYLINE
  5
7DE1B343D9E122A
330
7DE1B343D9E261D
100
AcDbEntity
  8
0
100
AcDbPolyline
 90
       15
 70
     1
 43
0.0
 10
1.260035920866901
 20
1.148500702553036
 42
0.4142135623730951
 10
1.322535920866901
 20
1.211000702553036
 10
1.322535920866901
 20
1.461000702553036
 42
-0.4142135623730951
 10
1.353785920866901
 20
1.492250702553036
 10
1.5340359208669
 20
1.492250702553036
 42
-0.4142135623730951
 10
1.5652859208669
 20
1.461000702553036
 10
1.565285920866902
 20
0.8985007025530368
 10
1.221285920866901
 20
0.8985007025530366
 10
1.221285920866901
 20
0.9585007025530368
 10
1.201285920866901
 20
0.9585007025530368
 10
1.141285920866901
 20
0.8985007025530366
 10
0.9712859208669012
 20
0.8985007025530366
 42
-0.4142135623730941
 10
0.9400359208669012
 20
0.9297507025530366
 10
0.9400359208669007
 20
1.117250702553036
 42
-0.4142135623730956
 10
0.9712859208669007
 20
1.148500702553036
  0
TEXT
  5
7DE1B343D9E24C8
330
7DE1B343D9E261D
100
AcDbEntity
  8
TEXT
100
AcDbText
 10
0.5620597303907108
 20
0.493984836023873
 30
0.0
 40
0.125
  1
PART #120070
  7
ITALICC
 72
     1
 11
1.315035920866901
 21
0.493984836023873
 31
0.0
100
AcDbText
  0
TEXT
  5
7DE1B343D9E24C9
330
7DE1B343D9E261D
100
AcDbEntity
  8
TEXT
100
AcDbText
 10
1.728341079117221
 20
0.0470621933514979
 30
0.0
 40
0.0522247191011236
  1
Phone  1-800-328-2495
 41
1.272321428571429
 72
     5
 11
3.057273663386885
 21
0.0470621933514979
 31
0.0
100
AcDbText
  0
TEXT
  5
7DE1B343D9E24CA
330
7DE1B343D9E261D
100
AcDbEntity
  8
TEXT
100
AcDbText
 10
1.728341079117221
 20
0.3268374742503743
 30
0.0
 40
0.0522247191011236
  1
Stylmark  Incorporated
 41
1.221428571428572
 72
     5
 11
3.057273663386885
 21
0.3268374742503743
 31
0.0
100
AcDbText
  0
TEXT
  5
7DE1B343D9E24CB
330
7DE1B343D9E261D
100
AcDbEntity
  8
TEXT
100
AcDbText
 10
1.728341079117221
 20
0.2335790472840822
 30
0.0
 40
0.0522247191011236
  1
6536 Main St. N.E. * P.O. Box 32008
 41
0.8388932496075364
 72
     5
 11
3.057273663386885
 21
0.2335790472840822
 31
0.0
100
AcDbText
  0
TEXT
  5
7DE1B343D9E24CC
330
7DE1B343D9E261D
100
AcDbEntity
  8
TEXT
100
AcDbText
 10
1.728341079117221
 20
0.14032062031779
 30
0.0
 40
0.0522247191011236
  1
Minneapolis, MN 55432-0008
 41
1.11444212721585
 72
     5
 11
3.057273663386885
 21
0.14032062031779
 31
0.0
100
AcDbText
  0
LWPOLYLINE
  5
7DE1B343D9E24CD
330
7DE1B343D9E261D
100
AcDbEntity
  8
TEXT
100
AcDbPolyline
 90
        3
 70
     0
 43
0.0006660908203125
 10
-0.427612612950086
 20
0.1607069559889327
 10
-0.427612612950086
 20
0.0474715165358051
 10
-0.3143771734969636
 20
0.0474715165358051
  0
LWPOLYLINE
  5
7DE1B343D9E24D2
330
7DE1B343D9E261D
100
AcDbEntity
  8
TEXT
100
AcDbPolyline
 90
        3
 70
     0
 43
0.0006660908203125
 10
-0.4009689801375885
 20
0.1607069559889327
 10
-0.4009689801375885
 20
0.0741151493483061
 10
-0.3143771734969636
 20
0.0741151493483061
  0
LWPOLYLINE
  5
7DE1B343D9E24D7
330
7DE1B343D9E261D
100
AcDbEntity
  8
TEXT
100
AcDbPolyline
 90
        2
 70
     0
 43
0.0001332181640625
 10
-0.3543426227157116
 20
0.1706983182936179
 10
-0.427612612950086
 20
0.1607069559889327
  0
LWPOLYLINE
  5
7DE1B343D9E24DB
330
7DE1B343D9E261D
100
AcDbEntity
  8
TEXT
100
AcDbPolyline
 90
        2
 70
     0
 43
0.0001332181640625
 10
-0.4009689801375885
 20
0.1607069559889327
 10
-0.3410208063094611
 20
0.1706983182936179
  0
LWPOLYLINE
  5
7DE1B343D9E24DF
330
7DE1B343D9E261D
100
AcDbEntity
  8
TEXT
100
AcDbPolyline
 90
        2
 70
     0
 43
0.0001332181640625
 10
-0.4009689801375885
 20
0.0741151493483061
 10
-0.3410208063094611
 20
0.1340633231764317
  0
LWPOLYLINE
  5
7DE1B343D9E24E3
330
7DE1B343D9E261D
100
AcDbEntity
  8
TEXT
100
AcDbPolyline
 90
        3
 70
     0
 43
0.0006660908203125
 10
-0.3143771734969636
 20
0.3139078446608083
 10
-0.427612612950086
 20
0.3139078446608083
 10
-0.427612612950086
 20
0.2006724052076807
  0
LWPOLYLINE
  5
7DE1B343D9E24E8
330
7DE1B343D9E261D
100
AcDbEntity
  8
TEXT
100
AcDbPolyline
 90
        3
 70
     0
 43
0.0006660908203125
 10
-0.3143771734969636
 20
0.2872642118483073
 10
-0.4009689801375885
 20
0.2872642118483073
 10
-0.4009689801375885
 20
0.2006724052076807
  0
LWPOLYLINE
  5
7DE1B343D9E24ED
330
7DE1B343D9E261D
100
AcDbEntity
  8
TEXT
100
AcDbPolyline
 90
        2
 70
     0
 43
0.0001332181640625
 10
-0.4009689801375885
 20
0.2872642118483073
 10
-0.3410208063094628
 20
0.2273160380201817
  0
LWPOLYLINE
  5
7DE1B343D9E24F1
330
7DE1B343D9E261D
100
AcDbEntity
  8
TEXT
100
AcDbPolyline
 90
        2
 70
     0
 43
0.0001332181640625
 10
-0.4009689801375885
 20
0.2006724052076807
 10
-0.3410208063094628
 20
0.1906810429029919
  0
LWPOLYLINE
  5
7DE1B343D9E24F5
330
7DE1B343D9E261D
100
AcDbEntity
  8
TEXT
100
AcDbPolyline
 90
        2
 70
     0
 43
0.0001332181640625
 10
-0.427612612950086
 20
0.2006724052076807
 10
-0.3543426227157116
 20
0.1906810429029919
  0
LWPOLYLINE
  5
7DE1B343D9E24F9
330
7DE1B343D9E261D
100
AcDbEntity
  8
TEXT
100
AcDbPolyline
 90
        2
 70
     0
 43
0.0006660908203125
 10
-0.4009689801375885
 20
0.1607069559889327
 10
-0.427612612950086
 20
0.1607069559889327
  0
LWPOLYLINE
  5
7DE1B343D9E24FD
330
7DE1B343D9E261D
100
AcDbEntity
  8
TEXT
100
AcDbPolyline
 90
        2
 70
     0
 43
0.0006660908203125
 10
-0.4009689801375885
 20
0.2006724052076807
 10
-0.427612612950086
 20
0.2006724052076807
  0
LINE
  5
7DE1B343D9E2501
330
7DE1B343D9E261D
100
AcDbEntity
  8
TEXT
100
AcDbLine
 10
1.087577816176411
 20
0.2496311500040393
 30
0.0
 11
0.9803715427891221
 21
0.2496311500040393
 31
0.0
  0
LINE
  5
7DE1B343D9E2502
330
7DE1B343D9E261D
100
AcDbEntity
  8
TEXT
100
AcDbLine
 10
1.11660871452089
 20
0.3139078446608048
 30
0.0
 11
0.9817768053038308
 21
0.3139078446608048
 31
0.0
  0
ARC
  5
7DE1B343D9E2503
330
7DE1B343D9E261D
100
AcDbEntity
  8
TEXT
100
AcDbCircle
 10
1.041090901697147
 20
0.1446705953977885
 30
0.0
 40
0.0676855811441166
100
AcDbArc
 50
90.0
 51
153.7768192527749
  0
LWPOLYLINE
  5
7DE1B343D9E2504
330
7DE1B343D9E261D
100
AcDbEntity
  8
TEXT
100
AcDbPolyline
 90
        2
 70
     0
 43
0.0
 10
0.9793390473343121
 20
0.090925756622732
 42
0.2901071551932823
 10
1.022414980201947
 20
0.0474348116722938
 42
5.328517124445801
  0
ARC
  5
7DE1B343D9E2508
330
7DE1B343D9E261D
100
AcDbEntity
  8
TEXT
100
AcDbCircle
 10
0.3359595240256621
 20
0.1072272030103436
 30
0.0
 40
0.0601160179737537
100
AcDbArc
 50
180.0000000000003
 51
264.0521544866073
  0
LINE
  5
7DE1B343D9E2509
330
7DE1B343D9E261D
100
AcDbEntity
  8
TEXT
100
AcDbLine
 10
0.3394748796512099
 20
0.348295762254943
 30
0.0
 11
0.2794322748072029
 21
0.348295762254943
 31
0.0
  0
ARC
  5
7DE1B343D9E250A
330
7DE1B343D9E261D
100
AcDbEntity
  8
TEXT
100
AcDbCircle
 10
0.1037005219086915
 20
0.231820385214303
 30
0.0
 40
0.0820874594465043
100
AcDbArc
 50
90.0
 51
270.0
  0
LWPOLYLINE
  5
7DE1B343D9E250B
330
7DE1B343D9E261D
100
AcDbEntity
  8
TEXT
100
AcDbPolyline
 90
        2
 70
     0
 43
0.0001332181640625
 10
-0.304385811192273
 20
0.2406378544264287
 10
-0.3143771734969636
 20
0.3139078446608083
  0
LWPOLYLINE
  5
7DE1B343D9E250F
330
7DE1B343D9E261D
100
AcDbEntity
  8
TEXT
100
AcDbPolyline
 90
        2
 70
     0
 43
0.0001332181640625
 10
-0.3143771734969636
 20
0.2872642118483073
 10
-0.304385811192273
 20
0.2273160380201817
  0
LWPOLYLINE
  5
7DE1B343D9E2513
330
7DE1B343D9E261D
100
AcDbEntity
  8
TEXT
100
AcDbPolyline
 90
        3
 70
     0
 43
0.0006660908203125
 10
-0.1611762848250862
 20
0.2006724052076807
 10
-0.1611762848250862
 20
0.3139078446608083
 10
-0.274411724278212
 20
0.3139078446608083
  0
LWPOLYLINE
  5
7DE1B343D9E2518
330
7DE1B343D9E261D
100
AcDbEntity
  8
TEXT
100
AcDbPolyline
 90
        3
 70
     0
 43
0.0006660908203125
 10
-0.1878199176375872
 20
0.2006724052076807
 10
-0.1878199176375872
 20
0.2872642118483073
 10
-0.274411724278212
 20
0.2872642118483073
  0
LWPOLYLINE
  5
7DE1B343D9E251D
330
7DE1B343D9E261D
100
AcDbEntity
  8
TEXT
100
AcDbPolyline
 90
        2
 70
     0
 43
0.0001332181640625
 10
-0.1878199176375872
 20
0.2872642118483073
 10
-0.247768091465711
 20
0.2273160380201817
  0
LWPOLYLINE
  5
7DE1B343D9E2521
330
7DE1B343D9E261D
100
AcDbEntity
  8
TEXT
100
AcDbPolyline
 90
        2
 70
     0
 43
0.0001332181640625
 10
-0.274411724278212
 20
0.2872642118483073
 10
-0.2844030865829008
 20
0.2273160380201817
  0
LWPOLYLINE
  5
7DE1B343D9E2525
330
7DE1B343D9E261D
100
AcDbEntity
  8
TEXT
100
AcDbPolyline
 90
        2
 70
     0
 43
0.0001332181640625
 10
-0.274411724278212
 20
0.3139078446608083
 10
-0.2844030865829008
 20
0.2406378544264287
  0
LWPOLYLINE
  5
7DE1B343D9E2529
330
7DE1B343D9E261D
100
AcDbEntity
  8
TEXT
100
AcDbPolyline
 90
        2
 70
     0
 43
0.0001332181640625
 10
-0.2344462750594622
 20
0.1906810429029919
 10
-0.1611762848250862
 20
0.2006724052076807
  0
LWPOLYLINE
  5
7DE1B343D9E252D
330
7DE1B343D9E261D
100
AcDbEntity
  8
TEXT
100
AcDbPolyline
 90
        2
 70
     0
 43
0.0001332181640625
 10
-0.1878199176375872
 20
0.2006724052076807
 10
-0.247768091465711
 20
0.1906810429029919
  0
LWPOLYLINE
  5
7DE1B343D9E2531
330
7DE1B343D9E261D
100
AcDbEntity
  8
TEXT
100
AcDbPolyline
 90
        2
 70
     0
 43
0.0001332181640625
 10
-0.1611762848250862
 20
0.1607069559889327
 10
-0.2344462750594622
 20
0.1706983182936179
  0
LWPOLYLINE
  5
7DE1B343D9E2535
330
7DE1B343D9E261D
100
AcDbEntity
  8
TEXT
100
AcDbPolyline
 90
        2
 70
     0
 43
0.0001332181640625
 10
-0.1878199176375872
 20
0.1607069559889327
 10
-0.247768091465711
 20
0.1706983182936179
  0
LWPOLYLINE
  5
7DE1B343D9E2539
330
7DE1B343D9E261D
100
AcDbEntity
  8
TEXT
100
AcDbPolyline
 90
        2
 70
     0
 43
0.0001332181640625
 10
-0.1878199176375872
 20
0.0741151493483061
 10
-0.247768091465711
 20
0.1340633231764317
  0
LWPOLYLINE
  5
7DE1B343D9E253D
330
7DE1B343D9E261D
100
AcDbEntity
  8
TEXT
100
AcDbPolyline
 90
        3
 70
     0
 43
0.0006660908203125
 10
-0.274411724278212
 20
0.0741151493483061
 10
-0.1878199176375872
 20
0.0741151493483061
 10
-0.1878199176375872
 20
0.1607069559889327
  0
LWPOLYLINE
  5
7DE1B343D9E2542
330
7DE1B343D9E261D
100
AcDbEntity
  8
TEXT
100
AcDbPolyline
 90
        3
 70
     0
 43
0.0006660908203125
 10
-0.274411724278212
 20
0.0474715165358051
 10
-0.1611762848250862
 20
0.0474715165358051
 10
-0.1611762848250862
 20
0.1607069559889327
  0
LWPOLYLINE
  5
7DE1B343D9E2547
330
7DE1B343D9E261D
100
AcDbEntity
  8
TEXT
100
AcDbPolyline
 90
        5
 70
     0
 43
0.0001332181640625
 10
-0.304385811192273
 20
0.1207415067701811
 10
-0.304385811192273
 20
0.1340633231764317
 10
-0.3410208063094611
 20
0.1340633231764317
 10
-0.3410208063094611
 20
0.1706983182936179
 10
-0.3543426227157116
 20
0.1706983182936179
  0
LWPOLYLINE
  5
7DE1B343D9E254E
330
7DE1B343D9E261D
100
AcDbEntity
  8
TEXT
100
AcDbPolyline
 90
        2
 70
     0
 43
0.0006660908203125
 10
-0.3143771734969636
 20
0.0741151493483061
 10
-0.3143771734969636
 20
0.0474715165358051
  0
LWPOLYLINE
  5
7DE1B343D9E2552
330
7DE1B343D9E261D
100
AcDbEntity
  8
TEXT
100
AcDbPolyline
 90
        2
 70
     0
 43
0.0001332181640625
 10
-0.3143771734969636
 20
0.0741151493483061
 10
-0.304385811192273
 20
0.1340633231764317
  0
LWPOLYLINE
  5
7DE1B343D9E2556
330
7DE1B343D9E261D
100
AcDbEntity
  8
TEXT
100
AcDbPolyline
 90
        2
 70
     0
 43
0.0001332181640625
 10
-0.3143771734969636
 20
0.0474715165358051
 10
-0.304385811192273
 20
0.1207415067701811
  0
LWPOLYLINE
  5
7DE1B343D9E255A
330
7DE1B343D9E261D
100
AcDbEntity
  8
TEXT
100
AcDbPolyline
 90
        5
 70
     0
 43
0.0001332181640625
 10
-0.3543426227157116
 20
0.1906810429029919
 10
-0.3410208063094628
 20
0.1906810429029919
 10
-0.3410208063094628
 20
0.2273160380201817
 10
-0.304385811192273
 20
0.2273160380201817
 10
-0.304385811192273
 20
0.2406378544264287
  0
LWPOLYLINE
  5
7DE1B343D9E2561
330
7DE1B343D9E261D
100
AcDbEntity
  8
TEXT
100
AcDbPolyline
 90
        5
 70
     0
 43
0.0001332181640625
 10
-0.2844030865829008
 20
0.2406378544264287
 10
-0.2844030865829008
 20
0.2273160380201817
 10
-0.247768091465711
 20
0.2273160380201817
 10
-0.247768091465711
 20
0.1906810429029919
 10
-0.2344462750594622
 20
0.1906810429029919
  0
LWPOLYLINE
  5
7DE1B343D9E2568
330
7DE1B343D9E261D
100
AcDbEntity
  8
TEXT
100
AcDbPolyline
 90
        2
 70
     0
 43
0.0001332181640625
 10
-0.274411724278212
 20
0.0741151493483061
 10
-0.2844030865829008
 20
0.1340633231764317
  0
LWPOLYLINE
  5
7DE1B343D9E256C
330
7DE1B343D9E261D
100
AcDbEntity
  8
TEXT
100
AcDbPolyline
 90
        2
 70
     0
 43
0.0001332181640625
 10
-0.2844030865829008
 20
0.1207415067701811
 10
-0.274411724278212
 20
0.0474715165358051
  0
LWPOLYLINE
  5
7DE1B343D9E2570
330
7DE1B343D9E261D
100
AcDbEntity
  8
TEXT
100
AcDbPolyline
 90
        2
 70
     0
 43
0.0006660908203125
 10
-0.274411724278212
 20
0.0741151493483061
 10
-0.274411724278212
 20
0.0474715165358051
  0
LWPOLYLINE
  5
7DE1B343D9E2574
330
7DE1B343D9E261D
100
AcDbEntity
  8
TEXT
100
AcDbPolyline
 90
        5
 70
     0
 43
0.0001332181640625
 10
-0.2344462750594622
 20
0.1706983182936179
 10
-0.247768091465711
 20
0.1706983182936179
 10
-0.247768091465711
 20
0.1340633231764317
 10
-0.2844030865829008
 20
0.1340633231764317
 10
-0.2844030865829008
 20
0.1207415067701811
  0
LWPOLYLINE
  5
7DE1B343D9E257B
330
7DE1B343D9E261D
100
AcDbEntity
  8
TEXT
100
AcDbPolyline
 90
        2
 70
     0
 43
0.0006660908203125
 10
-0.1878199176375872
 20
0.2006724052076807
 10
-0.1611762848250862
 20
0.2006724052076807
  0
LWPOLYLINE
  5
7DE1B343D9E257F
330
7DE1B343D9E261D
100
AcDbEntity
  8
TEXT
100
AcDbPolyline
 90
        2
 70
     0
 43
0.0006660908203125
 10
-0.1878199176375872
 20
0.1607069559889327
 10
-0.1611762848250862
 20
0.1607069559889327
  0
LINE
  5
7DE1B343D9E2583
330
7DE1B343D9E261D
100
AcDbEntity
  8
TEXT
100
AcDbLine
 10
0.1089378520229387
 20
0.2496311500040393
 30
0.0
 11
0.27584350605191
 21
0.2496311500040393
 31
0.0
  0
LINE
  5
7DE1B343D9E2584
330
7DE1B343D9E261D
100
AcDbEntity
  8
TEXT
100
AcDbLine
 10
0.1745379882672398
 20
0.2138264283934115
 30
0.0
 11
0.1089378520229387
 21
0.2138264283934115
 31
0.0
  0
LINE
  5
7DE1B343D9E2585
330
7DE1B343D9E261D
100
AcDbEntity
  8
TEXT
100
AcDbLine
 10
0.0216130624621871
 20
0.0474348116722938
 30
0.0
 11
0.1745379882672398
 21
0.0474348116722938
 31
0.0
  0
LINE
  5
7DE1B343D9E2586
330
7DE1B343D9E261D
100
AcDbEntity
  8
TEXT
100
AcDbLine
 10
0.1794783621735194
 20
0.1157918180057331
 30
0.0
 11
0.0216130624621853
 21
0.1157918180057331
 31
0.0
  0
LINE
  5
7DE1B343D9E2587
330
7DE1B343D9E261D
100
AcDbEntity
  8
TEXT
100
AcDbLine
 10
0.1037005219086906
 20
0.1497329257677977
 30
0.0
 11
0.1794783621735194
 21
0.1497329257677977
 31
0.0
  0
ARC
  5
7DE1B343D9E2588
330
7DE1B343D9E261D
100
AcDbEntity
  8
TEXT
100
AcDbCircle
 10
0.1089378520229396
 20
0.2317287891987272
 30
0.0
 40
0.017902360805315
100
AcDbArc
 50
90.0
 51
270.0
  0
LINE
  5
7DE1B343D9E2589
330
7DE1B343D9E261D
100
AcDbEntity
  8
TEXT
100
AcDbLine
 10
0.0216130624621853
 20
0.1157918180057331
 30
0.0
 11
0.0216130624621871
 21
0.0474348116722938
 31
0.0
  0
LINE
  5
7DE1B343D9E258A
330
7DE1B343D9E261D
100
AcDbEntity
  8
TEXT
100
AcDbLine
 10
0.27584350605191
 20
0.2496311500040393
 30
0.0
 11
0.27584350605191
 21
0.1072272030103436
 31
0.0
  0
ARC
  5
7DE1B343D9E258B
330
7DE1B343D9E261D
100
AcDbEntity
  8
TEXT
100
AcDbCircle
 10
0.1745379882672406
 20
0.1306306200328509
 30
0.0
 40
0.0831958083605586
100
AcDbArc
 50
270.0
 51
90.0
  0
ARC
  5
7DE1B343D9E258C
330
7DE1B343D9E261D
100
AcDbEntity
  8
TEXT
100
AcDbCircle
 10
0.1794783621735203
 20
0.1327623718867672
 30
0.0
 40
0.0169705538810321
100
AcDbArc
 50
270.0
 51
90.0
  0
LWPOLYLINE
  5
7DE1B343D9E258D
330
7DE1B343D9E261D
100
AcDbEntity
  8
TEXT
100
AcDbPolyline
 90
        2
 70
     0
 43
0.0006660908203125
 10
-0.3143771734969636
 20
0.2872642118483073
 10
-0.3143771734969636
 20
0.3139078446608083
  0
LWPOLYLINE
  5
7DE1B343D9E2591
330
7DE1B343D9E261D
100
AcDbEntity
  8
TEXT
100
AcDbPolyline
 90
        2
 70
     0
 43
0.0006660908203125
 10
-0.274411724278212
 20
0.2872642118483073
 10
-0.274411724278212
 20
0.3139078446608083
  0
LINE
  5
7DE1B343D9E2595
330
7DE1B343D9E261D
100
AcDbEntity
  8
TEXT
100
AcDbLine
 10
0.2794322748072029
 20
0.3139078446608048
 30
0.0
 11
0.1037005219086906
 21
0.3139078446608048
 31
0.0
  0
LINE
  5
7DE1B343D9E2596
330
7DE1B343D9E261D
100
AcDbEntity
  8
TEXT
100
AcDbLine
 10
0.2794322748072029
 20
0.348295762254943
 30
0.0
 11
0.2794322748072029
 21
0.3139078446608048
 31
0.0
  0
LINE
  5
7DE1B343D9E2597
330
7DE1B343D9E261D
100
AcDbEntity
  8
TEXT
100
AcDbLine
 10
0.4699041668270552
 20
0.2130358485476842
 30
0.0
 11
0.4112738457951173
 21
0.3139078446608048
 31
0.0
  0
LINE
  5
7DE1B343D9E2598
330
7DE1B343D9E261D
100
AcDbEntity
  8
TEXT
100
AcDbLine
 10
0.5286527296329206
 20
0.3139078446608048
 30
0.0
 11
0.4699041668270552
 21
0.2130358485476842
 31
0.0
  0
LINE
  5
7DE1B343D9E2599
330
7DE1B343D9E261D
100
AcDbEntity
  8
TEXT
100
AcDbLine
 10
0.6255833549926619
 20
0.129822649775293
 30
0.0
 11
0.6255833549926619
 21
0.3819193223996153
 31
0.0
  0
LINE
  5
7DE1B343D9E259A
330
7DE1B343D9E261D
100
AcDbEntity
  8
TEXT
100
AcDbLine
 10
0.6578952091303221
 20
0.3139078446608048
 30
0.0
 11
0.6578952091303221
 21
0.1130436379283966
 31
0.0
  0
LINE
  5
7DE1B343D9E259B
330
7DE1B343D9E261D
100
AcDbEntity
  8
TEXT
100
AcDbLine
 10
0.6578952091303221
 20
0.1130436379283966
 30
0.0
 11
0.6409015722457207
 21
0.1130436379283966
 31
0.0
  0
LINE
  5
7DE1B343D9E259C
330
7DE1B343D9E261D
100
AcDbEntity
  8
TEXT
100
AcDbLine
 10
0.6267229284888567
 20
0.0474348116722938
 30
0.0
 11
0.7247262621882913
 21
0.0474348116722938
 31
0.0
  0
LINE
  5
7DE1B343D9E259D
330
7DE1B343D9E261D
100
AcDbEntity
  8
TEXT
100
AcDbLine
 10
0.4603039298301008
 20
0.0673933177773067
 30
0.0
 11
0.5576036359235454
 21
0.2317435287125749
 31
0.0
  0
ARC
  5
7DE1B343D9E259E
330
7DE1B343D9E261D
100
AcDbEntity
  8
TEXT
100
AcDbCircle
 10
0.4262603699178868
 20
0.0869825339459896
 30
0.0
 40
0.0392772371940762
100
AcDbArc
 50
270.1604552698595
 51
330.0831797321295
  0
LINE
  5
7DE1B343D9E259F
330
7DE1B343D9E261D
100
AcDbEntity
  8
TEXT
100
AcDbLine
 10
0.3297301135320156
 20
0.0474348116722938
 30
0.0
 11
0.42637036460701
 21
0.0477054507705761
 31
0.0
  0
LWPOLYLINE
  5
7DE1B343D9E25A0
330
7DE1B343D9E261D
100
AcDbEntity
  8
TEXT
100
AcDbPolyline
 90
        6
 70
     1
 43
0.0
 10
0.3722539171071653
 20
0.2496311500040393
 10
0.3419373228869571
 20
0.2496311500040393
 10
0.3419373228869571
 20
0.126520151949145
 42
0.407328721240804
 10
0.3534809740484335
 20
0.1147012372727589
 10
0.4141026730931643
 20
0.1147012372727589
 10
0.4315680135004822
 20
0.1475134663162381
  0
LINE
  5
7DE1B343D9E25A8
330
7DE1B343D9E261D
100
AcDbEntity
  8
TEXT
100
AcDbLine
 10
0.5576036359235454
 20
0.2317435287125749
 30
0.0
 11
0.5576036359235454
 21
0.0989861538872186
 31
0.0
  0
ARC
  5
7DE1B343D9E25A9
330
7DE1B343D9E261D
100
AcDbEntity
  8
TEXT
100
AcDbCircle
 10
0.640901572245719
 20
0.128425444171822
 30
0.0
 40
0.0153818062434269
100
AcDbArc
 50
174.7883570302258
 51
270.0
  0
LWPOLYLINE
  5
7DE1B343D9E25AA
330
7DE1B343D9E261D
100
AcDbEntity
  8
TEXT
100
AcDbPolyline
 90
        2
 70
     0
 43
0.0
 10
0.5576036359235437
 20
0.0989861538872221
 42
0.3318488747599744
 10
0.6267229284888567
 20
0.0474348116722938
 42
-6.868794160588311
  0
LINE
  5
7DE1B343D9E25AE
330
7DE1B343D9E261D
100
AcDbEntity
  8
TEXT
100
AcDbLine
 10
0.7821153311775524
 20
0.0474348116722938
 30
0.0
 11
0.8491733779593923
 21
0.0474348116722938
 31
0.0
  0
LINE
  5
7DE1B343D9E25AF
330
7DE1B343D9E261D
100
AcDbEntity
  8
TEXT
100
AcDbLine
 10
0.7821153311775524
 20
0.2420773608379294
 30
0.0
 11
0.7821153311775524
 21
0.0474348116722938
 31
0.0
  0
LINE
  5
7DE1B343D9E25B0
330
7DE1B343D9E261D
100
AcDbEntity
  8
TEXT
100
AcDbLine
 10
0.7247262621882913
 20
0.2496311500040393
 30
0.0
 11
0.7745615420114389
 21
0.2496311500040393
 31
0.0
  0
LINE
  5
7DE1B343D9E25B1
330
7DE1B343D9E261D
100
AcDbEntity
  8
TEXT
100
AcDbLine
 10
0.7247262621882913
 20
0.0474348116722938
 30
0.0
 11
0.7247262621882913
 21
0.2496311500040393
 31
0.0
  0
LWPOLYLINE
  5
7DE1B343D9E25B2
330
7DE1B343D9E261D
100
AcDbEntity
  8
TEXT
100
AcDbPolyline
 90
        2
 70
     0
 43
0.0
 10
0.7745615420114371
 20
0.2496311500040393
 42
-0.4142135623731017
 10
0.7821153311775506
 20
0.2420773608379294
 42
-0.9999999999999998
  0
LINE
  5
7DE1B343D9E25B6
330
7DE1B343D9E261D
100
AcDbEntity
  8
TEXT
100
AcDbLine
 10
0.9803715427891221
 20
0.2496311500040393
 30
0.0
 11
0.9803715427891221
 21
0.1745787439298327
 31
0.0
  0
LINE
  5
7DE1B343D9E25B7
330
7DE1B343D9E261D
100
AcDbEntity
  8
TEXT
100
AcDbLine
 10
0.8491733779593923
 20
0.2496311500040393
 30
0.0
 11
0.9033069748803425
 21
0.2496311500040393
 31
0.0
  0
LINE
  5
7DE1B343D9E25B8
330
7DE1B343D9E261D
100
AcDbEntity
  8
TEXT
100
AcDbLine
 10
0.8491733779593923
 20
0.0474348116722938
 30
0.0
 11
0.8491733779593923
 21
0.2496311500040393
 31
0.0
  0
LWPOLYLINE
  5
7DE1B343D9E25B9
330
7DE1B343D9E261D
100
AcDbEntity
  8
TEXT
100
AcDbPolyline
 90
        2
 70
     0
 43
0.0
 10
0.9033069748803407
 20
0.2496311500040393
 42
-0.4142135623731017
 10
0.9108607640464542
 20
0.2420773608379294
 42
-0.9999999999999998
  0
LWPOLYLINE
  5
7DE1B343D9E25BD
330
7DE1B343D9E261D
100
AcDbEntity
  8
TEXT
100
AcDbPolyline
 90
        4
 70
     0
 43
0.0
 10
0.9108607640464542
 20
0.2420773608379294
 10
0.9108607640464542
 20
0.0474348116722938
 10
0.9793390473343121
 20
0.0474348116722938
 10
0.9793390473343121
 20
0.090925756622732
 42
-1.714843617202739
  0
LINE
  5
7DE1B343D9E25C3
330
7DE1B343D9E261D
100
AcDbEntity
  8
TEXT
100
AcDbLine
 10
0.3394748796512099
 20
0.3139078446608048
 30
0.0
 11
0.3394748796512099
 21
0.348295762254943
 31
0.0
  0
LINE
  5
7DE1B343D9E25C4
330
7DE1B343D9E261D
100
AcDbEntity
  8
TEXT
100
AcDbLine
 10
0.4112738457951173
 20
0.3139078446608048
 30
0.0
 11
0.3394748796512099
 21
0.3139078446608048
 31
0.0
  0
LINE
  5
7DE1B343D9E25C5
330
7DE1B343D9E261D
100
AcDbEntity
  8
TEXT
100
AcDbLine
 10
0.5587746424262969
 20
0.3139078446608048
 30
0.0
 11
0.5286527296329206
 21
0.3139078446608048
 31
0.0
  0
LINE
  5
7DE1B343D9E25C6
330
7DE1B343D9E261D
100
AcDbEntity
  8
TEXT
100
AcDbLine
 10
0.5587746424262969
 20
0.3819193223996153
 30
0.0
 11
0.5587746424262969
 21
0.3139078446608048
 31
0.0
  0
LINE
  5
7DE1B343D9E25C7
330
7DE1B343D9E261D
100
AcDbEntity
  8
TEXT
100
AcDbLine
 10
0.6255833549926619
 20
0.3819193223996153
 30
0.0
 11
0.5587746424262969
 21
0.3819193223996153
 31
0.0
  0
LWPOLYLINE
  5
7DE1B343D9E25C8
330
7DE1B343D9E261D
100
AcDbEntity
  8
TEXT
100
AcDbPolyline
 90
        3
 70
     0
 43
0.0
 10
0.9459951145906641
 20
0.3139078446608083
 10
0.8276949557746197
 20
0.3139078446608083
 10
0.8276949557746197
 20
0.2867403478999124
 42
-1.960274751411753
  0
LINE
  5
7DE1B343D9E25CD
330
7DE1B343D9E261D
100
AcDbEntity
  8
TEXT
100
AcDbLine
 10
0.7919132650614584
 20
0.3139078446608048
 30
0.0
 11
0.6578952091303221
 21
0.3139078446608048
 31
0.0
  0
LWPOLYLINE
  5
7DE1B343D9E25CE
330
7DE1B343D9E261D
100
AcDbEntity
  8
TEXT
100
AcDbPolyline
 90
        2
 70
     0
 43
0.0
 10
0.7919132650614584
 20
0.3139078446608083
 42
-0.3328679258950098
 10
0.8276949557746197
 20
0.2867403478999124
 42
6.772930709997214
  0
LINE
  5
7DE1B343D9E25D2
330
7DE1B343D9E261D
100
AcDbEntity
  8
TEXT
100
AcDbLine
 10
0.9817768053038308
 20
0.3139078446608048
 30
0.0
 11
0.9817768053038308
 21
0.2855852988911609
 31
0.0
  0
LWPOLYLINE
  5
7DE1B343D9E25D3
330
7DE1B343D9E261D
100
AcDbEntity
  8
TEXT
100
AcDbPolyline
 90
        2
 70
     0
 43
0.0
 10
0.9459951145906641
 20
0.3139078446608083
 42
-0.3277054968067132
 10
0.9817768053038291
 20
0.2855852988911644
 42
6.667889725900311
  0
LINE
  5
7DE1B343D9E25D7
330
7DE1B343D9E261D
100
AcDbEntity
  8
TEXT
100
AcDbLine
 10
1.195568653395931
 20
0.2086958661073774
 30
0.0
 11
1.151817882214029
 21
0.2909461421035226
 31
0.0
  0
LINE
  5
7DE1B343D9E25D8
330
7DE1B343D9E261D
100
AcDbEntity
  8
TEXT
100
AcDbLine
 10
1.195568653395931
 20
0.3139078446608048
 30
0.0
 11
1.195568653395931
 21
0.2086958661073774
 31
0.0
  0
LINE
  5
7DE1B343D9E25D9
330
7DE1B343D9E261D
100
AcDbEntity
  8
TEXT
100
AcDbLine
 10
1.4232523923343
 20
0.2380425182492667
 30
0.0
 11
1.4232523923343
 21
0.3793720504284055
 31
0.0
  0
LINE
  5
7DE1B343D9E25DA
330
7DE1B343D9E261D
100
AcDbEntity
  8
TEXT
100
AcDbLine
 10
1.470350550890284
 20
0.3139078446608048
 30
0.0
 11
1.4232523923343
 21
0.2380425182492667
 31
0.0
  0
LINE
  5
7DE1B343D9E25DB
330
7DE1B343D9E261D
100
AcDbEntity
  8
TEXT
100
AcDbLine
 10
1.480785267654207
 20
0.2040146017198312
 30
0.0
 11
1.545342383619912
 21
0.3139078446608048
 31
0.0
  0
LINE
  5
7DE1B343D9E25DC
330
7DE1B343D9E261D
100
AcDbEntity
  8
TEXT
100
AcDbLine
 10
1.359417401111526
 20
0.0474348116722938
 30
0.0
 11
1.423795585430147
 21
0.0474348116722938
 31
0.0
  0
LWPOLYLINE
  5
7DE1B343D9E25DD
330
7DE1B343D9E261D
100
AcDbEntity
  8
TEXT
100
AcDbPolyline
 90
        2
 70
     0
 43
0.0
 10
1.199508330700968
 20
0.090925756622732
 42
-0.2901071551932486
 10
1.156432397833324
 20
0.0474348116722938
 42
-5.328517124445184
  0
ARC
  5
7DE1B343D9E25E1
330
7DE1B343D9E261D
100
AcDbEntity
  8
TEXT
100
AcDbCircle
 10
1.087577816176409
 20
0.221271775004042
 30
0.0
 40
0.028359375
100
AcDbArc
 50
25.78218179591245
 51
90.0
  0
LINE
  5
7DE1B343D9E25E2
330
7DE1B343D9E261D
100
AcDbEntity
  8
TEXT
100
AcDbLine
 10
1.123378891480532
 20
0.2123561765419071
 30
0.0
 11
1.113114131066968
 21
0.2336067161146014
 31
0.0
  0
LINE
  5
7DE1B343D9E25E3
330
7DE1B343D9E261D
100
AcDbEntity
  8
TEXT
100
AcDbLine
 10
1.041090901697149
 20
0.2123561765419071
 30
0.0
 11
1.123378891480532
 21
0.2123561765419071
 31
0.0
  0
LWPOLYLINE
  5
7DE1B343D9E25E4
330
7DE1B343D9E261D
100
AcDbEntity
  8
TEXT
100
AcDbPolyline
 90
        4
 70
     1
 43
0.0
 10
1.136309932763431
 20
0.150398789656319
 10
1.047649614103573
 20
0.150398789656319
 42
0.9999999999999998
 10
1.047649614103573
 20
0.1080002491524583
 10
1.136309932763431
 20
0.1080002491524583
 42
1.0
  0
LWPOLYLINE
  5
7DE1B343D9E25EA
330
7DE1B343D9E261D
100
AcDbEntity
  8
TEXT
100
AcDbPolyline
 90
        2
 70
     0
 43
0.0
 10
1.022414980201947
 20
0.0474348116722938
 10
1.156432397833324
 20
0.0474348116722938
 42
0.9999999999999998
  0
LINE
  5
7DE1B343D9E25EE
330
7DE1B343D9E261D
100
AcDbEntity
  8
TEXT
100
AcDbLine
 10
1.282769419818963
 20
0.2496311500040393
 30
0.0
 11
1.359417401111521
 21
0.2496311500040393
 31
0.0
  0
LINE
  5
7DE1B343D9E25EF
330
7DE1B343D9E261D
100
AcDbEntity
  8
TEXT
100
AcDbLine
 10
1.359417401111521
 20
0.2496311500040393
 30
0.0
 11
1.359417401111526
 21
0.0474348116722938
 31
0.0
  0
ARC
  5
7DE1B343D9E25F0
330
7DE1B343D9E261D
100
AcDbEntity
  8
TEXT
100
AcDbCircle
 10
1.282769419818962
 20
0.2247252747213766
 30
0.0
 40
0.0249058752826653
100
AcDbArc
 50
89.99971217465335
 51
179.9999999999985
  0
LINE
  5
7DE1B343D9E25F1
330
7DE1B343D9E261D
100
AcDbEntity
  8
TEXT
100
AcDbLine
 10
1.257863544536304
 20
0.0474348116722938
 30
0.0
 11
1.257863544536299
 21
0.2247253171037622
 31
0.0
  0
LWPOLYLINE
  5
7DE1B343D9E25F2
330
7DE1B343D9E261D
100
AcDbEntity
  8
TEXT
100
AcDbPolyline
 90
        2
 70
     0
 43
0.0
 10
1.199508330700968
 20
0.0474348116722938
 10
1.257863544536302
 20
0.0474348116722938
  0
LWPOLYLINE
  5
7DE1B343D9E25F6
330
7DE1B343D9E261D
100
AcDbEntity
  8
TEXT
100
AcDbPolyline
 90
        2
 70
     0
 43
0.0
 10
1.199508330700968
 20
0.090925756622732
 10
1.199508330700968
 20
0.0474348116722938
  0
LINE
  5
7DE1B343D9E25FA
330
7DE1B343D9E261D
100
AcDbEntity
  8
TEXT
100
AcDbLine
 10
1.576277491017817
 20
0.0474348116722938
 30
0.0
 11
1.480785267654207
 21
0.2040146017198312
 31
0.0
  0
LINE
  5
7DE1B343D9E25FB
330
7DE1B343D9E261D
100
AcDbEntity
  8
TEXT
100
AcDbLine
 10
1.499699118641611
 20
0.0474348116722938
 30
0.0
 11
1.576277491017817
 21
0.0474348116722938
 31
0.0
  0
LINE
  5
7DE1B343D9E25FC
330
7DE1B343D9E261D
100
AcDbEntity
  8
TEXT
100
AcDbLine
 10
1.423795585430147
 20
0.179014380148474
 30
0.0
 11
1.499699118641611
 21
0.0474348116722938
 31
0.0
  0
LINE
  5
7DE1B343D9E25FD
330
7DE1B343D9E261D
100
AcDbEntity
  8
TEXT
100
AcDbLine
 10
1.423795585430147
 20
0.0474348116722938
 30
0.0
 11
1.423795585430147
 21
0.179014380148474
 31
0.0
  0
LINE
  5
7DE1B343D9E25FE
330
7DE1B343D9E261D
100
AcDbEntity
  8
TEXT
100
AcDbLine
 10
1.4232523923343
 20
0.3793720504284055
 30
0.0
 11
1.354937513785026
 21
0.3793720504284055
 31
0.0
  0
ARC
  5
7DE1B343D9E25FF
330
7DE1B343D9E261D
100
AcDbEntity
  8
TEXT
100
AcDbCircle
 10
1.11458177474382
 20
0.2723242775399024
 30
0.0
 40
0.0416329381542859
100
AcDbArc
 50
26.56974201007528
 51
87.20939649401342
  0
LINE
  5
7DE1B343D9E2600
330
7DE1B343D9E261D
100
AcDbEntity
  8
TEXT
100
AcDbLine
 10
1.259465559695432
 20
0.3139078446608048
 30
0.0
 11
1.195568653395931
 21
0.3139078446608048
 31
0.0
  0
LINE
  5
7DE1B343D9E2601
330
7DE1B343D9E261D
100
AcDbEntity
  8
TEXT
100
AcDbLine
 10
1.259465559695432
 20
0.2863601947999301
 30
0.0
 11
1.259465559695432
 21
0.3139078446608048
 31
0.0
  0
ARC
  5
7DE1B343D9E2602
330
7DE1B343D9E261D
100
AcDbEntity
  8
TEXT
100
AcDbCircle
 10
1.290658376758539
 20
0.28266211737854
 30
0.0
 40
0.0314112657011332
100
AcDbArc
 50
95.88484768694724
 51
173.2388340632136
  0
LINE
  5
7DE1B343D9E2603
330
7DE1B343D9E261D
100
AcDbEntity
  8
TEXT
100
AcDbLine
 10
1.354937513785021
 20
0.3139078446608048
 30
0.0
 11
1.287437796135505
 21
0.3139078446608048
 31
0.0
  0
LINE
  5
7DE1B343D9E2604
330
7DE1B343D9E261D
100
AcDbEntity
  8
TEXT
100
AcDbLine
 10
1.354937513785026
 20
0.3793720504284055
 30
0.0
 11
1.354937513785021
 21
0.3139078446608048
 31
0.0
  0
LINE
  5
7DE1B343D9E2605
330
7DE1B343D9E261D
100
AcDbEntity
  8
TEXT
100
AcDbLine
 10
1.545342383619912
 20
0.3139078446608048
 30
0.0
 11
1.470350550890286
 21
0.3139078446608048
 31
0.0
  0
ENDSEC
  0
SECTION
  2
OBJECTS
  0
DICTIONARY
  5
7DE1B343D9E2611
330
0
100
AcDbDictionary
  3
ACAD_GROUP
350
7DE1B343D9E2612
  3
ACAD_LAYOUT
350
7DE1B343D9E2637
  3
ACAD_MLINESTYLE
350
7DE1B343D9E2613
  3
ACAD_PLOTSETTINGS
350
7DE1B343D9E2638
  3
ACAD_PLOTSTYLENAME
350
7DE1B343D9E2635
  3
ACDBHEADERROUNDTRIPXREC
350
7DE1B343D9E2642
  3
ACDBVARIABLEDICTIONARY
350
7DE1B343D9E263F
  0
DICTIONARY
  5
7DE1B343D9E2664
330
7DE1B343D9E261D
100
AcDbDictionary
280
     1
  3
ACAD_LAYOUTSELFREF
360
7DE1B343D9E2665
  0
DICTIONARY
  5
7DE1B343D9E2662
330
7DE1B343D9E261A
100
AcDbDictionary
280
     1
  3
ACAD_LAYOUTSELFREF
360
7DE1B343D9E2663
  0
DICTIONARY
  5
7DE1B343D9E2612
102
{ACAD_REACTORS
330
7DE1B343D9E2611
102
}
330
7DE1B343D9E2611
100
AcDbDictionary
  0
DICTIONARY
  5
7DE1B343D9E2637
102
{ACAD_REACTORS
330
7DE1B343D9E2611
102
}
330
7DE1B343D9E2611
100
AcDbDictionary
  0
DICTIONARY
  5
7DE1B343D9E2613
102
{ACAD_REACTORS
330
7DE1B343D9E2611
102
}
330
7DE1B343D9E2611
100
AcDbDictionary
  3
STANDARD
350
7DE1B343D9E2620
  0
DICTIONARY
  5
7DE1B343D9E2638
102
{ACAD_REACTORS
330
7DE1B343D9E2611
102
}
330
7DE1B343D9E2611
100
AcDbDictionary
  0
ACDBDICTIONARYWDFLT
  5
7DE1B343D9E2635
102
{ACAD_REACTORS
330
7DE1B343D9E2611
102
}
330
7DE1B343D9E2611
100
AcDbDictionary
281
     1
  3
Normal
350
7DE1B343D9E2636
100
AcDbDictionaryWithDefault
340
7DE1B343D9E2636
  0
DICTIONARY
  5
7DE1B343D9E2642
102
{ACAD_REACTORS
330
7DE1B343D9E2611
102
}
330
7DE1B343D9E2611
100
AcDbDictionary
  3
CEPSNTYPE
350
7DE1B343D9E264C
  3
FINGERPRINTGUID
350
7DE1B343D9E264D
  3
HYPERLINKBASE
350
7DE1B343D9E2645
  3
INSUNITS
350
7DE1B343D9E264B
  3
LAYOUTDICT
350
7DE1B343D9E2647
  3
LWETCUNION
350
7DE1B343D9E264A
  3
PLOTSETDICT
350
7DE1B343D9E2648
  3
PLOTSTYLNAMDICT
350
7DE1B343D9E2649
  3
PSVPSCALE
350
7DE1B343D9E264F
  3
PUCSBASE
350
7DE1B343D9E2652
  3
PUCSORGBACK
350
7DE1B343D9E2658
  3
PUCSORGBOTTOM
350
7DE1B343D9E2654
  3
PUCSORGFRONT
350
7DE1B343D9E2657
  3
PUCSORGLEFT
350
7DE1B343D9E2655
  3
PUCSORGRIGHT
350
7DE1B343D9E2656
  3
PUCSORGTOP
350
7DE1B343D9E2653
  3
PUCSORTHOREF
350
7DE1B343D9E2650
  3
PUCSORTHOVIEW
350
7DE1B343D9E2651
  3
STYLESHEET
350
7DE1B343D9E2646
  3
TSTACKALIGN
350
7DE1B343D9E2643
  3
TSTACKSIZE
350
7DE1B343D9E2644
  3
UCSBASE
350
7DE1B343D9E265B
  3
UCSORGBACK
350
7DE1B343D9E2661
  3
UCSORGBOTTOM
350
7DE1B343D9E265D
  3
UCSORGFRONT
350
7DE1B343D9E2660
  3
UCSORGLEFT
350
7DE1B343D9E265E
  3
UCSORGRIGHT
350
7DE1B343D9E265F
  3
UCSORGTOP
350
7DE1B343D9E265C
  3
UCSORTHOREF
350
7DE1B343D9E2659
  3
UCSORTHOVIEW
350
7DE1B343D9E265A
  3
VERSIONGUID
350
7DE1B343D9E264E
  0
DICTIONARY
  5
7DE1B343D9E263F
102
{ACAD_REACTORS
330
7DE1B343D9E2611
102
}
330
7DE1B343D9E2611
100
AcDbDictionary
  3
DIMASSOC
350
7DE1B343D9E2640
  0
XRECORD
  5
7DE1B343D9E2665
102
{ACAD_REACTORS
330
7DE1B343D9E2664
102
}
330
7DE1B343D9E2664
100
AcDbXrecord
340
7DE1B343D9E261D
  0
XRECORD
  5
7DE1B343D9E2663
102
{ACAD_REACTORS
330
7DE1B343D9E2662
102
}
330
7DE1B343D9E2662
100
AcDbXrecord
340
7DE1B343D9E261A
  0
MLINESTYLE
  5
7DE1B343D9E2620
102
{ACAD_REACTORS
330
7DE1B343D9E2613
102
}
330
7DE1B343D9E2613
100
AcDbMlineStyle
  2
STANDARD
 70
     0
  3

 62
     0
 51
90.0
 52
90.0
 71
     2
 49
0.5
 62
   256
  6
BYLAYER
 49
-0.5
 62
   256
  6
BYLAYER
  0
ACDBPLACEHOLDER
  5
7DE1B343D9E2636
102
{ACAD_REACTORS
330
7DE1B343D9E2635
102
}
330
7DE1B343D9E2635
100
AcDbPlaceHolder
280
     0
  0
XRECORD
  5
7DE1B343D9E264C
102
{ACAD_REACTORS
330
7DE1B343D9E2642
102
}
330
7DE1B343D9E2642
100
AcDbXrecord
 90
        0
  0
XRECORD
  5
7DE1B343D9E264D
102
{ACAD_REACTORS
330
7DE1B343D9E2642
102
}
330
7DE1B343D9E2642
100
AcDbXrecord
  1
{BE018160-8DB9-11D6-88E6-0090279574E7}
  0
XRECORD
  5
7DE1B343D9E2645
102
{ACAD_REACTORS
330
7DE1B343D9E2642
102
}
330
7DE1B343D9E2642
100
AcDbXrecord
  1

  0
XRECORD
  5
7DE1B343D9E264B
102
{ACAD_REACTORS
330
7DE1B343D9E2642
102
}
330
7DE1B343D9E2642
100
AcDbXrecord
 90
        0
  0
XRECORD
  5
7DE1B343D9E2647
102
{ACAD_REACTORS
330
7DE1B343D9E2642
102
}
330
7DE1B343D9E2642
100
AcDbXrecord
340
7DE1B343D9E2637
  0
XRECORD
  5
7DE1B343D9E264A
102
{ACAD_REACTORS
330
7DE1B343D9E2642
102
}
330
7DE1B343D9E2642
100
AcDbXrecord
 90
    14877
  0
XRECORD
  5
7DE1B343D9E2648
102
{ACAD_REACTORS
330
7DE1B343D9E2642
102
}
330
7DE1B343D9E2642
100
AcDbXrecord
340
7DE1B343D9E2638
  0
XRECORD
  5
7DE1B343D9E2649
102
{ACAD_REACTORS
330
7DE1B343D9E2642
102
}
330
7DE1B343D9E2642
100
AcDbXrecord
340
7DE1B343D9E2635
  0
XRECORD
  5
7DE1B343D9E264F
102
{ACAD_REACTORS
330
7DE1B343D9E2642
102
}
330
7DE1B343D9E2642
100
AcDbXrecord
 40
0.0
  0
XRECORD
  5
7DE1B343D9E2652
102
{ACAD_REACTORS
330
7DE1B343D9E2642
102
}
330
7DE1B343D9E2642
100
AcDbXrecord
340
0
  0
XRECORD
  5
7DE1B343D9E2658
102
{ACAD_REACTORS
330
7DE1B343D9E2642
102
}
330
7DE1B343D9E2642
100
AcDbXrecord
 10
0.0
 20
0.0
 30
0.0
  0
XRECORD
  5
7DE1B343D9E2654
102
{ACAD_REACTORS
330
7DE1B343D9E2642
102
}
330
7DE1B343D9E2642
100
AcDbXrecord
 10
0.0
 20
0.0
 30
0.0
  0
XRECORD
  5
7DE1B343D9E2657
102
{ACAD_REACTORS
330
7DE1B343D9E2642
102
}
330
7DE1B343D9E2642
100
AcDbXrecord
 10
0.0
 20
0.0
 30
0.0
  0
XRECORD
  5
7DE1B343D9E2655
102
{ACAD_REACTORS
330
7DE1B343D9E2642
102
}
330
7DE1B343D9E2642
100
AcDbXrecord
 10
0.0
 20
0.0
 30
0.0
  0
XRECORD
  5
7DE1B343D9E2656
102
{ACAD_REACTORS
330
7DE1B343D9E2642
102
}
330
7DE1B343D9E2642
100
AcDbXrecord
 10
0.0
 20
0.0
 30
0.0
  0
XRECORD
  5
7DE1B343D9E2653
102
{ACAD_REACTORS
330
7DE1B343D9E2642
102
}
330
7DE1B343D9E2642
100
AcDbXrecord
 10
0.0
 20
0.0
 30
0.0
  0
XRECORD
  5
7DE1B343D9E2650
102
{ACAD_REACTORS
330
7DE1B343D9E2642
102
}
330
7DE1B343D9E2642
100
AcDbXrecord
340
0
  0
XRECORD
  5
7DE1B343D9E2651
102
{ACAD_REACTORS
330
7DE1B343D9E2642
102
}
330
7DE1B343D9E2642
100
AcDbXrecord
 70
     0
  0
XRECORD
  5
7DE1B343D9E2646
102
{ACAD_REACTORS
330
7DE1B343D9E2642
102
}
330
7DE1B343D9E2642
100
AcDbXrecord
  1

  0
XRECORD
  5
7DE1B343D9E2643
102
{ACAD_REACTORS
330
7DE1B343D9E2642
102
}
330
7DE1B343D9E2642
100
AcDbXrecord
 90
        1
  0
XRECORD
  5
7DE1B343D9E2644
102
{ACAD_REACTORS
330
7DE1B343D9E2642
102
}
330
7DE1B343D9E2642
100
AcDbXrecord
 90
       70
  0
XRECORD
  5
7DE1B343D9E265B
102
{ACAD_REACTORS
330
7DE1B343D9E2642
102
}
330
7DE1B343D9E2642
100
AcDbXrecord
340
0
  0
XRECORD
  5
7DE1B343D9E2661
102
{ACAD_REACTORS
330
7DE1B343D9E2642
102
}
330
7DE1B343D9E2642
100
AcDbXrecord
 10
0.0
 20
0.0
 30
0.0
  0
XRECORD
  5
7DE1B343D9E265D
102
{ACAD_REACTORS
330
7DE1B343D9E2642
102
}
330
7DE1B343D9E2642
100
AcDbXrecord
 10
0.0
 20
0.0
 30
0.0
  0
XRECORD
  5
7DE1B343D9E2660
102
{ACAD_REACTORS
330
7DE1B343D9E2642
102
}
330
7DE1B343D9E2642
100
AcDbXrecord
 10
0.0
 20
0.0
 30
0.0
  0
XRECORD
  5
7DE1B343D9E265E
102
{ACAD_REACTORS
330
7DE1B343D9E2642
102
}
330
7DE1B343D9E2642
100
AcDbXrecord
 10
0.0
 20
0.0
 30
0.0
  0
XRECORD
  5
7DE1B343D9E265F
102
{ACAD_REACTORS
330
7DE1B343D9E2642
102
}
330
7DE1B343D9E2642
100
AcDbXrecord
 10
0.0
 20
0.0
 30
0.0
  0
XRECORD
  5
7DE1B343D9E265C
102
{ACAD_REACTORS
330
7DE1B343D9E2642
102
}
330
7DE1B343D9E2642
100
AcDbXrecord
 10
0.0
 20
0.0
 30
0.0
  0
XRECORD
  5
7DE1B343D9E2659
102
{ACAD_REACTORS
330
7DE1B343D9E2642
102
}
330
7DE1B343D9E2642
100
AcDbXrecord
340
0
  0
XRECORD
  5
7DE1B343D9E265A
102
{ACAD_REACTORS
330
7DE1B343D9E2642
102
}
330
7DE1B343D9E2642
100
AcDbXrecord
 70
     0
  0
XRECORD
  5
7DE1B343D9E264E
102
{ACAD_REACTORS
330
7DE1B343D9E2642
102
}
330
7DE1B343D9E2642
100
AcDbXrecord
  1
{BE018162-8DB9-11D6-88E6-0090279574E7}
  0
DICTIONARYVAR
  5
7DE1B343D9E2640
102
{ACAD_REACTORS
330
7DE1B343D9E263F
102
}
330
7DE1B343D9E263F
100
DictionaryVariables
280
     0
  1
1
  0
ENDSEC
  0
EOF
