  0
SECTION
  2
HEADER
  9
$ACADVER
  1
AC1014
  9
$ACADMAINTVER
 70
     9
  9
$DWGCODEPAGE
  3
ANSI_1252
  9
$INSBASE
 10
1.138338402085179
 20
1.320688793499735
 30
0.0
  9
$EXTMIN
 10
0.0283598681411725
 20
0.1665598430610433
 30
0.0
  9
$EXTMAX
 10
3.5135791898883
 20
2.883188793499736
 30
0.0
  9
$LIMMIN
 10
0.0
 20
0.0
  9
$LIMMAX
 10
18.0
 20
12.0
  9
$ORTHOMODE
 70
     1
  9
$REGENMODE
 70
     1
  9
$FILLMODE
 70
     1
  9
$QTEXTMODE
 70
     0
  9
$MIRRTEXT
 70
     0
  9
$DRAGMODE
 70
     2
  9
$LTSCALE
 40
1.0
  9
$OSMODE
 70
    39
  9
$ATTMODE
 70
     1
  9
$TEXTSIZE
 40
0.125
  9
$TRACEWID
 40
0.05
  9
$TEXTSTYLE
  7
ROMANS
  9
$CLAYER
  8
0
  9
$CELTYPE
  6
BYLAYER
  9
$CECOLOR
 62
   256
  9
$CELTSCALE
 40
1.0
  9
$DELOBJ
 70
     1
  9
$DISPSILH
 70
     1
  9
$DIMSCALE
 40
1.0
  9
$DIMASZ
 40
0.125
  9
$DIMEXO
 40
0.125
  9
$DIMDLI
 40
0.375
  9
$DIMRND
 40
0.0
  9
$DIMDLE
 40
0.0
  9
$DIMEXE
 40
0.125
  9
$DIMTP
 40
0.0
  9
$DIMTM
 40
0.0
  9
$DIMTXT
 40
0.125
  9
$DIMCEN
 40
-0.125
  9
$DIMTSZ
 40
0.0
  9
$DIMTOL
 70
     0
  9
$DIMLIM
 70
     0
  9
$DIMTIH
 70
     1
  9
$DIMTOH
 70
     1
  9
$DIMSE1
 70
     0
  9
$DIMSE2
 70
     0
  9
$DIMTAD
 70
     0
  9
$DIMZIN
 70
     4
  9
$DIMBLK
  1

  9
$DIMASO
 70
     1
  9
$DIMSHO
 70
     1
  9
$DIMPOST
  1

  9
$DIMAPOST
  1

  9
$DIMALT
 70
     0
  9
$DIMALTD
 70
     2
  9
$DIMALTF
 40
25.4
  9
$DIMLFAC
 40
1.0
  9
$DIMTOFL
 70
     0
  9
$DIMTVP
 40
0.0
  9
$DIMTIX
 70
     1
  9
$DIMSOXD
 70
     0
  9
$DIMSAH
 70
     0
  9
$DIMBLK1
  1

  9
$DIMBLK2
  1

  9
$DIMSTYLE
  2
STANDARD
  9
$DIMCLRD
 70
     0
  9
$DIMCLRE
 70
     0
  9
$DIMCLRT
 70
     0
  9
$DIMTFAC
 40
1.0
  9
$DIMGAP
 40
0.09
  9
$DIMJUST
 70
     0
  9
$DIMSD1
 70
     0
  9
$DIMSD2
 70
     0
  9
$DIMTOLJ
 70
     1
  9
$DIMTZIN
 70
     4
  9
$DIMALTZ
 70
     0
  9
$DIMALTTZ
 70
     0
  9
$DIMFIT
 70
     3
  9
$DIMUPT
 70
     0
  9
$DIMUNIT
 70
     2
  9
$DIMDEC
 70
     3
  9
$DIMTDEC
 70
     3
  9
$DIMALTU
 70
     2
  9
$DIMALTTD
 70
     2
  9
$DIMTXSTY
  7
ROMANS
  9
$DIMAUNIT
 70
     0
  9
$LUNITS
 70
     2
  9
$LUPREC
 70
     3
  9
$SKETCHINC
 40
0.1
  9
$FILLETRAD
 40
0.03125
  9
$AUNITS
 70
     0
  9
$AUPREC
 70
     0
  9
$MENU
  1
ACAD
  9
$ELEVATION
 40
0.0
  9
$PELEVATION
 40
0.0
  9
$THICKNESS
 40
0.0
  9
$LIMCHECK
 70
     0
  9
$BLIPMODE
 70
     0
  9
$CHAMFERA
 40
0.0
  9
$CHAMFERB
 40
0.0
  9
$CHAMFERC
 40
0.0
  9
$CHAMFERD
 40
0.0
  9
$SKPOLY
 70
     0
  9
$TDCREATE
 40
2448994.694803588
  9
$TDUPDATE
 40
2452458.323949699
  9
$TDINDWG
 40
0.0004500000
  9
$TDUSRTIMER
 40
0.0004500000
  9
$USRTIMER
 70
     1
  9
$ANGBASE
 50
0.0
  9
$ANGDIR
 70
     0
  9
$PDMODE
 70
     0
  9
$PDSIZE
 40
0.0
  9
$PLINEWID
 40
0.0
  9
$COORDS
 70
     2
  9
$SPLFRAME
 70
     0
  9
$SPLINETYPE
 70
     6
  9
$SPLINESEGS
 70
     8
  9
$ATTDIA
 70
     0
  9
$ATTREQ
 70
     1
  9
$HANDLING
 70
 22529
  9
$HANDSEED
  5
7DE1B343D9E180C
  9
$SURFTAB1
 70
     6
  9
$SURFTAB2
 70
     6
  9
$SURFTYPE
 70
     6
  9
$SURFU
 70
     6
  9
$SURFV
 70
     6
  9
$UCSNAME
  2

  9
$UCSORG
 10
0.0
 20
0.0
 30
0.0
  9
$UCSXDIR
 10
1.0
 20
0.0
 30
0.0
  9
$UCSYDIR
 10
0.0
 20
1.0
 30
0.0
  9
$PUCSNAME
  2

  9
$PUCSORG
 10
0.0
 20
0.0
 30
0.0
  9
$PUCSXDIR
 10
1.0
 20
0.0
 30
0.0
  9
$PUCSYDIR
 10
0.0
 20
1.0
 30
0.0
  9
$USERI1
 70
     0
  9
$USERI2
 70
     0
  9
$USERI3
 70
     0
  9
$USERI4
 70
     0
  9
$USERI5
 70
     0
  9
$USERR1
 40
0.0
  9
$USERR2
 40
0.0
  9
$USERR3
 40
0.0
  9
$USERR4
 40
0.0
  9
$USERR5
 40
0.0
  9
$WORLDVIEW
 70
     1
  9
$SHADEDGE
 70
     3
  9
$SHADEDIF
 70
    70
  9
$TILEMODE
 70
     1
  9
$MAXACTVP
 70
    16
  9
$PINSBASE
 10
0.0
 20
0.0
 30
0.0
  9
$PLIMCHECK
 70
     0
  9
$PEXTMIN
 10
1.000000000000000E+20
 20
1.000000000000000E+20
 30
1.000000000000000E+20
  9
$PEXTMAX
 10
-1.000000000000000E+20
 20
-1.000000000000000E+20
 30
-1.000000000000000E+20
  9
$PLIMMIN
 10
0.0
 20
0.0
  9
$PLIMMAX
 10
12.0
 20
9.0
  9
$UNITMODE
 70
     0
  9
$VISRETAIN
 70
     0
  9
$PLINEGEN
 70
     1
  9
$PSLTSCALE
 70
     0
  9
$TREEDEPTH
 70
  3020
  9
$PICKSTYLE
 70
     1
  9
$CMLSTYLE
  2
STANDARD
  9
$CMLJUST
 70
     0
  9
$CMLSCALE
 40
1.0
  9
$PROXYGRAPHICS
 70
     1
  9
$MEASUREMENT
 70
     0
  0
ENDSEC
  0
SECTION
  2
CLASSES
  0
CLASS
  1
LWPOLYLINE
  2
AcDbPolyline
  3
AutoCAD 2000
 90
        0
280
     0
281
     1
  0
CLASS
  1
ACDBDICTIONARYWDFLT
  2
AcDbDictionaryWithDefault
  3
AutoCAD 2000
 90
        0
280
     0
281
     0
  0
CLASS
  1
ACDBPLACEHOLDER
  2
AcDbPlaceHolder
  3
AutoCAD 2000
 90
        0
280
     0
281
     0
  0
CLASS
  1
LAYOUT
  2
AcDbLayout
  3
AutoCAD 2000
 90
        0
280
     0
281
     0
  0
CLASS
  1
DICTIONARYVAR
  2
AcDbDictionaryVar
  3
AutoCAD 2000
 90
        0
280
     0
281
     0
  0
CLASS
  1
LONG_TRANSACTION
  2
AcDbLongTransaction
  3
AutoCAD 2000
 90
        0
280
     0
281
     0
  0
CLASS
  1
LWPOLYLINE
  2
AcDbPolyline
  3
AutoCAD 2000
 90
        0
280
     0
281
     1
  0
CLASS
  1
HATCH
  2
AcDbHatch
  3
AutoCAD 2000
 90
        0
280
     0
281
     1
  0
CLASS
  1
XRECORD
  2
AcDbXrecord
  3
AutoCAD 2000
 90
        0
280
     0
281
     0
  0
ENDSEC
  0
SECTION
  2
TABLES
  0
TABLE
  2
VPORT
  5
7DE1B343D9E17B3
330
0
100
AcDbSymbolTable
 70
     2
  0
VPORT
  5
7DE1B343D9E17E7
330
7DE1B343D9E17B3
100
AcDbSymbolTableRecord
100
AcDbViewportTableRecord
  2
*ACTIVE
 70
     0
 10
0.0
 20
0.0
 11
1.0
 21
1.0
 12
5.770884791265261
 22
1.524902366479977
 13
0.0
 23
0.0
 14
0.015625
 24
0.015625
 15
0.0
 25
0.0
 16
0.0
 26
0.0
 36
1.0
 17
0.0
 27
0.0
 37
0.0
 40
3.06764217251494
 41
4.320930232558139
 42
50.0
 43
0.0
 44
0.0
 50
0.0
 51
0.0
 71
     0
 72
  2000
 73
     1
 74
     0
 75
     0
 76
     0
 77
     0
 78
     0
  0
ENDTAB
  0
TABLE
  2
LTYPE
  5
7DE1B343D9E17B0
330
0
100
AcDbSymbolTable
 70
     1
  0
LTYPE
  5
7DE1B343D9E17BD
330
7DE1B343D9E17B0
100
AcDbSymbolTableRecord
100
AcDbLinetypeTableRecord
  2
BYBLOCK
 70
     0
  3

 72
    65
 73
     0
 40
0.0
  0
LTYPE
  5
7DE1B343D9E17BE
330
7DE1B343D9E17B0
100
AcDbSymbolTableRecord
100
AcDbLinetypeTableRecord
  2
BYLAYER
 70
     0
  3

 72
    65
 73
     0
 40
0.0
  0
LTYPE
  5
7DE1B343D9E17BF
330
7DE1B343D9E17B0
100
AcDbSymbolTableRecord
100
AcDbLinetypeTableRecord
  2
CONTINUOUS
 70
     0
  3
Solid line
 72
    65
 73
     0
 40
0.0
  0
ENDTAB
  0
TABLE
  2
LAYER
  5
7DE1B343D9E17AD
330
0
100
AcDbSymbolTable
 70
     2
  0
LAYER
  5
7DE1B343D9E17BA
330
7DE1B343D9E17AD
100
AcDbSymbolTableRecord
100
AcDbLayerTableRecord
  2
0
 70
     0
 62
     7
  6
CONTINUOUS
  0
LAYER
  5
7DE1B343D9E17CA
330
7DE1B343D9E17AD
100
AcDbSymbolTableRecord
100
AcDbLayerTableRecord
  2
TEXT
 70
     0
 62
     3
  6
CONTINUOUS
  0
ENDTAB
  0
TABLE
  2
STYLE
  5
7DE1B343D9E17AE
330
0
100
AcDbSymbolTable
 70
     3
  0
STYLE
  5
7DE1B343D9E17BB
330
7DE1B343D9E17AE
100
AcDbSymbolTableRecord
100
AcDbTextStyleTableRecord
  2
STANDARD
 70
     0
 40
0.0
 41
1.0
 50
0.0
 71
     0
 42
0.3125
  3
txt
  4

  0
STYLE
  5
7DE1B343D9E17C7
330
7DE1B343D9E17AE
100
AcDbSymbolTableRecord
100
AcDbTextStyleTableRecord
  2
ITALICC
 70
     0
 40
0.0
 41
1.0
 50
0.0
 71
     0
 42
0.125
  3
italicc
  4

  0
STYLE
  5
7DE1B343D9E17D7
330
7DE1B343D9E17AE
100
AcDbSymbolTableRecord
100
AcDbTextStyleTableRecord
  2
ROMANS
 70
     0
 40
0.0
 41
1.0
 50
0.0
 71
     0
 42
0.125
  3
romans.shx
  4

  0
ENDTAB
  0
TABLE
  2
VIEW
  5
7DE1B343D9E17B1
330
0
100
AcDbSymbolTable
 70
     0
  0
ENDTAB
  0
TABLE
  2
UCS
  5
7DE1B343D9E17B2
330
0
100
AcDbSymbolTable
 70
     0
  0
ENDTAB
  0
TABLE
  2
APPID
  5
7DE1B343D9E17B4
330
0
100
AcDbSymbolTable
 70
     1
  0
APPID
  5
7DE1B343D9E17BC
330
7DE1B343D9E17B4
100
AcDbSymbolTableRecord
100
AcDbRegAppTableRecord
  2
ACAD
 70
     0
  0
ENDTAB
  0
TABLE
  2
DIMSTYLE
  5
7DE1B343D9E17B5
330
0
100
AcDbSymbolTable
 70
     1
  0
DIMSTYLE
105
7DE1B343D9E17CF
330
7DE1B343D9E17B5
100
AcDbSymbolTableRecord
100
AcDbDimStyleTableRecord
  2
STANDARD
 70
     0
  3

  4

  5

  6

  7

 40
1.0
 41
0.125
 42
0.125
 43
0.375
 44
0.125
 45
0.0
 46
0.0
 47
0.0
 48
0.0
140
0.125
141
-0.125
142
0.0
143
25.4
144
1.0
145
0.0
146
1.0
147
0.09
 71
     0
 72
     0
 73
     1
 74
     1
 75
     0
 76
     0
 77
     0
 78
     4
170
     0
171
     2
172
     0
173
     0
174
     1
175
     0
176
     0
177
     0
178
     0
270
     2
271
     3
272
     3
273
     2
274
     2
340
7DE1B343D9E17D7
275
     0
280
     0
281
     0
282
     0
283
     1
284
     4
285
     0
286
     0
287
     3
288
     0
  0
ENDTAB
  0
TABLE
  2
BLOCK_RECORD
  5
7DE1B343D9E17AC
330
0
100
AcDbSymbolTable
 70
     0
  0
BLOCK_RECORD
  5
7DE1B343D9E17C3
102
{ACAD_XDICTIONARY
360
7DE1B343D9E180A
102
}
330
7DE1B343D9E17AC
100
AcDbSymbolTableRecord
100
AcDbBlockTableRecord
  2
*MODEL_SPACE
  0
BLOCK_RECORD
  5
7DE1B343D9E17C0
102
{ACAD_XDICTIONARY
360
7DE1B343D9E1808
102
}
330
7DE1B343D9E17AC
100
AcDbSymbolTableRecord
100
AcDbBlockTableRecord
  2
*PAPER_SPACE
  0
ENDTAB
  0
ENDSEC
  0
SECTION
  2
BLOCKS
  0
BLOCK
  5
7DE1B343D9E17CD
330
7DE1B343D9E17C3
100
AcDbEntity
  8
0
100
AcDbBlockBegin
  2
*MODEL_SPACE
 70
     0
 10
0.0
 20
0.0
 30
0.0
  3
*MODEL_SPACE
  1

  0
ENDBLK
  5
7DE1B343D9E17CE
330
7DE1B343D9E17C3
100
AcDbEntity
  8
0
100
AcDbBlockEnd
  0
BLOCK
  5
7DE1B343D9E17CB
330
7DE1B343D9E17C0
100
AcDbEntity
 67
     1
  8
0
100
AcDbBlockBegin
  2
*PAPER_SPACE
 70
     0
 10
0.0
 20
0.0
 30
0.0
  3
*PAPER_SPACE
  1

  0
ENDBLK
  5
7DE1B343D9E17CC
330
7DE1B343D9E17C0
100
AcDbEntity
 67
     1
  8
0
100
AcDbBlockEnd
  0
ENDSEC
  0
SECTION
  2
ENTITIES
  0
LWPOLYLINE
  5
7DE1B343D9E0399
330
7DE1B343D9E17C3
100
AcDbEntity
  8
0
100
AcDbPolyline
 90
       25
 70
     1
 43
0.0
 10
2.210838402085181
 20
1.383188793499736
 10
2.200838402085179
 20
1.373188793499735
 10
2.190838402085179
 20
1.383188793499735
 10
1.513338402085179
 20
1.383188793499735
 10
1.513338402085179
 20
1.320688793499735
 10
1.138338402085179
 20
1.320688793499735
 10
1.138338402085179
 20
1.695688793499735
 10
1.200838402085179
 20
1.695688793499735
 10
1.200838402085178
 20
2.373188793499735
 10
1.190838402085178
 20
2.383188793499734
 10
1.20083840208518
 20
2.393188793499736
 10
1.200838402085181
 20
2.851938793499736
 42
1.0
 10
1.138338402085181
 20
2.851938793499736
 10
1.138338402085179
 20
1.758188793499734
 10
1.075838402085179
 20
1.758188793499735
 10
1.075838402085179
 20
1.324480054235974
 10
0.767914858630769
 20
1.016556510872388
 42
0.4142135624162897
 10
0.7679148586291396
 20
0.9944594239586791
 10
0.8121090324987108
 20
0.9502652500891077
 42
0.4142135623730966
 10
0.8342061194107905
 20
0.9502652500891077
 10
1.142129662821417
 20
1.258188793499735
 10
1.575838402085179
 20
1.258188793499735
 10
1.575838402085179
 20
1.320688793499735
 10
2.669588402085181
 20
1.320688793499738
 42
1.0
 10
2.669588402085181
 20
1.383188793499737
  0
TEXT
  5
7DE1B343D9E166E
330
7DE1B343D9E17C3
100
AcDbEntity
  8
TEXT
100
AcDbText
 10
1.015389066415934
 20
0.6245784471436249
 30
0.0
 40
0.125
  1
PART #120067
  7
ITALICC
 72
     1
 11
1.771341447368315
 21
0.6245784471436249
 31
0.0
100
AcDbText
  0
TEXT
  5
7DE1B343D9E166F
330
7DE1B343D9E17C3
100
AcDbEntity
  8
TEXT
100
AcDbText
 10
2.184646605618636
 20
0.1776558044712497
 30
0.0
 40
0.0522247191011236
  1
Phone  1-800-328-2495
 41
1.272321428571429
 72
     5
 11
3.5135791898883
 21
0.1776558044712497
 31
0.0
100
AcDbText
  0
TEXT
  5
7DE1B343D9E1670
330
7DE1B343D9E17C3
100
AcDbEntity
  8
TEXT
100
AcDbText
 10
2.184646605618636
 20
0.4574310853701263
 30
0.0
 40
0.0522247191011236
  1
Stylmark  Incorporated
 41
1.221428571428573
 72
     5
 11
3.5135791898883
 21
0.4574310853701263
 31
0.0
100
AcDbText
  0
TEXT
  5
7DE1B343D9E1671
330
7DE1B343D9E17C3
100
AcDbEntity
  8
TEXT
100
AcDbText
 10
2.184646605618636
 20
0.3641726584038341
 30
0.0
 40
0.0522247191011236
  1
6536 Main St. N.E. * P.O. Box 32008
 41
0.8388932496075366
 72
     5
 11
3.5135791898883
 21
0.3641726584038341
 31
0.0
100
AcDbText
  0
TEXT
  5
7DE1B343D9E1672
330
7DE1B343D9E17C3
100
AcDbEntity
  8
TEXT
100
AcDbText
 10
2.184646605618636
 20
0.2709142314375419
 30
0.0
 40
0.0522247191011236
  1
Minneapolis, MN 55432-0008
 41
1.11444212721585
 72
     5
 11
3.5135791898883
 21
0.2709142314375419
 31
0.0
100
AcDbText
  0
LWPOLYLINE
  5
7DE1B343D9E1673
330
7DE1B343D9E17C3
100
AcDbEntity
  8
TEXT
100
AcDbPolyline
 90
        3
 70
     0
 43
0.0006660908203125
 10
0.0286929135513288
 20
0.2913005671086846
 10
0.0286929135513288
 20
0.1780651276555569
 10
0.1419283530044511
 20
0.1780651276555569
  0
LWPOLYLINE
  5
7DE1B343D9E1678
330
7DE1B343D9E17C3
100
AcDbEntity
  8
TEXT
100
AcDbPolyline
 90
        3
 70
     0
 43
0.0006660908203125
 10
0.0553365463638262
 20
0.2913005671086846
 10
0.0553365463638262
 20
0.204708760468058
 10
0.1419283530044511
 20
0.204708760468058
  0
LWPOLYLINE
  5
7DE1B343D9E167D
330
7DE1B343D9E17C3
100
AcDbEntity
  8
TEXT
100
AcDbPolyline
 90
        2
 70
     0
 43
0.0001332181640625
 10
0.101962903785703
 20
0.3012919294133698
 10
0.0286929135513288
 20
0.2913005671086846
  0
LWPOLYLINE
  5
7DE1B343D9E1681
330
7DE1B343D9E17C3
100
AcDbEntity
  8
TEXT
100
AcDbPolyline
 90
        2
 70
     0
 43
0.0001332181640625
 10
0.0553365463638262
 20
0.2913005671086846
 10
0.1152847201919536
 20
0.3012919294133698
  0
LWPOLYLINE
  5
7DE1B343D9E1685
330
7DE1B343D9E17C3
100
AcDbEntity
  8
TEXT
100
AcDbPolyline
 90
        2
 70
     0
 43
0.0001332181640625
 10
0.0553365463638262
 20
0.204708760468058
 10
0.1152847201919536
 20
0.2646569342961835
  0
LWPOLYLINE
  5
7DE1B343D9E1689
330
7DE1B343D9E17C3
100
AcDbEntity
  8
TEXT
100
AcDbPolyline
 90
        3
 70
     0
 43
0.0006660908203125
 10
0.1419283530044511
 20
0.4445014557805603
 10
0.0286929135513288
 20
0.4445014557805603
 10
0.0286929135513288
 20
0.3312660163274326
  0
LWPOLYLINE
  5
7DE1B343D9E168E
330
7DE1B343D9E17C3
100
AcDbEntity
  8
TEXT
100
AcDbPolyline
 90
        3
 70
     0
 43
0.0006660908203125
 10
0.1419283530044511
 20
0.4178578229680592
 10
0.0553365463638262
 20
0.4178578229680592
 10
0.0553365463638262
 20
0.3312660163274326
  0
LWPOLYLINE
  5
7DE1B343D9E1693
330
7DE1B343D9E17C3
100
AcDbEntity
  8
TEXT
100
AcDbPolyline
 90
        2
 70
     0
 43
0.0001332181640625
 10
0.0553365463638262
 20
0.4178578229680592
 10
0.1152847201919518
 20
0.3579096491399336
  0
LWPOLYLINE
  5
7DE1B343D9E1697
330
7DE1B343D9E17C3
100
AcDbEntity
  8
TEXT
100
AcDbPolyline
 90
        2
 70
     0
 43
0.0001332181640625
 10
0.0553365463638262
 20
0.3312660163274326
 10
0.1152847201919518
 20
0.3212746540227438
  0
LWPOLYLINE
  5
7DE1B343D9E169B
330
7DE1B343D9E17C3
100
AcDbEntity
  8
TEXT
100
AcDbPolyline
 90
        2
 70
     0
 43
0.0001332181640625
 10
0.0286929135513288
 20
0.3312660163274326
 10
0.101962903785703
 20
0.3212746540227438
  0
LWPOLYLINE
  5
7DE1B343D9E169F
330
7DE1B343D9E17C3
100
AcDbEntity
  8
TEXT
100
AcDbPolyline
 90
        2
 70
     0
 43
0.0006660908203125
 10
0.0553365463638262
 20
0.2913005671086846
 10
0.0286929135513288
 20
0.2913005671086846
  0
LWPOLYLINE
  5
7DE1B343D9E16A3
330
7DE1B343D9E17C3
100
AcDbEntity
  8
TEXT
100
AcDbPolyline
 90
        2
 70
     0
 43
0.0006660908203125
 10
0.0553365463638262
 20
0.3312660163274326
 10
0.0286929135513288
 20
0.3312660163274326
  0
LINE
  5
7DE1B343D9E16A7
330
7DE1B343D9E17C3
100
AcDbEntity
  8
TEXT
100
AcDbLine
 10
1.543883342677826
 20
0.3802247611237912
 30
0.0
 11
1.436677069290536
 21
0.3802247611237912
 31
0.0
  0
LINE
  5
7DE1B343D9E16A8
330
7DE1B343D9E17C3
100
AcDbEntity
  8
TEXT
100
AcDbLine
 10
1.572914241022304
 20
0.4445014557805567
 30
0.0
 11
1.438082331805245
 21
0.4445014557805567
 31
0.0
  0
ARC
  5
7DE1B343D9E16A9
330
7DE1B343D9E17C3
100
AcDbEntity
  8
TEXT
100
AcDbCircle
 10
1.497396428198562
 20
0.2752642065175403
 30
0.0
 40
0.0676855811441166
100
AcDbArc
 50
90.0
 51
153.7768192527749
  0
LWPOLYLINE
  5
7DE1B343D9E16AA
330
7DE1B343D9E17C3
100
AcDbEntity
  8
TEXT
100
AcDbPolyline
 90
        2
 70
     0
 43
0.0
 10
1.435644573835726
 20
0.2215193677424838
 42
0.2901071551932823
 10
1.478720506703362
 20
0.1780284227920457
 42
5.328517124445801
  0
ARC
  5
7DE1B343D9E16AE
330
7DE1B343D9E17C3
100
AcDbEntity
  8
TEXT
100
AcDbCircle
 10
0.7922650505270768
 20
0.2378208141300955
 30
0.0
 40
0.0601160179737537
100
AcDbArc
 50
180.0000000000003
 51
264.0521544866073
  0
LINE
  5
7DE1B343D9E16AF
330
7DE1B343D9E17C3
100
AcDbEntity
  8
TEXT
100
AcDbLine
 10
0.7957804061526246
 20
0.4788893733746949
 30
0.0
 11
0.7357378013086176
 21
0.4788893733746949
 31
0.0
  0
ARC
  5
7DE1B343D9E16B0
330
7DE1B343D9E17C3
100
AcDbEntity
  8
TEXT
100
AcDbCircle
 10
0.5600060484101062
 20
0.3624139963340549
 30
0.0
 40
0.0820874594465043
100
AcDbArc
 50
90.0
 51
270.0
  0
LWPOLYLINE
  5
7DE1B343D9E16B1
330
7DE1B343D9E17C3
100
AcDbEntity
  8
TEXT
100
AcDbPolyline
 90
        2
 70
     0
 43
0.0001332181640625
 10
0.1519197153091416
 20
0.3712314655461806
 10
0.1419283530044511
 20
0.4445014557805603
  0
LWPOLYLINE
  5
7DE1B343D9E16B5
330
7DE1B343D9E17C3
100
AcDbEntity
  8
TEXT
100
AcDbPolyline
 90
        2
 70
     0
 43
0.0001332181640625
 10
0.1419283530044511
 20
0.4178578229680592
 10
0.1519197153091416
 20
0.3579096491399336
  0
LWPOLYLINE
  5
7DE1B343D9E16B9
330
7DE1B343D9E17C3
100
AcDbEntity
  8
TEXT
100
AcDbPolyline
 90
        3
 70
     0
 43
0.0006660908203125
 10
0.2951292416763285
 20
0.3312660163274326
 10
0.2951292416763285
 20
0.4445014557805603
 10
0.1818938022232026
 20
0.4445014557805603
  0
LWPOLYLINE
  5
7DE1B343D9E16BE
330
7DE1B343D9E17C3
100
AcDbEntity
  8
TEXT
100
AcDbPolyline
 90
        3
 70
     0
 43
0.0006660908203125
 10
0.2684856088638274
 20
0.3312660163274326
 10
0.2684856088638274
 20
0.4178578229680592
 10
0.1818938022232026
 20
0.4178578229680592
  0
LWPOLYLINE
  5
7DE1B343D9E16C3
330
7DE1B343D9E17C3
100
AcDbEntity
  8
TEXT
100
AcDbPolyline
 90
        2
 70
     0
 43
0.0001332181640625
 10
0.2684856088638274
 20
0.4178578229680592
 10
0.2085374350357036
 20
0.3579096491399336
  0
LWPOLYLINE
  5
7DE1B343D9E16C7
330
7DE1B343D9E17C3
100
AcDbEntity
  8
TEXT
100
AcDbPolyline
 90
        2
 70
     0
 43
0.0001332181640625
 10
0.1818938022232026
 20
0.4178578229680592
 10
0.1719024399185138
 20
0.3579096491399336
  0
LWPOLYLINE
  5
7DE1B343D9E16CB
330
7DE1B343D9E17C3
100
AcDbEntity
  8
TEXT
100
AcDbPolyline
 90
        2
 70
     0
 43
0.0001332181640625
 10
0.1818938022232026
 20
0.4445014557805603
 10
0.1719024399185138
 20
0.3712314655461806
  0
LWPOLYLINE
  5
7DE1B343D9E16CF
330
7DE1B343D9E17C3
100
AcDbEntity
  8
TEXT
100
AcDbPolyline
 90
        2
 70
     0
 43
0.0001332181640625
 10
0.2218592514419524
 20
0.3212746540227438
 10
0.2951292416763285
 20
0.3312660163274326
  0
LWPOLYLINE
  5
7DE1B343D9E16D3
330
7DE1B343D9E17C3
100
AcDbEntity
  8
TEXT
100
AcDbPolyline
 90
        2
 70
     0
 43
0.0001332181640625
 10
0.2684856088638274
 20
0.3312660163274326
 10
0.2085374350357036
 20
0.3212746540227438
  0
LWPOLYLINE
  5
7DE1B343D9E16D7
330
7DE1B343D9E17C3
100
AcDbEntity
  8
TEXT
100
AcDbPolyline
 90
        2
 70
     0
 43
0.0001332181640625
 10
0.2951292416763285
 20
0.2913005671086846
 10
0.2218592514419524
 20
0.3012919294133698
  0
LWPOLYLINE
  5
7DE1B343D9E16DB
330
7DE1B343D9E17C3
100
AcDbEntity
  8
TEXT
100
AcDbPolyline
 90
        2
 70
     0
 43
0.0001332181640625
 10
0.2684856088638274
 20
0.2913005671086846
 10
0.2085374350357036
 20
0.3012919294133698
  0
LWPOLYLINE
  5
7DE1B343D9E16DF
330
7DE1B343D9E17C3
100
AcDbEntity
  8
TEXT
100
AcDbPolyline
 90
        2
 70
     0
 43
0.0001332181640625
 10
0.2684856088638274
 20
0.204708760468058
 10
0.2085374350357036
 20
0.2646569342961835
  0
LWPOLYLINE
  5
7DE1B343D9E16E3
330
7DE1B343D9E17C3
100
AcDbEntity
  8
TEXT
100
AcDbPolyline
 90
        3
 70
     0
 43
0.0006660908203125
 10
0.1818938022232026
 20
0.204708760468058
 10
0.2684856088638274
 20
0.204708760468058
 10
0.2684856088638274
 20
0.2913005671086846
  0
LWPOLYLINE
  5
7DE1B343D9E16E8
330
7DE1B343D9E17C3
100
AcDbEntity
  8
TEXT
100
AcDbPolyline
 90
        3
 70
     0
 43
0.0006660908203125
 10
0.1818938022232026
 20
0.1780651276555569
 10
0.2951292416763285
 20
0.1780651276555569
 10
0.2951292416763285
 20
0.2913005671086846
  0
LWPOLYLINE
  5
7DE1B343D9E16ED
330
7DE1B343D9E17C3
100
AcDbEntity
  8
TEXT
100
AcDbPolyline
 90
        5
 70
     0
 43
0.0001332181640625
 10
0.1519197153091416
 20
0.251335117889933
 10
0.1519197153091416
 20
0.2646569342961835
 10
0.1152847201919536
 20
0.2646569342961835
 10
0.1152847201919536
 20
0.3012919294133698
 10
0.101962903785703
 20
0.3012919294133698
  0
LWPOLYLINE
  5
7DE1B343D9E16F4
330
7DE1B343D9E17C3
100
AcDbEntity
  8
TEXT
100
AcDbPolyline
 90
        2
 70
     0
 43
0.0006660908203125
 10
0.1419283530044511
 20
0.204708760468058
 10
0.1419283530044511
 20
0.1780651276555569
  0
LWPOLYLINE
  5
7DE1B343D9E16F8
330
7DE1B343D9E17C3
100
AcDbEntity
  8
TEXT
100
AcDbPolyline
 90
        2
 70
     0
 43
0.0001332181640625
 10
0.1419283530044511
 20
0.204708760468058
 10
0.1519197153091416
 20
0.2646569342961835
  0
LWPOLYLINE
  5
7DE1B343D9E16FC
330
7DE1B343D9E17C3
100
AcDbEntity
  8
TEXT
100
AcDbPolyline
 90
        2
 70
     0
 43
0.0001332181640625
 10
0.1419283530044511
 20
0.1780651276555569
 10
0.1519197153091416
 20
0.251335117889933
  0
LWPOLYLINE
  5
7DE1B343D9E1700
330
7DE1B343D9E17C3
100
AcDbEntity
  8
TEXT
100
AcDbPolyline
 90
        5
 70
     0
 43
0.0001332181640625
 10
0.101962903785703
 20
0.3212746540227438
 10
0.1152847201919518
 20
0.3212746540227438
 10
0.1152847201919518
 20
0.3579096491399336
 10
0.1519197153091416
 20
0.3579096491399336
 10
0.1519197153091416
 20
0.3712314655461806
  0
LWPOLYLINE
  5
7DE1B343D9E1707
330
7DE1B343D9E17C3
100
AcDbEntity
  8
TEXT
100
AcDbPolyline
 90
        5
 70
     0
 43
0.0001332181640625
 10
0.1719024399185138
 20
0.3712314655461806
 10
0.1719024399185138
 20
0.3579096491399336
 10
0.2085374350357036
 20
0.3579096491399336
 10
0.2085374350357036
 20
0.3212746540227438
 10
0.2218592514419524
 20
0.3212746540227438
  0
LWPOLYLINE
  5
7DE1B343D9E170E
330
7DE1B343D9E17C3
100
AcDbEntity
  8
TEXT
100
AcDbPolyline
 90
        2
 70
     0
 43
0.0001332181640625
 10
0.1818938022232026
 20
0.204708760468058
 10
0.1719024399185138
 20
0.2646569342961835
  0
LWPOLYLINE
  5
7DE1B343D9E1712
330
7DE1B343D9E17C3
100
AcDbEntity
  8
TEXT
100
AcDbPolyline
 90
        2
 70
     0
 43
0.0001332181640625
 10
0.1719024399185138
 20
0.251335117889933
 10
0.1818938022232026
 20
0.1780651276555569
  0
LWPOLYLINE
  5
7DE1B343D9E1716
330
7DE1B343D9E17C3
100
AcDbEntity
  8
TEXT
100
AcDbPolyline
 90
        2
 70
     0
 43
0.0006660908203125
 10
0.1818938022232026
 20
0.204708760468058
 10
0.1818938022232026
 20
0.1780651276555569
  0
LWPOLYLINE
  5
7DE1B343D9E171A
330
7DE1B343D9E17C3
100
AcDbEntity
  8
TEXT
100
AcDbPolyline
 90
        5
 70
     0
 43
0.0001332181640625
 10
0.2218592514419524
 20
0.3012919294133698
 10
0.2085374350357036
 20
0.3012919294133698
 10
0.2085374350357036
 20
0.2646569342961835
 10
0.1719024399185138
 20
0.2646569342961835
 10
0.1719024399185138
 20
0.251335117889933
  0
LWPOLYLINE
  5
7DE1B343D9E1721
330
7DE1B343D9E17C3
100
AcDbEntity
  8
TEXT
100
AcDbPolyline
 90
        2
 70
     0
 43
0.0006660908203125
 10
0.2684856088638274
 20
0.3312660163274326
 10
0.2951292416763285
 20
0.3312660163274326
  0
LWPOLYLINE
  5
7DE1B343D9E1725
330
7DE1B343D9E17C3
100
AcDbEntity
  8
TEXT
100
AcDbPolyline
 90
        2
 70
     0
 43
0.0006660908203125
 10
0.2684856088638274
 20
0.2913005671086846
 10
0.2951292416763285
 20
0.2913005671086846
  0
LINE
  5
7DE1B343D9E1729
330
7DE1B343D9E17C3
100
AcDbEntity
  8
TEXT
100
AcDbLine
 10
0.5652433785243534
 20
0.3802247611237912
 30
0.0
 11
0.7321490325533247
 21
0.3802247611237912
 31
0.0
  0
LINE
  5
7DE1B343D9E172A
330
7DE1B343D9E17C3
100
AcDbEntity
  8
TEXT
100
AcDbLine
 10
0.6308435147686545
 20
0.3444200395131634
 30
0.0
 11
0.5652433785243534
 21
0.3444200395131634
 31
0.0
  0
LINE
  5
7DE1B343D9E172B
330
7DE1B343D9E17C3
100
AcDbEntity
  8
TEXT
100
AcDbLine
 10
0.4779185889636018
 20
0.1780284227920457
 30
0.0
 11
0.6308435147686545
 21
0.1780284227920457
 31
0.0
  0
LINE
  5
7DE1B343D9E172C
330
7DE1B343D9E17C3
100
AcDbEntity
  8
TEXT
100
AcDbLine
 10
0.6357838886749341
 20
0.246385429125485
 30
0.0
 11
0.4779185889636
 21
0.246385429125485
 31
0.0
  0
LINE
  5
7DE1B343D9E172D
330
7DE1B343D9E17C3
100
AcDbEntity
  8
TEXT
100
AcDbLine
 10
0.5600060484101053
 20
0.2803265368875496
 30
0.0
 11
0.6357838886749341
 21
0.2803265368875496
 31
0.0
  0
ARC
  5
7DE1B343D9E172E
330
7DE1B343D9E17C3
100
AcDbEntity
  8
TEXT
100
AcDbCircle
 10
0.5652433785243543
 20
0.3623224003184791
 30
0.0
 40
0.017902360805315
100
AcDbArc
 50
90.0
 51
270.0
  0
LINE
  5
7DE1B343D9E172F
330
7DE1B343D9E17C3
100
AcDbEntity
  8
TEXT
100
AcDbLine
 10
0.4779185889636
 20
0.246385429125485
 30
0.0
 11
0.4779185889636018
 21
0.1780284227920457
 31
0.0
  0
LINE
  5
7DE1B343D9E1730
330
7DE1B343D9E17C3
100
AcDbEntity
  8
TEXT
100
AcDbLine
 10
0.7321490325533247
 20
0.3802247611237912
 30
0.0
 11
0.7321490325533247
 21
0.2378208141300955
 31
0.0
  0
ARC
  5
7DE1B343D9E1731
330
7DE1B343D9E17C3
100
AcDbEntity
  8
TEXT
100
AcDbCircle
 10
0.6308435147686553
 20
0.2612242311526027
 30
0.0
 40
0.0831958083605586
100
AcDbArc
 50
270.0
 51
90.0
  0
ARC
  5
7DE1B343D9E1732
330
7DE1B343D9E17C3
100
AcDbEntity
  8
TEXT
100
AcDbCircle
 10
0.635783888674935
 20
0.2633559830065191
 30
0.0
 40
0.0169705538810321
100
AcDbArc
 50
270.0
 51
90.0
  0
LWPOLYLINE
  5
7DE1B343D9E1733
330
7DE1B343D9E17C3
100
AcDbEntity
  8
TEXT
100
AcDbPolyline
 90
        2
 70
     0
 43
0.0006660908203125
 10
0.1419283530044511
 20
0.4178578229680592
 10
0.1419283530044511
 20
0.4445014557805603
  0
LWPOLYLINE
  5
7DE1B343D9E1737
330
7DE1B343D9E17C3
100
AcDbEntity
  8
TEXT
100
AcDbPolyline
 90
        2
 70
     0
 43
0.0006660908203125
 10
0.1818938022232026
 20
0.4178578229680592
 10
0.1818938022232026
 20
0.4445014557805603
  0
LINE
  5
7DE1B343D9E173B
330
7DE1B343D9E17C3
100
AcDbEntity
  8
TEXT
100
AcDbLine
 10
0.7357378013086176
 20
0.4445014557805567
 30
0.0
 11
0.5600060484101053
 21
0.4445014557805567
 31
0.0
  0
LINE
  5
7DE1B343D9E173C
330
7DE1B343D9E17C3
100
AcDbEntity
  8
TEXT
100
AcDbLine
 10
0.7357378013086176
 20
0.4788893733746949
 30
0.0
 11
0.7357378013086176
 21
0.4445014557805567
 31
0.0
  0
LINE
  5
7DE1B343D9E173D
330
7DE1B343D9E17C3
100
AcDbEntity
  8
TEXT
100
AcDbLine
 10
0.9262096933284698
 20
0.3436294596674361
 30
0.0
 11
0.867579372296532
 21
0.4445014557805567
 31
0.0
  0
LINE
  5
7DE1B343D9E173E
330
7DE1B343D9E17C3
100
AcDbEntity
  8
TEXT
100
AcDbLine
 10
0.9849582561343353
 20
0.4445014557805567
 30
0.0
 11
0.9262096933284698
 21
0.3436294596674361
 31
0.0
  0
LINE
  5
7DE1B343D9E173F
330
7DE1B343D9E17C3
100
AcDbEntity
  8
TEXT
100
AcDbLine
 10
1.081888881494076
 20
0.2604162608950449
 30
0.0
 11
1.081888881494076
 21
0.5125129335193673
 31
0.0
  0
LINE
  5
7DE1B343D9E1740
330
7DE1B343D9E17C3
100
AcDbEntity
  8
TEXT
100
AcDbLine
 10
1.114200735631736
 20
0.4445014557805567
 30
0.0
 11
1.114200735631736
 21
0.2436372490481484
 31
0.0
  0
LINE
  5
7DE1B343D9E1741
330
7DE1B343D9E17C3
100
AcDbEntity
  8
TEXT
100
AcDbLine
 10
1.114200735631736
 20
0.2436372490481484
 30
0.0
 11
1.097207098747135
 21
0.2436372490481484
 31
0.0
  0
LINE
  5
7DE1B343D9E1742
330
7DE1B343D9E17C3
100
AcDbEntity
  8
TEXT
100
AcDbLine
 10
1.083028454990271
 20
0.1780284227920457
 30
0.0
 11
1.181031788689705
 21
0.1780284227920457
 31
0.0
  0
LINE
  5
7DE1B343D9E1743
330
7DE1B343D9E17C3
100
AcDbEntity
  8
TEXT
100
AcDbLine
 10
0.9166094563315155
 20
0.1979869288970586
 30
0.0
 11
1.01390916242496
 21
0.3623371398323267
 31
0.0
  0
ARC
  5
7DE1B343D9E1744
330
7DE1B343D9E17C3
100
AcDbEntity
  8
TEXT
100
AcDbCircle
 10
0.8825658964193014
 20
0.2175761450657414
 30
0.0
 40
0.0392772371940762
100
AcDbArc
 50
270.1604552698595
 51
330.0831797321295
  0
LINE
  5
7DE1B343D9E1745
330
7DE1B343D9E17C3
100
AcDbEntity
  8
TEXT
100
AcDbLine
 10
0.7860356400334303
 20
0.1780284227920457
 30
0.0
 11
0.8826758911084247
 21
0.178299061890328
 31
0.0
  0
LWPOLYLINE
  5
7DE1B343D9E1746
330
7DE1B343D9E17C3
100
AcDbEntity
  8
TEXT
100
AcDbPolyline
 90
        6
 70
     1
 43
0.0
 10
0.8285594436085798
 20
0.3802247611237912
 10
0.7982428493883718
 20
0.3802247611237912
 10
0.7982428493883718
 20
0.2571137630688969
 42
0.407328721240804
 10
0.809786500549848
 20
0.2452948483925108
 10
0.8704081995945788
 20
0.2452948483925108
 10
0.8878735400018967
 20
0.2781070774359899
  0
LINE
  5
7DE1B343D9E174E
330
7DE1B343D9E17C3
100
AcDbEntity
  8
TEXT
100
AcDbLine
 10
1.01390916242496
 20
0.3623371398323267
 30
0.0
 11
1.01390916242496
 21
0.2295797650069704
 31
0.0
  0
ARC
  5
7DE1B343D9E174F
330
7DE1B343D9E17C3
100
AcDbEntity
  8
TEXT
100
AcDbCircle
 10
1.097207098747133
 20
0.2590190552915739
 30
0.0
 40
0.0153818062434269
100
AcDbArc
 50
174.7883570302258
 51
270.0
  0
LWPOLYLINE
  5
7DE1B343D9E1750
330
7DE1B343D9E17C3
100
AcDbEntity
  8
TEXT
100
AcDbPolyline
 90
        2
 70
     0
 43
0.0
 10
1.013909162424958
 20
0.229579765006974
 42
0.3318488747599744
 10
1.083028454990271
 20
0.1780284227920457
 42
-6.868794160588311
  0
LINE
  5
7DE1B343D9E1754
330
7DE1B343D9E17C3
100
AcDbEntity
  8
TEXT
100
AcDbLine
 10
1.238420857678967
 20
0.1780284227920457
 30
0.0
 11
1.305478904460807
 21
0.1780284227920457
 31
0.0
  0
LINE
  5
7DE1B343D9E1755
330
7DE1B343D9E17C3
100
AcDbEntity
  8
TEXT
100
AcDbLine
 10
1.238420857678967
 20
0.3726709719576813
 30
0.0
 11
1.238420857678967
 21
0.1780284227920457
 31
0.0
  0
LINE
  5
7DE1B343D9E1756
330
7DE1B343D9E17C3
100
AcDbEntity
  8
TEXT
100
AcDbLine
 10
1.181031788689705
 20
0.3802247611237912
 30
0.0
 11
1.230867068512853
 21
0.3802247611237912
 31
0.0
  0
LINE
  5
7DE1B343D9E1757
330
7DE1B343D9E17C3
100
AcDbEntity
  8
TEXT
100
AcDbLine
 10
1.181031788689705
 20
0.1780284227920457
 30
0.0
 11
1.181031788689705
 21
0.3802247611237912
 31
0.0
  0
LWPOLYLINE
  5
7DE1B343D9E1758
330
7DE1B343D9E17C3
100
AcDbEntity
  8
TEXT
100
AcDbPolyline
 90
        2
 70
     0
 43
0.0
 10
1.230867068512851
 20
0.3802247611237912
 42
-0.4142135623731017
 10
1.238420857678965
 20
0.3726709719576813
 42
-0.9999999999999998
  0
LINE
  5
7DE1B343D9E175C
330
7DE1B343D9E17C3
100
AcDbEntity
  8
TEXT
100
AcDbLine
 10
1.436677069290536
 20
0.3802247611237912
 30
0.0
 11
1.436677069290536
 21
0.3051723550495846
 31
0.0
  0
LINE
  5
7DE1B343D9E175D
330
7DE1B343D9E17C3
100
AcDbEntity
  8
TEXT
100
AcDbLine
 10
1.305478904460807
 20
0.3802247611237912
 30
0.0
 11
1.359612501381757
 21
0.3802247611237912
 31
0.0
  0
LINE
  5
7DE1B343D9E175E
330
7DE1B343D9E17C3
100
AcDbEntity
  8
TEXT
100
AcDbLine
 10
1.305478904460807
 20
0.1780284227920457
 30
0.0
 11
1.305478904460807
 21
0.3802247611237912
 31
0.0
  0
LWPOLYLINE
  5
7DE1B343D9E175F
330
7DE1B343D9E17C3
100
AcDbEntity
  8
TEXT
100
AcDbPolyline
 90
        2
 70
     0
 43
0.0
 10
1.359612501381755
 20
0.3802247611237912
 42
-0.4142135623731017
 10
1.367166290547868
 20
0.3726709719576813
 42
-0.9999999999999998
  0
LWPOLYLINE
  5
7DE1B343D9E1763
330
7DE1B343D9E17C3
100
AcDbEntity
  8
TEXT
100
AcDbPolyline
 90
        4
 70
     0
 43
0.0
 10
1.367166290547868
 20
0.3726709719576813
 10
1.367166290547868
 20
0.1780284227920457
 10
1.435644573835726
 20
0.1780284227920457
 10
1.435644573835726
 20
0.2215193677424838
 42
-1.714843617202739
  0
LINE
  5
7DE1B343D9E1769
330
7DE1B343D9E17C3
100
AcDbEntity
  8
TEXT
100
AcDbLine
 10
0.7957804061526246
 20
0.4445014557805567
 30
0.0
 11
0.7957804061526246
 21
0.4788893733746949
 31
0.0
  0
LINE
  5
7DE1B343D9E176A
330
7DE1B343D9E17C3
100
AcDbEntity
  8
TEXT
100
AcDbLine
 10
0.867579372296532
 20
0.4445014557805567
 30
0.0
 11
0.7957804061526246
 21
0.4445014557805567
 31
0.0
  0
LINE
  5
7DE1B343D9E176B
330
7DE1B343D9E17C3
100
AcDbEntity
  8
TEXT
100
AcDbLine
 10
1.015080168927711
 20
0.4445014557805567
 30
0.0
 11
0.9849582561343353
 21
0.4445014557805567
 31
0.0
  0
LINE
  5
7DE1B343D9E176C
330
7DE1B343D9E17C3
100
AcDbEntity
  8
TEXT
100
AcDbLine
 10
1.015080168927711
 20
0.5125129335193673
 30
0.0
 11
1.015080168927711
 21
0.4445014557805567
 31
0.0
  0
LINE
  5
7DE1B343D9E176D
330
7DE1B343D9E17C3
100
AcDbEntity
  8
TEXT
100
AcDbLine
 10
1.081888881494076
 20
0.5125129335193673
 30
0.0
 11
1.015080168927711
 21
0.5125129335193673
 31
0.0
  0
LWPOLYLINE
  5
7DE1B343D9E176E
330
7DE1B343D9E17C3
100
AcDbEntity
  8
TEXT
100
AcDbPolyline
 90
        3
 70
     0
 43
0.0
 10
1.402300641092078
 20
0.4445014557805603
 10
1.284000482276034
 20
0.4445014557805603
 10
1.284000482276034
 20
0.4173339590196643
 42
-1.960274751411753
  0
LINE
  5
7DE1B343D9E1773
330
7DE1B343D9E17C3
100
AcDbEntity
  8
TEXT
100
AcDbLine
 10
1.248218791562873
 20
0.4445014557805567
 30
0.0
 11
1.114200735631736
 21
0.4445014557805567
 31
0.0
  0
LWPOLYLINE
  5
7DE1B343D9E1774
330
7DE1B343D9E17C3
100
AcDbEntity
  8
TEXT
100
AcDbPolyline
 90
        2
 70
     0
 43
0.0
 10
1.248218791562873
 20
0.4445014557805603
 42
-0.3328679258950098
 10
1.284000482276034
 20
0.4173339590196643
 42
6.772930709997214
  0
LINE
  5
7DE1B343D9E1778
330
7DE1B343D9E17C3
100
AcDbEntity
  8
TEXT
100
AcDbLine
 10
1.438082331805245
 20
0.4445014557805567
 30
0.0
 11
1.438082331805245
 21
0.4161789100109128
 31
0.0
  0
LWPOLYLINE
  5
7DE1B343D9E1779
330
7DE1B343D9E17C3
100
AcDbEntity
  8
TEXT
100
AcDbPolyline
 90
        2
 70
     0
 43
0.0
 10
1.402300641092078
 20
0.4445014557805603
 42
-0.3277054968067132
 10
1.438082331805243
 20
0.4161789100109164
 42
6.667889725900311
  0
LINE
  5
7DE1B343D9E177D
330
7DE1B343D9E17C3
100
AcDbEntity
  8
TEXT
100
AcDbLine
 10
1.651874179897345
 20
0.3392894772271293
 30
0.0
 11
1.608123408715444
 21
0.4215397532232746
 31
0.0
  0
LINE
  5
7DE1B343D9E177E
330
7DE1B343D9E17C3
100
AcDbEntity
  8
TEXT
100
AcDbLine
 10
1.651874179897345
 20
0.4445014557805567
 30
0.0
 11
1.651874179897345
 21
0.3392894772271293
 31
0.0
  0
LINE
  5
7DE1B343D9E177F
330
7DE1B343D9E17C3
100
AcDbEntity
  8
TEXT
100
AcDbLine
 10
1.879557918835714
 20
0.3686361293690186
 30
0.0
 11
1.879557918835714
 21
0.5099656615481574
 31
0.0
  0
LINE
  5
7DE1B343D9E1780
330
7DE1B343D9E17C3
100
AcDbEntity
  8
TEXT
100
AcDbLine
 10
1.926656077391699
 20
0.4445014557805567
 30
0.0
 11
1.879557918835714
 21
0.3686361293690186
 31
0.0
  0
LINE
  5
7DE1B343D9E1781
330
7DE1B343D9E17C3
100
AcDbEntity
  8
TEXT
100
AcDbLine
 10
1.937090794155622
 20
0.3346082128395831
 30
0.0
 11
2.001647910121327
 21
0.4445014557805567
 31
0.0
  0
LINE
  5
7DE1B343D9E1782
330
7DE1B343D9E17C3
100
AcDbEntity
  8
TEXT
100
AcDbLine
 10
1.815722927612941
 20
0.1780284227920457
 30
0.0
 11
1.880101111931562
 21
0.1780284227920457
 31
0.0
  0
LWPOLYLINE
  5
7DE1B343D9E1783
330
7DE1B343D9E17C3
100
AcDbEntity
  8
TEXT
100
AcDbPolyline
 90
        2
 70
     0
 43
0.0
 10
1.655813857202383
 20
0.2215193677424838
 42
-0.2901071551932486
 10
1.612737924334739
 20
0.1780284227920457
 42
-5.328517124445184
  0
ARC
  5
7DE1B343D9E1787
330
7DE1B343D9E17C3
100
AcDbEntity
  8
TEXT
100
AcDbCircle
 10
1.543883342677824
 20
0.3518653861237939
 30
0.0
 40
0.028359375
100
AcDbArc
 50
25.78218179591245
 51
90.0
  0
LINE
  5
7DE1B343D9E1788
330
7DE1B343D9E17C3
100
AcDbEntity
  8
TEXT
100
AcDbLine
 10
1.579684417981947
 20
0.342949787661659
 30
0.0
 11
1.569419657568383
 21
0.3642003272343532
 31
0.0
  0
LINE
  5
7DE1B343D9E1789
330
7DE1B343D9E17C3
100
AcDbEntity
  8
TEXT
100
AcDbLine
 10
1.497396428198564
 20
0.342949787661659
 30
0.0
 11
1.579684417981947
 21
0.342949787661659
 31
0.0
  0
LWPOLYLINE
  5
7DE1B343D9E178A
330
7DE1B343D9E17C3
100
AcDbEntity
  8
TEXT
100
AcDbPolyline
 90
        4
 70
     1
 43
0.0
 10
1.592615459264846
 20
0.2809924007760709
 10
1.503955140604988
 20
0.2809924007760709
 42
0.9999999999999998
 10
1.503955140604988
 20
0.2385938602722102
 10
1.592615459264846
 20
0.2385938602722102
 42
1.0
  0
LWPOLYLINE
  5
7DE1B343D9E1790
330
7DE1B343D9E17C3
100
AcDbEntity
  8
TEXT
100
AcDbPolyline
 90
        2
 70
     0
 43
0.0
 10
1.478720506703362
 20
0.1780284227920457
 10
1.612737924334739
 20
0.1780284227920457
 42
0.9999999999999998
  0
LINE
  5
7DE1B343D9E1794
330
7DE1B343D9E17C3
100
AcDbEntity
  8
TEXT
100
AcDbLine
 10
1.739074946320378
 20
0.3802247611237912
 30
0.0
 11
1.815722927612936
 21
0.3802247611237912
 31
0.0
  0
LINE
  5
7DE1B343D9E1795
330
7DE1B343D9E17C3
100
AcDbEntity
  8
TEXT
100
AcDbLine
 10
1.815722927612936
 20
0.3802247611237912
 30
0.0
 11
1.815722927612941
 21
0.1780284227920457
 31
0.0
  0
ARC
  5
7DE1B343D9E1796
330
7DE1B343D9E17C3
100
AcDbEntity
  8
TEXT
100
AcDbCircle
 10
1.739074946320376
 20
0.3553188858411285
 30
0.0
 40
0.0249058752826653
100
AcDbArc
 50
89.99971217465335
 51
179.9999999999985
  0
LINE
  5
7DE1B343D9E1797
330
7DE1B343D9E17C3
100
AcDbEntity
  8
TEXT
100
AcDbLine
 10
1.714169071037719
 20
0.1780284227920457
 30
0.0
 11
1.714169071037713
 21
0.3553189282235141
 31
0.0
  0
LWPOLYLINE
  5
7DE1B343D9E1798
330
7DE1B343D9E17C3
100
AcDbEntity
  8
TEXT
100
AcDbPolyline
 90
        2
 70
     0
 43
0.0
 10
1.655813857202383
 20
0.1780284227920457
 10
1.714169071037717
 20
0.1780284227920457
  0
LWPOLYLINE
  5
7DE1B343D9E179C
330
7DE1B343D9E17C3
100
AcDbEntity
  8
TEXT
100
AcDbPolyline
 90
        2
 70
     0
 43
0.0
 10
1.655813857202383
 20
0.2215193677424838
 10
1.655813857202383
 20
0.1780284227920457
  0
LINE
  5
7DE1B343D9E17A0
330
7DE1B343D9E17C3
100
AcDbEntity
  8
TEXT
100
AcDbLine
 10
2.032583017519232
 20
0.1780284227920457
 30
0.0
 11
1.937090794155622
 21
0.3346082128395831
 31
0.0
  0
LINE
  5
7DE1B343D9E17A1
330
7DE1B343D9E17C3
100
AcDbEntity
  8
TEXT
100
AcDbLine
 10
1.956004645143026
 20
0.1780284227920457
 30
0.0
 11
2.032583017519232
 21
0.1780284227920457
 31
0.0
  0
LINE
  5
7DE1B343D9E17A2
330
7DE1B343D9E17C3
100
AcDbEntity
  8
TEXT
100
AcDbLine
 10
1.880101111931562
 20
0.3096079912682259
 30
0.0
 11
1.956004645143026
 21
0.1780284227920457
 31
0.0
  0
LINE
  5
7DE1B343D9E17A3
330
7DE1B343D9E17C3
100
AcDbEntity
  8
TEXT
100
AcDbLine
 10
1.880101111931562
 20
0.1780284227920457
 30
0.0
 11
1.880101111931562
 21
0.3096079912682259
 31
0.0
  0
LINE
  5
7DE1B343D9E17A4
330
7DE1B343D9E17C3
100
AcDbEntity
  8
TEXT
100
AcDbLine
 10
1.879557918835714
 20
0.5099656615481574
 30
0.0
 11
1.811243040286441
 21
0.5099656615481574
 31
0.0
  0
ARC
  5
7DE1B343D9E17A5
330
7DE1B343D9E17C3
100
AcDbEntity
  8
TEXT
100
AcDbCircle
 10
1.570887301245235
 20
0.4029178886596543
 30
0.0
 40
0.0416329381542859
100
AcDbArc
 50
26.56974201007528
 51
87.20939649401342
  0
LINE
  5
7DE1B343D9E17A6
330
7DE1B343D9E17C3
100
AcDbEntity
  8
TEXT
100
AcDbLine
 10
1.715771086196846
 20
0.4445014557805567
 30
0.0
 11
1.651874179897345
 21
0.4445014557805567
 31
0.0
  0
LINE
  5
7DE1B343D9E17A7
330
7DE1B343D9E17C3
100
AcDbEntity
  8
TEXT
100
AcDbLine
 10
1.715771086196846
 20
0.416953805919682
 30
0.0
 11
1.715771086196846
 21
0.4445014557805567
 31
0.0
  0
ARC
  5
7DE1B343D9E17A8
330
7DE1B343D9E17C3
100
AcDbEntity
  8
TEXT
100
AcDbCircle
 10
1.746963903259954
 20
0.4132557284982919
 30
0.0
 40
0.0314112657011332
100
AcDbArc
 50
95.88484768694724
 51
173.2388340632136
  0
LINE
  5
7DE1B343D9E17A9
330
7DE1B343D9E17C3
100
AcDbEntity
  8
TEXT
100
AcDbLine
 10
1.811243040286436
 20
0.4445014557805567
 30
0.0
 11
1.743743322636919
 21
0.4445014557805567
 31
0.0
  0
LINE
  5
7DE1B343D9E17AA
330
7DE1B343D9E17C3
100
AcDbEntity
  8
TEXT
100
AcDbLine
 10
1.811243040286441
 20
0.5099656615481574
 30
0.0
 11
1.811243040286436
 21
0.4445014557805567
 31
0.0
  0
LINE
  5
7DE1B343D9E17AB
330
7DE1B343D9E17C3
100
AcDbEntity
  8
TEXT
100
AcDbLine
 10
2.001647910121327
 20
0.4445014557805567
 30
0.0
 11
1.926656077391701
 21
0.4445014557805567
 31
0.0
  0
ENDSEC
  0
SECTION
  2
OBJECTS
  0
DICTIONARY
  5
7DE1B343D9E17B7
330
0
100
AcDbDictionary
  3
ACAD_GROUP
350
7DE1B343D9E17B8
  3
ACAD_LAYOUT
350
7DE1B343D9E17DD
  3
ACAD_MLINESTYLE
350
7DE1B343D9E17B9
  3
ACAD_PLOTSETTINGS
350
7DE1B343D9E17DE
  3
ACAD_PLOTSTYLENAME
350
7DE1B343D9E17DB
  3
ACDBHEADERROUNDTRIPXREC
350
7DE1B343D9E17E8
  3
ACDBVARIABLEDICTIONARY
350
7DE1B343D9E17E5
  0
DICTIONARY
  5
7DE1B343D9E180A
330
7DE1B343D9E17C3
100
AcDbDictionary
280
     1
  3
ACAD_LAYOUTSELFREF
360
7DE1B343D9E180B
  0
DICTIONARY
  5
7DE1B343D9E1808
330
7DE1B343D9E17C0
100
AcDbDictionary
280
     1
  3
ACAD_LAYOUTSELFREF
360
7DE1B343D9E1809
  0
DICTIONARY
  5
7DE1B343D9E17B8
102
{ACAD_REACTORS
330
7DE1B343D9E17B7
102
}
330
7DE1B343D9E17B7
100
AcDbDictionary
  0
DICTIONARY
  5
7DE1B343D9E17DD
102
{ACAD_REACTORS
330
7DE1B343D9E17B7
102
}
330
7DE1B343D9E17B7
100
AcDbDictionary
  0
DICTIONARY
  5
7DE1B343D9E17B9
102
{ACAD_REACTORS
330
7DE1B343D9E17B7
102
}
330
7DE1B343D9E17B7
100
AcDbDictionary
  3
STANDARD
350
7DE1B343D9E17C6
  0
DICTIONARY
  5
7DE1B343D9E17DE
102
{ACAD_REACTORS
330
7DE1B343D9E17B7
102
}
330
7DE1B343D9E17B7
100
AcDbDictionary
  0
ACDBDICTIONARYWDFLT
  5
7DE1B343D9E17DB
102
{ACAD_REACTORS
330
7DE1B343D9E17B7
102
}
330
7DE1B343D9E17B7
100
AcDbDictionary
281
     1
  3
Normal
350
7DE1B343D9E17DC
100
AcDbDictionaryWithDefault
340
7DE1B343D9E17DC
  0
DICTIONARY
  5
7DE1B343D9E17E8
102
{ACAD_REACTORS
330
7DE1B343D9E17B7
102
}
330
7DE1B343D9E17B7
100
AcDbDictionary
  3
CEPSNTYPE
350
7DE1B343D9E17F2
  3
FINGERPRINTGUID
350
7DE1B343D9E17F3
  3
HYPERLINKBASE
350
7DE1B343D9E17EB
  3
INSUNITS
350
7DE1B343D9E17F1
  3
LAYOUTDICT
350
7DE1B343D9E17ED
  3
LWETCUNION
350
7DE1B343D9E17F0
  3
PLOTSETDICT
350
7DE1B343D9E17EE
  3
PLOTSTYLNAMDICT
350
7DE1B343D9E17EF
  3
PSVPSCALE
350
7DE1B343D9E17F5
  3
PUCSBASE
350
7DE1B343D9E17F8
  3
PUCSORGBACK
350
7DE1B343D9E17FE
  3
PUCSORGBOTTOM
350
7DE1B343D9E17FA
  3
PUCSORGFRONT
350
7DE1B343D9E17FD
  3
PUCSORGLEFT
350
7DE1B343D9E17FB
  3
PUCSORGRIGHT
350
7DE1B343D9E17FC
  3
PUCSORGTOP
350
7DE1B343D9E17F9
  3
PUCSORTHOREF
350
7DE1B343D9E17F6
  3
PUCSORTHOVIEW
350
7DE1B343D9E17F7
  3
STYLESHEET
350
7DE1B343D9E17EC
  3
TSTACKALIGN
350
7DE1B343D9E17E9
  3
TSTACKSIZE
350
7DE1B343D9E17EA
  3
UCSBASE
350
7DE1B343D9E1801
  3
UCSORGBACK
350
7DE1B343D9E1807
  3
UCSORGBOTTOM
350
7DE1B343D9E1803
  3
UCSORGFRONT
350
7DE1B343D9E1806
  3
UCSORGLEFT
350
7DE1B343D9E1804
  3
UCSORGRIGHT
350
7DE1B343D9E1805
  3
UCSORGTOP
350
7DE1B343D9E1802
  3
UCSORTHOREF
350
7DE1B343D9E17FF
  3
UCSORTHOVIEW
350
7DE1B343D9E1800
  3
VERSIONGUID
350
7DE1B343D9E17F4
  0
DICTIONARY
  5
7DE1B343D9E17E5
102
{ACAD_REACTORS
330
7DE1B343D9E17B7
102
}
330
7DE1B343D9E17B7
100
AcDbDictionary
  3
DIMASSOC
350
7DE1B343D9E17E6
  0
XRECORD
  5
7DE1B343D9E180B
102
{ACAD_REACTORS
330
7DE1B343D9E180A
102
}
330
7DE1B343D9E180A
100
AcDbXrecord
340
7DE1B343D9E17C3
  0
XRECORD
  5
7DE1B343D9E1809
102
{ACAD_REACTORS
330
7DE1B343D9E1808
102
}
330
7DE1B343D9E1808
100
AcDbXrecord
340
7DE1B343D9E17C0
  0
MLINESTYLE
  5
7DE1B343D9E17C6
102
{ACAD_REACTORS
330
7DE1B343D9E17B9
102
}
330
7DE1B343D9E17B9
100
AcDbMlineStyle
  2
STANDARD
 70
     0
  3

 62
     0
 51
90.0
 52
90.0
 71
     2
 49
0.5
 62
   256
  6
BYLAYER
 49
-0.5
 62
   256
  6
BYLAYER
  0
ACDBPLACEHOLDER
  5
7DE1B343D9E17DC
102
{ACAD_REACTORS
330
7DE1B343D9E17DB
102
}
330
7DE1B343D9E17DB
100
AcDbPlaceHolder
280
     0
  0
XRECORD
  5
7DE1B343D9E17F2
102
{ACAD_REACTORS
330
7DE1B343D9E17E8
102
}
330
7DE1B343D9E17E8
100
AcDbXrecord
 90
        0
  0
XRECORD
  5
7DE1B343D9E17F3
102
{ACAD_REACTORS
330
7DE1B343D9E17E8
102
}
330
7DE1B343D9E17E8
100
AcDbXrecord
  1
{B8D4A9D0-8DB9-11D6-88E6-0090279574E7}
  0
XRECORD
  5
7DE1B343D9E17EB
102
{ACAD_REACTORS
330
7DE1B343D9E17E8
102
}
330
7DE1B343D9E17E8
100
AcDbXrecord
  1

  0
XRECORD
  5
7DE1B343D9E17F1
102
{ACAD_REACTORS
330
7DE1B343D9E17E8
102
}
330
7DE1B343D9E17E8
100
AcDbXrecord
 90
        0
  0
XRECORD
  5
7DE1B343D9E17ED
102
{ACAD_REACTORS
330
7DE1B343D9E17E8
102
}
330
7DE1B343D9E17E8
100
AcDbXrecord
340
7DE1B343D9E17DD
  0
XRECORD
  5
7DE1B343D9E17F0
102
{ACAD_REACTORS
330
7DE1B343D9E17E8
102
}
330
7DE1B343D9E17E8
100
AcDbXrecord
 90
    14877
  0
XRECORD
  5
7DE1B343D9E17EE
102
{ACAD_REACTORS
330
7DE1B343D9E17E8
102
}
330
7DE1B343D9E17E8
100
AcDbXrecord
340
7DE1B343D9E17DE
  0
XRECORD
  5
7DE1B343D9E17EF
102
{ACAD_REACTORS
330
7DE1B343D9E17E8
102
}
330
7DE1B343D9E17E8
100
AcDbXrecord
340
7DE1B343D9E17DB
  0
XRECORD
  5
7DE1B343D9E17F5
102
{ACAD_REACTORS
330
7DE1B343D9E17E8
102
}
330
7DE1B343D9E17E8
100
AcDbXrecord
 40
0.0
  0
XRECORD
  5
7DE1B343D9E17F8
102
{ACAD_REACTORS
330
7DE1B343D9E17E8
102
}
330
7DE1B343D9E17E8
100
AcDbXrecord
340
0
  0
XRECORD
  5
7DE1B343D9E17FE
102
{ACAD_REACTORS
330
7DE1B343D9E17E8
102
}
330
7DE1B343D9E17E8
100
AcDbXrecord
 10
0.0
 20
0.0
 30
0.0
  0
XRECORD
  5
7DE1B343D9E17FA
102
{ACAD_REACTORS
330
7DE1B343D9E17E8
102
}
330
7DE1B343D9E17E8
100
AcDbXrecord
 10
0.0
 20
0.0
 30
0.0
  0
XRECORD
  5
7DE1B343D9E17FD
102
{ACAD_REACTORS
330
7DE1B343D9E17E8
102
}
330
7DE1B343D9E17E8
100
AcDbXrecord
 10
0.0
 20
0.0
 30
0.0
  0
XRECORD
  5
7DE1B343D9E17FB
102
{ACAD_REACTORS
330
7DE1B343D9E17E8
102
}
330
7DE1B343D9E17E8
100
AcDbXrecord
 10
0.0
 20
0.0
 30
0.0
  0
XRECORD
  5
7DE1B343D9E17FC
102
{ACAD_REACTORS
330
7DE1B343D9E17E8
102
}
330
7DE1B343D9E17E8
100
AcDbXrecord
 10
0.0
 20
0.0
 30
0.0
  0
XRECORD
  5
7DE1B343D9E17F9
102
{ACAD_REACTORS
330
7DE1B343D9E17E8
102
}
330
7DE1B343D9E17E8
100
AcDbXrecord
 10
0.0
 20
0.0
 30
0.0
  0
XRECORD
  5
7DE1B343D9E17F6
102
{ACAD_REACTORS
330
7DE1B343D9E17E8
102
}
330
7DE1B343D9E17E8
100
AcDbXrecord
340
0
  0
XRECORD
  5
7DE1B343D9E17F7
102
{ACAD_REACTORS
330
7DE1B343D9E17E8
102
}
330
7DE1B343D9E17E8
100
AcDbXrecord
 70
     0
  0
XRECORD
  5
7DE1B343D9E17EC
102
{ACAD_REACTORS
330
7DE1B343D9E17E8
102
}
330
7DE1B343D9E17E8
100
AcDbXrecord
  1

  0
XRECORD
  5
7DE1B343D9E17E9
102
{ACAD_REACTORS
330
7DE1B343D9E17E8
102
}
330
7DE1B343D9E17E8
100
AcDbXrecord
 90
        1
  0
XRECORD
  5
7DE1B343D9E17EA
102
{ACAD_REACTORS
330
7DE1B343D9E17E8
102
}
330
7DE1B343D9E17E8
100
AcDbXrecord
 90
       70
  0
XRECORD
  5
7DE1B343D9E1801
102
{ACAD_REACTORS
330
7DE1B343D9E17E8
102
}
330
7DE1B343D9E17E8
100
AcDbXrecord
340
0
  0
XRECORD
  5
7DE1B343D9E1807
102
{ACAD_REACTORS
330
7DE1B343D9E17E8
102
}
330
7DE1B343D9E17E8
100
AcDbXrecord
 10
0.0
 20
0.0
 30
0.0
  0
XRECORD
  5
7DE1B343D9E1803
102
{ACAD_REACTORS
330
7DE1B343D9E17E8
102
}
330
7DE1B343D9E17E8
100
AcDbXrecord
 10
0.0
 20
0.0
 30
0.0
  0
XRECORD
  5
7DE1B343D9E1806
102
{ACAD_REACTORS
330
7DE1B343D9E17E8
102
}
330
7DE1B343D9E17E8
100
AcDbXrecord
 10
0.0
 20
0.0
 30
0.0
  0
XRECORD
  5
7DE1B343D9E1804
102
{ACAD_REACTORS
330
7DE1B343D9E17E8
102
}
330
7DE1B343D9E17E8
100
AcDbXrecord
 10
0.0
 20
0.0
 30
0.0
  0
XRECORD
  5
7DE1B343D9E1805
102
{ACAD_REACTORS
330
7DE1B343D9E17E8
102
}
330
7DE1B343D9E17E8
100
AcDbXrecord
 10
0.0
 20
0.0
 30
0.0
  0
XRECORD
  5
7DE1B343D9E1802
102
{ACAD_REACTORS
330
7DE1B343D9E17E8
102
}
330
7DE1B343D9E17E8
100
AcDbXrecord
 10
0.0
 20
0.0
 30
0.0
  0
XRECORD
  5
7DE1B343D9E17FF
102
{ACAD_REACTORS
330
7DE1B343D9E17E8
102
}
330
7DE1B343D9E17E8
100
AcDbXrecord
340
0
  0
XRECORD
  5
7DE1B343D9E1800
102
{ACAD_REACTORS
330
7DE1B343D9E17E8
102
}
330
7DE1B343D9E17E8
100
AcDbXrecord
 70
     0
  0
XRECORD
  5
7DE1B343D9E17F4
102
{ACAD_REACTORS
330
7DE1B343D9E17E8
102
}
330
7DE1B343D9E17E8
100
AcDbXrecord
  1
{B8D4A9D2-8DB9-11D6-88E6-0090279574E7}
  0
DICTIONARYVAR
  5
7DE1B343D9E17E6
102
{ACAD_REACTORS
330
7DE1B343D9E17E5
102
}
330
7DE1B343D9E17E5
100
DictionaryVariables
280
     0
  1
1
  0
ENDSEC
  0
EOF
