  0
SECTION
  2
HEADER
  9
$ACADVER
  1
AC1014
  9
$ACADMAINTVER
 70
     9
  9
$DWGCODEPAGE
  3
ANSI_1252
  9
$INSBASE
 10
1.689622287046545
 20
1.377095343960637
 30
0.0
  9
$EXTMIN
 10
0.1381159818214319
 20
0.178746737143575
 30
0.0
  9
$EXTMAX
 10
3.623335303568559
 20
2.455926623613932
 30
0.0
  9
$LIMMIN
 10
0.0
 20
0.0
  9
$LIMMAX
 10
18.0
 20
12.0
  9
$ORTHOMODE
 70
     1
  9
$REGENMODE
 70
     1
  9
$FILLMODE
 70
     1
  9
$QTEXTMODE
 70
     0
  9
$MIRRTEXT
 70
     0
  9
$DRAGMODE
 70
     2
  9
$LTSCALE
 40
1.0
  9
$OSMODE
 70
    39
  9
$ATTMODE
 70
     1
  9
$TEXTSIZE
 40
0.125
  9
$TRACEWID
 40
0.05
  9
$TEXTSTYLE
  7
ROMANS
  9
$CLAYER
  8
0
  9
$CELTYPE
  6
BYLAYER
  9
$CECOLOR
 62
   256
  9
$CELTSCALE
 40
1.0
  9
$DELOBJ
 70
     1
  9
$DISPSILH
 70
     1
  9
$DIMSCALE
 40
1.0
  9
$DIMASZ
 40
0.125
  9
$DIMEXO
 40
0.125
  9
$DIMDLI
 40
0.375
  9
$DIMRND
 40
0.0
  9
$DIMDLE
 40
0.0
  9
$DIMEXE
 40
0.125
  9
$DIMTP
 40
0.0
  9
$DIMTM
 40
0.0
  9
$DIMTXT
 40
0.125
  9
$DIMCEN
 40
-0.125
  9
$DIMTSZ
 40
0.0
  9
$DIMTOL
 70
     0
  9
$DIMLIM
 70
     0
  9
$DIMTIH
 70
     1
  9
$DIMTOH
 70
     1
  9
$DIMSE1
 70
     0
  9
$DIMSE2
 70
     0
  9
$DIMTAD
 70
     0
  9
$DIMZIN
 70
     4
  9
$DIMBLK
  1

  9
$DIMASO
 70
     1
  9
$DIMSHO
 70
     1
  9
$DIMPOST
  1

  9
$DIMAPOST
  1

  9
$DIMALT
 70
     0
  9
$DIMALTD
 70
     2
  9
$DIMALTF
 40
25.4
  9
$DIMLFAC
 40
1.0
  9
$DIMTOFL
 70
     0
  9
$DIMTVP
 40
0.0
  9
$DIMTIX
 70
     1
  9
$DIMSOXD
 70
     0
  9
$DIMSAH
 70
     0
  9
$DIMBLK1
  1

  9
$DIMBLK2
  1

  9
$DIMSTYLE
  2
STANDARD
  9
$DIMCLRD
 70
     0
  9
$DIMCLRE
 70
     0
  9
$DIMCLRT
 70
     0
  9
$DIMTFAC
 40
1.0
  9
$DIMGAP
 40
0.09
  9
$DIMJUST
 70
     0
  9
$DIMSD1
 70
     0
  9
$DIMSD2
 70
     0
  9
$DIMTOLJ
 70
     1
  9
$DIMTZIN
 70
     4
  9
$DIMALTZ
 70
     0
  9
$DIMALTTZ
 70
     0
  9
$DIMFIT
 70
     3
  9
$DIMUPT
 70
     0
  9
$DIMUNIT
 70
     2
  9
$DIMDEC
 70
     3
  9
$DIMTDEC
 70
     3
  9
$DIMALTU
 70
     2
  9
$DIMALTTD
 70
     2
  9
$DIMTXSTY
  7
ROMANS
  9
$DIMAUNIT
 70
     0
  9
$LUNITS
 70
     2
  9
$LUPREC
 70
     3
  9
$SKETCHINC
 40
0.1
  9
$FILLETRAD
 40
0.03125
  9
$AUNITS
 70
     0
  9
$AUPREC
 70
     0
  9
$MENU
  1
ACAD
  9
$ELEVATION
 40
0.0
  9
$PELEVATION
 40
0.0
  9
$THICKNESS
 40
0.0
  9
$LIMCHECK
 70
     0
  9
$BLIPMODE
 70
     0
  9
$CHAMFERA
 40
0.0
  9
$CHAMFERB
 40
0.0
  9
$CHAMFERC
 40
0.0
  9
$CHAMFERD
 40
0.0
  9
$SKPOLY
 70
     0
  9
$TDCREATE
 40
2448994.693980324
  9
$TDUPDATE
 40
2452458.323853264
  9
$TDINDWG
 40
0.0004825000
  9
$TDUSRTIMER
 40
0.0004825000
  9
$USRTIMER
 70
     1
  9
$ANGBASE
 50
0.0
  9
$ANGDIR
 70
     0
  9
$PDMODE
 70
     0
  9
$PDSIZE
 40
0.0
  9
$PLINEWID
 40
0.0
  9
$COORDS
 70
     2
  9
$SPLFRAME
 70
     0
  9
$SPLINETYPE
 70
     6
  9
$SPLINESEGS
 70
     8
  9
$ATTDIA
 70
     0
  9
$ATTREQ
 70
     1
  9
$HANDLING
 70
 22529
  9
$HANDSEED
  5
7DE1B343D9E140F
  9
$SURFTAB1
 70
     6
  9
$SURFTAB2
 70
     6
  9
$SURFTYPE
 70
     6
  9
$SURFU
 70
     6
  9
$SURFV
 70
     6
  9
$UCSNAME
  2

  9
$UCSORG
 10
0.0
 20
0.0
 30
0.0
  9
$UCSXDIR
 10
1.0
 20
0.0
 30
0.0
  9
$UCSYDIR
 10
0.0
 20
1.0
 30
0.0
  9
$PUCSNAME
  2

  9
$PUCSORG
 10
0.0
 20
0.0
 30
0.0
  9
$PUCSXDIR
 10
1.0
 20
0.0
 30
0.0
  9
$PUCSYDIR
 10
0.0
 20
1.0
 30
0.0
  9
$USERI1
 70
     0
  9
$USERI2
 70
     0
  9
$USERI3
 70
     0
  9
$USERI4
 70
     0
  9
$USERI5
 70
     0
  9
$USERR1
 40
0.0
  9
$USERR2
 40
0.0
  9
$USERR3
 40
0.0
  9
$USERR4
 40
0.0
  9
$USERR5
 40
0.0
  9
$WORLDVIEW
 70
     1
  9
$SHADEDGE
 70
     3
  9
$SHADEDIF
 70
    70
  9
$TILEMODE
 70
     1
  9
$MAXACTVP
 70
    16
  9
$PINSBASE
 10
0.0
 20
0.0
 30
0.0
  9
$PLIMCHECK
 70
     0
  9
$PEXTMIN
 10
1.000000000000000E+20
 20
1.000000000000000E+20
 30
1.000000000000000E+20
  9
$PEXTMAX
 10
-1.000000000000000E+20
 20
-1.000000000000000E+20
 30
-1.000000000000000E+20
  9
$PLIMMIN
 10
0.0
 20
0.0
  9
$PLIMMAX
 10
12.0
 20
9.0
  9
$UNITMODE
 70
     0
  9
$VISRETAIN
 70
     0
  9
$PLINEGEN
 70
     1
  9
$PSLTSCALE
 70
     0
  9
$TREEDEPTH
 70
  3020
  9
$PICKSTYLE
 70
     1
  9
$CMLSTYLE
  2
STANDARD
  9
$CMLJUST
 70
     0
  9
$CMLSCALE
 40
1.0
  9
$PROXYGRAPHICS
 70
     1
  9
$MEASUREMENT
 70
     0
  0
ENDSEC
  0
SECTION
  2
CLASSES
  0
CLASS
  1
LWPOLYLINE
  2
AcDbPolyline
  3
AutoCAD 2000
 90
        0
280
     0
281
     1
  0
CLASS
  1
ACDBDICTIONARYWDFLT
  2
AcDbDictionaryWithDefault
  3
AutoCAD 2000
 90
        0
280
     0
281
     0
  0
CLASS
  1
ACDBPLACEHOLDER
  2
AcDbPlaceHolder
  3
AutoCAD 2000
 90
        0
280
     0
281
     0
  0
CLASS
  1
LAYOUT
  2
AcDbLayout
  3
AutoCAD 2000
 90
        0
280
     0
281
     0
  0
CLASS
  1
DICTIONARYVAR
  2
AcDbDictionaryVar
  3
AutoCAD 2000
 90
        0
280
     0
281
     0
  0
CLASS
  1
LONG_TRANSACTION
  2
AcDbLongTransaction
  3
AutoCAD 2000
 90
        0
280
     0
281
     0
  0
CLASS
  1
LWPOLYLINE
  2
AcDbPolyline
  3
AutoCAD 2000
 90
        0
280
     0
281
     1
  0
CLASS
  1
HATCH
  2
AcDbHatch
  3
AutoCAD 2000
 90
        0
280
     0
281
     1
  0
CLASS
  1
XRECORD
  2
AcDbXrecord
  3
AutoCAD 2000
 90
        0
280
     0
281
     0
  0
ENDSEC
  0
SECTION
  2
TABLES
  0
TABLE
  2
VPORT
  5
7DE1B343D9E13B6
330
0
100
AcDbSymbolTable
 70
     2
  0
VPORT
  5
7DE1B343D9E13EA
330
7DE1B343D9E13B6
100
AcDbSymbolTableRecord
100
AcDbViewportTableRecord
  2
*ACTIVE
 70
     0
 10
0.0
 20
0.0
 11
1.0
 21
1.0
 12
5.23317916008572
 22
1.317077659206788
 13
0.0
 23
0.0
 14
0.015625
 24
0.015625
 15
0.0
 25
0.0
 16
0.0
 26
0.0
 36
1.0
 17
0.0
 27
0.0
 37
0.0
 40
2.571527532899954
 41
4.320930232558139
 42
50.0
 43
0.0
 44
0.0
 50
0.0
 51
0.0
 71
     0
 72
  2000
 73
     1
 74
     0
 75
     0
 76
     0
 77
     0
 78
     0
  0
ENDTAB
  0
TABLE
  2
LTYPE
  5
7DE1B343D9E13B3
330
0
100
AcDbSymbolTable
 70
     1
  0
LTYPE
  5
7DE1B343D9E13C0
330
7DE1B343D9E13B3
100
AcDbSymbolTableRecord
100
AcDbLinetypeTableRecord
  2
BYBLOCK
 70
     0
  3

 72
    65
 73
     0
 40
0.0
  0
LTYPE
  5
7DE1B343D9E13C1
330
7DE1B343D9E13B3
100
AcDbSymbolTableRecord
100
AcDbLinetypeTableRecord
  2
BYLAYER
 70
     0
  3

 72
    65
 73
     0
 40
0.0
  0
LTYPE
  5
7DE1B343D9E13C2
330
7DE1B343D9E13B3
100
AcDbSymbolTableRecord
100
AcDbLinetypeTableRecord
  2
CONTINUOUS
 70
     0
  3
Solid line
 72
    65
 73
     0
 40
0.0
  0
ENDTAB
  0
TABLE
  2
LAYER
  5
7DE1B343D9E13B0
330
0
100
AcDbSymbolTable
 70
     2
  0
LAYER
  5
7DE1B343D9E13BD
330
7DE1B343D9E13B0
100
AcDbSymbolTableRecord
100
AcDbLayerTableRecord
  2
0
 70
     0
 62
     7
  6
CONTINUOUS
  0
LAYER
  5
7DE1B343D9E13CD
330
7DE1B343D9E13B0
100
AcDbSymbolTableRecord
100
AcDbLayerTableRecord
  2
TEXT
 70
     0
 62
     3
  6
CONTINUOUS
  0
ENDTAB
  0
TABLE
  2
STYLE
  5
7DE1B343D9E13B1
330
0
100
AcDbSymbolTable
 70
     3
  0
STYLE
  5
7DE1B343D9E13BE
330
7DE1B343D9E13B1
100
AcDbSymbolTableRecord
100
AcDbTextStyleTableRecord
  2
STANDARD
 70
     0
 40
0.0
 41
1.0
 50
0.0
 71
     0
 42
0.3125
  3
txt
  4

  0
STYLE
  5
7DE1B343D9E13CA
330
7DE1B343D9E13B1
100
AcDbSymbolTableRecord
100
AcDbTextStyleTableRecord
  2
ITALICC
 70
     0
 40
0.0
 41
1.0
 50
0.0
 71
     0
 42
0.125
  3
italicc
  4

  0
STYLE
  5
7DE1B343D9E13DA
330
7DE1B343D9E13B1
100
AcDbSymbolTableRecord
100
AcDbTextStyleTableRecord
  2
ROMANS
 70
     0
 40
0.0
 41
1.0
 50
0.0
 71
     0
 42
0.125
  3
romans.shx
  4

  0
ENDTAB
  0
TABLE
  2
VIEW
  5
7DE1B343D9E13B4
330
0
100
AcDbSymbolTable
 70
     0
  0
ENDTAB
  0
TABLE
  2
UCS
  5
7DE1B343D9E13B5
330
0
100
AcDbSymbolTable
 70
     0
  0
ENDTAB
  0
TABLE
  2
APPID
  5
7DE1B343D9E13B7
330
0
100
AcDbSymbolTable
 70
     1
  0
APPID
  5
7DE1B343D9E13BF
330
7DE1B343D9E13B7
100
AcDbSymbolTableRecord
100
AcDbRegAppTableRecord
  2
ACAD
 70
     0
  0
ENDTAB
  0
TABLE
  2
DIMSTYLE
  5
7DE1B343D9E13B8
330
0
100
AcDbSymbolTable
 70
     1
  0
DIMSTYLE
105
7DE1B343D9E13D2
330
7DE1B343D9E13B8
100
AcDbSymbolTableRecord
100
AcDbDimStyleTableRecord
  2
STANDARD
 70
     0
  3

  4

  5

  6

  7

 40
1.0
 41
0.125
 42
0.125
 43
0.375
 44
0.125
 45
0.0
 46
0.0
 47
0.0
 48
0.0
140
0.125
141
-0.125
142
0.0
143
25.4
144
1.0
145
0.0
146
1.0
147
0.09
 71
     0
 72
     0
 73
     1
 74
     1
 75
     0
 76
     0
 77
     0
 78
     4
170
     0
171
     2
172
     0
173
     0
174
     1
175
     0
176
     0
177
     0
178
     0
270
     2
271
     3
272
     3
273
     2
274
     2
340
7DE1B343D9E13DA
275
     0
280
     0
281
     0
282
     0
283
     1
284
     4
285
     0
286
     0
287
     3
288
     0
  0
ENDTAB
  0
TABLE
  2
BLOCK_RECORD
  5
7DE1B343D9E13AF
330
0
100
AcDbSymbolTable
 70
     0
  0
BLOCK_RECORD
  5
7DE1B343D9E13C6
102
{ACAD_XDICTIONARY
360
7DE1B343D9E140D
102
}
330
7DE1B343D9E13AF
100
AcDbSymbolTableRecord
100
AcDbBlockTableRecord
  2
*MODEL_SPACE
  0
BLOCK_RECORD
  5
7DE1B343D9E13C3
102
{ACAD_XDICTIONARY
360
7DE1B343D9E140B
102
}
330
7DE1B343D9E13AF
100
AcDbSymbolTableRecord
100
AcDbBlockTableRecord
  2
*PAPER_SPACE
  0
ENDTAB
  0
ENDSEC
  0
SECTION
  2
BLOCKS
  0
BLOCK
  5
7DE1B343D9E13D0
330
7DE1B343D9E13C6
100
AcDbEntity
  8
0
100
AcDbBlockBegin
  2
*MODEL_SPACE
 70
     0
 10
0.0
 20
0.0
 30
0.0
  3
*MODEL_SPACE
  1

  0
ENDBLK
  5
7DE1B343D9E13D1
330
7DE1B343D9E13C6
100
AcDbEntity
  8
0
100
AcDbBlockEnd
  0
BLOCK
  5
7DE1B343D9E13CE
330
7DE1B343D9E13C3
100
AcDbEntity
 67
     1
  8
0
100
AcDbBlockBegin
  2
*PAPER_SPACE
 70
     0
 10
0.0
 20
0.0
 30
0.0
  3
*PAPER_SPACE
  1

  0
ENDBLK
  5
7DE1B343D9E13CF
330
7DE1B343D9E13C3
100
AcDbEntity
 67
     1
  8
0
100
AcDbBlockEnd
  0
ENDSEC
  0
SECTION
  2
ENTITIES
  0
LWPOLYLINE
  5
7DE1B343D9DFE08
330
7DE1B343D9E13C6
100
AcDbEntity
  8
0
100
AcDbPolyline
 90
       28
 70
     1
 43
0.0
 10
1.312373516851779
 20
1.268208202089652
 42
1.0
 10
1.279227886483659
 20
1.235062571721533
 10
1.527820114244555
 20
0.9864703439606376
 10
1.879382614244555
 20
0.9864703439606376
 42
1.0
 10
1.879382614244555
 20
1.033345343960637
 10
1.581061131239931
 20
1.033345343960637
 10
1.697558695657364
 20
1.314595343960637
 10
1.965320114244555
 20
1.314595343960637
 10
1.965320114244555
 20
1.377095343960637
 10
3.121570114244555
 20
1.377095343960637
 42
1.0
 10
3.121570114244555
 20
1.439595343960637
 10
2.787820114244555
 20
1.439595343960637
 10
2.777820114244555
 20
1.429595343960637
 10
2.767820114244555
 20
1.439595343960637
 10
1.902820114244555
 20
1.439595343960637
 10
1.902820114244555
 20
1.377095343960637
 10
1.689622287046545
 20
1.377095343960637
 10
1.538868657700595
 20
1.527848973306587
 10
1.583062831524754
 20
1.572043147130747
 10
0.9714154657983907
 20
2.183690512857111
 10
0.95727333017466
 20
2.183690512857111
 10
0.95727333017466
 20
2.197832648480841
 10
0.72127644195365
 20
2.433829536701852
 42
1.0
 10
0.6770822681294906
 20
2.389635362877692
 10
1.494674483876435
 20
1.572043147130746
 10
1.450480310052276
 20
1.527848973306588
 10
1.639816224875409
 20
1.338513058483455
 10
1.523318660457976
 20
1.057263058483455
  0
TEXT
  5
7DE1B343D9E1271
330
7DE1B343D9E13C6
100
AcDbEntity
  8
TEXT
100
AcDbText
 10
1.128121370572384
 20
0.6367653412261566
 30
0.0
 40
0.125
  1
PART #120066
  7
ITALICC
 72
     1
 11
1.881097561048575
 21
0.6367653412261566
 31
0.0
100
AcDbText
  0
TEXT
  5
7DE1B343D9E1272
330
7DE1B343D9E13C6
100
AcDbEntity
  8
TEXT
100
AcDbText
 10
2.294402719298895
 20
0.1898426985537814
 30
0.0
 40
0.0522247191011236
  1
Phone  1-800-328-2495
 41
1.272321428571429
 72
     5
 11
3.623335303568559
 21
0.1898426985537814
 31
0.0
100
AcDbText
  0
TEXT
  5
7DE1B343D9E1273
330
7DE1B343D9E13C6
100
AcDbEntity
  8
TEXT
100
AcDbText
 10
2.294402719298895
 20
0.469617979452658
 30
0.0
 40
0.0522247191011236
  1
Stylmark  Incorporated
 41
1.221428571428573
 72
     5
 11
3.623335303568559
 21
0.469617979452658
 31
0.0
100
AcDbText
  0
TEXT
  5
7DE1B343D9E1274
330
7DE1B343D9E13C6
100
AcDbEntity
  8
TEXT
100
AcDbText
 10
2.294402719298895
 20
0.3763595524863658
 30
0.0
 40
0.0522247191011236
  1
6536 Main St. N.E. * P.O. Box 32008
 41
0.8388932496075366
 72
     5
 11
3.623335303568559
 21
0.3763595524863658
 31
0.0
100
AcDbText
  0
TEXT
  5
7DE1B343D9E1275
330
7DE1B343D9E13C6
100
AcDbEntity
  8
TEXT
100
AcDbText
 10
2.294402719298895
 20
0.2831011255200736
 30
0.0
 40
0.0522247191011236
  1
Minneapolis, MN 55432-0008
 41
1.11444212721585
 72
     5
 11
3.623335303568559
 21
0.2831011255200736
 31
0.0
100
AcDbText
  0
LWPOLYLINE
  5
7DE1B343D9E1276
330
7DE1B343D9E13C6
100
AcDbEntity
  8
TEXT
100
AcDbPolyline
 90
        3
 70
     0
 43
0.0006660908203125
 10
0.1384490272315881
 20
0.3034874611912163
 10
0.1384490272315881
 20
0.1902520217380886
 10
0.2516844666847104
 20
0.1902520217380886
  0
LWPOLYLINE
  5
7DE1B343D9E127B
330
7DE1B343D9E13C6
100
AcDbEntity
  8
TEXT
100
AcDbPolyline
 90
        3
 70
     0
 43
0.0006660908203125
 10
0.1650926600440856
 20
0.3034874611912163
 10
0.1650926600440856
 20
0.2168956545505897
 10
0.2516844666847104
 20
0.2168956545505897
  0
LWPOLYLINE
  5
7DE1B343D9E1280
330
7DE1B343D9E13C6
100
AcDbEntity
  8
TEXT
100
AcDbPolyline
 90
        2
 70
     0
 43
0.0001332181640625
 10
0.2117190174659624
 20
0.3134788234959015
 10
0.1384490272315881
 20
0.3034874611912163
  0
LWPOLYLINE
  5
7DE1B343D9E1284
330
7DE1B343D9E13C6
100
AcDbEntity
  8
TEXT
100
AcDbPolyline
 90
        2
 70
     0
 43
0.0001332181640625
 10
0.1650926600440856
 20
0.3034874611912163
 10
0.225040833872213
 20
0.3134788234959015
  0
LWPOLYLINE
  5
7DE1B343D9E1288
330
7DE1B343D9E13C6
100
AcDbEntity
  8
TEXT
100
AcDbPolyline
 90
        2
 70
     0
 43
0.0001332181640625
 10
0.1650926600440856
 20
0.2168956545505897
 10
0.225040833872213
 20
0.2768438283787153
  0
LWPOLYLINE
  5
7DE1B343D9E128C
330
7DE1B343D9E13C6
100
AcDbEntity
  8
TEXT
100
AcDbPolyline
 90
        3
 70
     0
 43
0.0006660908203125
 10
0.2516844666847104
 20
0.456688349863092
 10
0.1384490272315881
 20
0.456688349863092
 10
0.1384490272315881
 20
0.3434529104099643
  0
LWPOLYLINE
  5
7DE1B343D9E1291
330
7DE1B343D9E13C6
100
AcDbEntity
  8
TEXT
100
AcDbPolyline
 90
        3
 70
     0
 43
0.0006660908203125
 10
0.2516844666847104
 20
0.4300447170505909
 10
0.1650926600440856
 20
0.4300447170505909
 10
0.1650926600440856
 20
0.3434529104099643
  0
LWPOLYLINE
  5
7DE1B343D9E1296
330
7DE1B343D9E13C6
100
AcDbEntity
  8
TEXT
100
AcDbPolyline
 90
        2
 70
     0
 43
0.0001332181640625
 10
0.1650926600440856
 20
0.4300447170505909
 10
0.2250408338722112
 20
0.3700965432224653
  0
LWPOLYLINE
  5
7DE1B343D9E129A
330
7DE1B343D9E13C6
100
AcDbEntity
  8
TEXT
100
AcDbPolyline
 90
        2
 70
     0
 43
0.0001332181640625
 10
0.1650926600440856
 20
0.3434529104099643
 10
0.2250408338722112
 20
0.3334615481052755
  0
LWPOLYLINE
  5
7DE1B343D9E129E
330
7DE1B343D9E13C6
100
AcDbEntity
  8
TEXT
100
AcDbPolyline
 90
        2
 70
     0
 43
0.0001332181640625
 10
0.1384490272315881
 20
0.3434529104099643
 10
0.2117190174659624
 20
0.3334615481052755
  0
LWPOLYLINE
  5
7DE1B343D9E12A2
330
7DE1B343D9E13C6
100
AcDbEntity
  8
TEXT
100
AcDbPolyline
 90
        2
 70
     0
 43
0.0006660908203125
 10
0.1650926600440856
 20
0.3034874611912163
 10
0.1384490272315881
 20
0.3034874611912163
  0
LWPOLYLINE
  5
7DE1B343D9E12A6
330
7DE1B343D9E13C6
100
AcDbEntity
  8
TEXT
100
AcDbPolyline
 90
        2
 70
     0
 43
0.0006660908203125
 10
0.1650926600440856
 20
0.3434529104099643
 10
0.1384490272315881
 20
0.3434529104099643
  0
LINE
  5
7DE1B343D9E12AA
330
7DE1B343D9E13C6
100
AcDbEntity
  8
TEXT
100
AcDbLine
 10
1.653639456358085
 20
0.392411655206323
 30
0.0
 11
1.546433182970796
 21
0.392411655206323
 31
0.0
  0
LINE
  5
7DE1B343D9E12AB
330
7DE1B343D9E13C6
100
AcDbEntity
  8
TEXT
100
AcDbLine
 10
1.682670354702564
 20
0.4566883498630884
 30
0.0
 11
1.547838445485504
 21
0.4566883498630884
 31
0.0
  0
ARC
  5
7DE1B343D9E12AC
330
7DE1B343D9E13C6
100
AcDbEntity
  8
TEXT
100
AcDbCircle
 10
1.607152541878821
 20
0.2874511006000721
 30
0.0
 40
0.0676855811441166
100
AcDbArc
 50
90.0
 51
153.7768192527749
  0
LWPOLYLINE
  5
7DE1B343D9E12AD
330
7DE1B343D9E13C6
100
AcDbEntity
  8
TEXT
100
AcDbPolyline
 90
        2
 70
     0
 43
0.0
 10
1.545400687515986
 20
0.2337062618250155
 42
0.2901071551932823
 10
1.588476620383621
 20
0.1902153168745774
 42
5.328517124445801
  0
ARC
  5
7DE1B343D9E12B1
330
7DE1B343D9E13C6
100
AcDbEntity
  8
TEXT
100
AcDbCircle
 10
0.9020211642073361
 20
0.2500077082126272
 30
0.0
 40
0.0601160179737537
100
AcDbArc
 50
180.0000000000003
 51
264.0521544866073
  0
LINE
  5
7DE1B343D9E12B2
330
7DE1B343D9E13C6
100
AcDbEntity
  8
TEXT
100
AcDbLine
 10
0.9055365198328839
 20
0.4910762674572266
 30
0.0
 11
0.8454939149888769
 21
0.4910762674572266
 31
0.0
  0
ARC
  5
7DE1B343D9E12B3
330
7DE1B343D9E13C6
100
AcDbEntity
  8
TEXT
100
AcDbCircle
 10
0.6697621620903656
 20
0.3746008904165866
 30
0.0
 40
0.0820874594465043
100
AcDbArc
 50
90.0
 51
270.0
  0
LWPOLYLINE
  5
7DE1B343D9E12B4
330
7DE1B343D9E13C6
100
AcDbEntity
  8
TEXT
100
AcDbPolyline
 90
        2
 70
     0
 43
0.0001332181640625
 10
0.261675828989401
 20
0.3834183596287123
 10
0.2516844666847104
 20
0.456688349863092
  0
LWPOLYLINE
  5
7DE1B343D9E12B8
330
7DE1B343D9E13C6
100
AcDbEntity
  8
TEXT
100
AcDbPolyline
 90
        2
 70
     0
 43
0.0001332181640625
 10
0.2516844666847104
 20
0.4300447170505909
 10
0.261675828989401
 20
0.3700965432224653
  0
LWPOLYLINE
  5
7DE1B343D9E12BC
330
7DE1B343D9E13C6
100
AcDbEntity
  8
TEXT
100
AcDbPolyline
 90
        3
 70
     0
 43
0.0006660908203125
 10
0.4048853553565879
 20
0.3434529104099643
 10
0.4048853553565879
 20
0.456688349863092
 10
0.291649915903462
 20
0.456688349863092
  0
LWPOLYLINE
  5
7DE1B343D9E12C1
330
7DE1B343D9E13C6
100
AcDbEntity
  8
TEXT
100
AcDbPolyline
 90
        3
 70
     0
 43
0.0006660908203125
 10
0.3782417225440868
 20
0.3434529104099643
 10
0.3782417225440868
 20
0.4300447170505909
 10
0.291649915903462
 20
0.4300447170505909
  0
LWPOLYLINE
  5
7DE1B343D9E12C6
330
7DE1B343D9E13C6
100
AcDbEntity
  8
TEXT
100
AcDbPolyline
 90
        2
 70
     0
 43
0.0001332181640625
 10
0.3782417225440868
 20
0.4300447170505909
 10
0.318293548715963
 20
0.3700965432224653
  0
LWPOLYLINE
  5
7DE1B343D9E12CA
330
7DE1B343D9E13C6
100
AcDbEntity
  8
TEXT
100
AcDbPolyline
 90
        2
 70
     0
 43
0.0001332181640625
 10
0.291649915903462
 20
0.4300447170505909
 10
0.2816585535987732
 20
0.3700965432224653
  0
LWPOLYLINE
  5
7DE1B343D9E12CE
330
7DE1B343D9E13C6
100
AcDbEntity
  8
TEXT
100
AcDbPolyline
 90
        2
 70
     0
 43
0.0001332181640625
 10
0.291649915903462
 20
0.456688349863092
 10
0.2816585535987732
 20
0.3834183596287123
  0
LWPOLYLINE
  5
7DE1B343D9E12D2
330
7DE1B343D9E13C6
100
AcDbEntity
  8
TEXT
100
AcDbPolyline
 90
        2
 70
     0
 43
0.0001332181640625
 10
0.3316153651222118
 20
0.3334615481052755
 10
0.4048853553565879
 20
0.3434529104099643
  0
LWPOLYLINE
  5
7DE1B343D9E12D6
330
7DE1B343D9E13C6
100
AcDbEntity
  8
TEXT
100
AcDbPolyline
 90
        2
 70
     0
 43
0.0001332181640625
 10
0.3782417225440868
 20
0.3434529104099643
 10
0.318293548715963
 20
0.3334615481052755
  0
LWPOLYLINE
  5
7DE1B343D9E12DA
330
7DE1B343D9E13C6
100
AcDbEntity
  8
TEXT
100
AcDbPolyline
 90
        2
 70
     0
 43
0.0001332181640625
 10
0.4048853553565879
 20
0.3034874611912163
 10
0.3316153651222118
 20
0.3134788234959015
  0
LWPOLYLINE
  5
7DE1B343D9E12DE
330
7DE1B343D9E13C6
100
AcDbEntity
  8
TEXT
100
AcDbPolyline
 90
        2
 70
     0
 43
0.0001332181640625
 10
0.3782417225440868
 20
0.3034874611912163
 10
0.318293548715963
 20
0.3134788234959015
  0
LWPOLYLINE
  5
7DE1B343D9E12E2
330
7DE1B343D9E13C6
100
AcDbEntity
  8
TEXT
100
AcDbPolyline
 90
        2
 70
     0
 43
0.0001332181640625
 10
0.3782417225440868
 20
0.2168956545505897
 10
0.318293548715963
 20
0.2768438283787153
  0
LWPOLYLINE
  5
7DE1B343D9E12E6
330
7DE1B343D9E13C6
100
AcDbEntity
  8
TEXT
100
AcDbPolyline
 90
        3
 70
     0
 43
0.0006660908203125
 10
0.291649915903462
 20
0.2168956545505897
 10
0.3782417225440868
 20
0.2168956545505897
 10
0.3782417225440868
 20
0.3034874611912163
  0
LWPOLYLINE
  5
7DE1B343D9E12EB
330
7DE1B343D9E13C6
100
AcDbEntity
  8
TEXT
100
AcDbPolyline
 90
        3
 70
     0
 43
0.0006660908203125
 10
0.291649915903462
 20
0.1902520217380886
 10
0.4048853553565879
 20
0.1902520217380886
 10
0.4048853553565879
 20
0.3034874611912163
  0
LWPOLYLINE
  5
7DE1B343D9E12F0
330
7DE1B343D9E13C6
100
AcDbEntity
  8
TEXT
100
AcDbPolyline
 90
        5
 70
     0
 43
0.0001332181640625
 10
0.261675828989401
 20
0.2635220119724647
 10
0.261675828989401
 20
0.2768438283787153
 10
0.225040833872213
 20
0.2768438283787153
 10
0.225040833872213
 20
0.3134788234959015
 10
0.2117190174659624
 20
0.3134788234959015
  0
LWPOLYLINE
  5
7DE1B343D9E12F7
330
7DE1B343D9E13C6
100
AcDbEntity
  8
TEXT
100
AcDbPolyline
 90
        2
 70
     0
 43
0.0006660908203125
 10
0.2516844666847104
 20
0.2168956545505897
 10
0.2516844666847104
 20
0.1902520217380886
  0
LWPOLYLINE
  5
7DE1B343D9E12FB
330
7DE1B343D9E13C6
100
AcDbEntity
  8
TEXT
100
AcDbPolyline
 90
        2
 70
     0
 43
0.0001332181640625
 10
0.2516844666847104
 20
0.2168956545505897
 10
0.261675828989401
 20
0.2768438283787153
  0
LWPOLYLINE
  5
7DE1B343D9E12FF
330
7DE1B343D9E13C6
100
AcDbEntity
  8
TEXT
100
AcDbPolyline
 90
        2
 70
     0
 43
0.0001332181640625
 10
0.2516844666847104
 20
0.1902520217380886
 10
0.261675828989401
 20
0.2635220119724647
  0
LWPOLYLINE
  5
7DE1B343D9E1303
330
7DE1B343D9E13C6
100
AcDbEntity
  8
TEXT
100
AcDbPolyline
 90
        5
 70
     0
 43
0.0001332181640625
 10
0.2117190174659624
 20
0.3334615481052755
 10
0.2250408338722112
 20
0.3334615481052755
 10
0.2250408338722112
 20
0.3700965432224653
 10
0.261675828989401
 20
0.3700965432224653
 10
0.261675828989401
 20
0.3834183596287123
  0
LWPOLYLINE
  5
7DE1B343D9E130A
330
7DE1B343D9E13C6
100
AcDbEntity
  8
TEXT
100
AcDbPolyline
 90
        5
 70
     0
 43
0.0001332181640625
 10
0.2816585535987732
 20
0.3834183596287123
 10
0.2816585535987732
 20
0.3700965432224653
 10
0.318293548715963
 20
0.3700965432224653
 10
0.318293548715963
 20
0.3334615481052755
 10
0.3316153651222118
 20
0.3334615481052755
  0
LWPOLYLINE
  5
7DE1B343D9E1311
330
7DE1B343D9E13C6
100
AcDbEntity
  8
TEXT
100
AcDbPolyline
 90
        2
 70
     0
 43
0.0001332181640625
 10
0.291649915903462
 20
0.2168956545505897
 10
0.2816585535987732
 20
0.2768438283787153
  0
LWPOLYLINE
  5
7DE1B343D9E1315
330
7DE1B343D9E13C6
100
AcDbEntity
  8
TEXT
100
AcDbPolyline
 90
        2
 70
     0
 43
0.0001332181640625
 10
0.2816585535987732
 20
0.2635220119724647
 10
0.291649915903462
 20
0.1902520217380886
  0
LWPOLYLINE
  5
7DE1B343D9E1319
330
7DE1B343D9E13C6
100
AcDbEntity
  8
TEXT
100
AcDbPolyline
 90
        2
 70
     0
 43
0.0006660908203125
 10
0.291649915903462
 20
0.2168956545505897
 10
0.291649915903462
 20
0.1902520217380886
  0
LWPOLYLINE
  5
7DE1B343D9E131D
330
7DE1B343D9E13C6
100
AcDbEntity
  8
TEXT
100
AcDbPolyline
 90
        5
 70
     0
 43
0.0001332181640625
 10
0.3316153651222118
 20
0.3134788234959015
 10
0.318293548715963
 20
0.3134788234959015
 10
0.318293548715963
 20
0.2768438283787153
 10
0.2816585535987732
 20
0.2768438283787153
 10
0.2816585535987732
 20
0.2635220119724647
  0
LWPOLYLINE
  5
7DE1B343D9E1324
330
7DE1B343D9E13C6
100
AcDbEntity
  8
TEXT
100
AcDbPolyline
 90
        2
 70
     0
 43
0.0006660908203125
 10
0.3782417225440868
 20
0.3434529104099643
 10
0.4048853553565879
 20
0.3434529104099643
  0
LWPOLYLINE
  5
7DE1B343D9E1328
330
7DE1B343D9E13C6
100
AcDbEntity
  8
TEXT
100
AcDbPolyline
 90
        2
 70
     0
 43
0.0006660908203125
 10
0.3782417225440868
 20
0.3034874611912163
 10
0.4048853553565879
 20
0.3034874611912163
  0
LINE
  5
7DE1B343D9E132C
330
7DE1B343D9E13C6
100
AcDbEntity
  8
TEXT
100
AcDbLine
 10
0.6749994922046128
 20
0.392411655206323
 30
0.0
 11
0.841905146233584
 21
0.392411655206323
 31
0.0
  0
LINE
  5
7DE1B343D9E132D
330
7DE1B343D9E13C6
100
AcDbEntity
  8
TEXT
100
AcDbLine
 10
0.7405996284489138
 20
0.3566069335956951
 30
0.0
 11
0.6749994922046128
 21
0.3566069335956951
 31
0.0
  0
LINE
  5
7DE1B343D9E132E
330
7DE1B343D9E13C6
100
AcDbEntity
  8
TEXT
100
AcDbLine
 10
0.5876747026438612
 20
0.1902153168745774
 30
0.0
 11
0.7405996284489138
 21
0.1902153168745774
 31
0.0
  0
LINE
  5
7DE1B343D9E132F
330
7DE1B343D9E13C6
100
AcDbEntity
  8
TEXT
100
AcDbLine
 10
0.7455400023551935
 20
0.2585723232080167
 30
0.0
 11
0.5876747026438594
 21
0.2585723232080167
 31
0.0
  0
LINE
  5
7DE1B343D9E1330
330
7DE1B343D9E13C6
100
AcDbEntity
  8
TEXT
100
AcDbLine
 10
0.6697621620903647
 20
0.2925134309700813
 30
0.0
 11
0.7455400023551935
 21
0.2925134309700813
 31
0.0
  0
ARC
  5
7DE1B343D9E1331
330
7DE1B343D9E13C6
100
AcDbEntity
  8
TEXT
100
AcDbCircle
 10
0.6749994922046137
 20
0.3745092944010108
 30
0.0
 40
0.017902360805315
100
AcDbArc
 50
90.0
 51
270.0
  0
LINE
  5
7DE1B343D9E1332
330
7DE1B343D9E13C6
100
AcDbEntity
  8
TEXT
100
AcDbLine
 10
0.5876747026438594
 20
0.2585723232080167
 30
0.0
 11
0.5876747026438612
 21
0.1902153168745774
 31
0.0
  0
LINE
  5
7DE1B343D9E1333
330
7DE1B343D9E13C6
100
AcDbEntity
  8
TEXT
100
AcDbLine
 10
0.841905146233584
 20
0.392411655206323
 30
0.0
 11
0.841905146233584
 21
0.2500077082126272
 31
0.0
  0
ARC
  5
7DE1B343D9E1334
330
7DE1B343D9E13C6
100
AcDbEntity
  8
TEXT
100
AcDbCircle
 10
0.7405996284489147
 20
0.2734111252351345
 30
0.0
 40
0.0831958083605586
100
AcDbArc
 50
270.0
 51
90.0
  0
ARC
  5
7DE1B343D9E1335
330
7DE1B343D9E13C6
100
AcDbEntity
  8
TEXT
100
AcDbCircle
 10
0.7455400023551944
 20
0.2755428770890508
 30
0.0
 40
0.0169705538810321
100
AcDbArc
 50
270.0
 51
90.0
  0
LWPOLYLINE
  5
7DE1B343D9E1336
330
7DE1B343D9E13C6
100
AcDbEntity
  8
TEXT
100
AcDbPolyline
 90
        2
 70
     0
 43
0.0006660908203125
 10
0.2516844666847104
 20
0.4300447170505909
 10
0.2516844666847104
 20
0.456688349863092
  0
LWPOLYLINE
  5
7DE1B343D9E133A
330
7DE1B343D9E13C6
100
AcDbEntity
  8
TEXT
100
AcDbPolyline
 90
        2
 70
     0
 43
0.0006660908203125
 10
0.291649915903462
 20
0.4300447170505909
 10
0.291649915903462
 20
0.456688349863092
  0
LINE
  5
7DE1B343D9E133E
330
7DE1B343D9E13C6
100
AcDbEntity
  8
TEXT
100
AcDbLine
 10
0.8454939149888769
 20
0.4566883498630884
 30
0.0
 11
0.6697621620903647
 21
0.4566883498630884
 31
0.0
  0
LINE
  5
7DE1B343D9E133F
330
7DE1B343D9E13C6
100
AcDbEntity
  8
TEXT
100
AcDbLine
 10
0.8454939149888769
 20
0.4910762674572266
 30
0.0
 11
0.8454939149888769
 21
0.4566883498630884
 31
0.0
  0
LINE
  5
7DE1B343D9E1340
330
7DE1B343D9E13C6
100
AcDbEntity
  8
TEXT
100
AcDbLine
 10
1.035965807008729
 20
0.3558163537499678
 30
0.0
 11
0.9773354859767913
 21
0.4566883498630884
 31
0.0
  0
LINE
  5
7DE1B343D9E1341
330
7DE1B343D9E13C6
100
AcDbEntity
  8
TEXT
100
AcDbLine
 10
1.094714369814594
 20
0.4566883498630884
 30
0.0
 11
1.035965807008729
 21
0.3558163537499678
 31
0.0
  0
LINE
  5
7DE1B343D9E1342
330
7DE1B343D9E13C6
100
AcDbEntity
  8
TEXT
100
AcDbLine
 10
1.191644995174335
 20
0.2726031549775766
 30
0.0
 11
1.191644995174335
 21
0.524699827601899
 31
0.0
  0
LINE
  5
7DE1B343D9E1343
330
7DE1B343D9E13C6
100
AcDbEntity
  8
TEXT
100
AcDbLine
 10
1.223956849311996
 20
0.4566883498630884
 30
0.0
 11
1.223956849311996
 21
0.2558241431306802
 31
0.0
  0
LINE
  5
7DE1B343D9E1344
330
7DE1B343D9E13C6
100
AcDbEntity
  8
TEXT
100
AcDbLine
 10
1.223956849311996
 20
0.2558241431306802
 30
0.0
 11
1.206963212427394
 21
0.2558241431306802
 31
0.0
  0
LINE
  5
7DE1B343D9E1345
330
7DE1B343D9E13C6
100
AcDbEntity
  8
TEXT
100
AcDbLine
 10
1.19278456867053
 20
0.1902153168745774
 30
0.0
 11
1.290787902369965
 21
0.1902153168745774
 31
0.0
  0
LINE
  5
7DE1B343D9E1346
330
7DE1B343D9E13C6
100
AcDbEntity
  8
TEXT
100
AcDbLine
 10
1.026365570011774
 20
0.2101738229795903
 30
0.0
 11
1.123665276105219
 21
0.3745240339148585
 31
0.0
  0
ARC
  5
7DE1B343D9E1347
330
7DE1B343D9E13C6
100
AcDbEntity
  8
TEXT
100
AcDbCircle
 10
0.9923220100995608
 20
0.2297630391482731
 30
0.0
 40
0.0392772371940762
100
AcDbArc
 50
270.1604552698595
 51
330.0831797321295
  0
LINE
  5
7DE1B343D9E1348
330
7DE1B343D9E13C6
100
AcDbEntity
  8
TEXT
100
AcDbLine
 10
0.8957917537136896
 20
0.1902153168745774
 30
0.0
 11
0.992432004788684
 21
0.1904859559728597
 31
0.0
  0
LWPOLYLINE
  5
7DE1B343D9E1349
330
7DE1B343D9E13C6
100
AcDbEntity
  8
TEXT
100
AcDbPolyline
 90
        6
 70
     1
 43
0.0
 10
0.9383155572888393
 20
0.392411655206323
 10
0.9079989630686311
 20
0.392411655206323
 10
0.9079989630686311
 20
0.2693006571514286
 42
0.407328721240804
 10
0.9195426142301075
 20
0.2574817424750425
 10
0.9801643132748383
 20
0.2574817424750425
 10
0.9976296536821562
 20
0.2902939715185217
  0
LINE
  5
7DE1B343D9E1351
330
7DE1B343D9E13C6
100
AcDbEntity
  8
TEXT
100
AcDbLine
 10
1.123665276105219
 20
0.3745240339148585
 30
0.0
 11
1.123665276105219
 21
0.2417666590895021
 31
0.0
  0
ARC
  5
7DE1B343D9E1352
330
7DE1B343D9E13C6
100
AcDbEntity
  8
TEXT
100
AcDbCircle
 10
1.206963212427393
 20
0.2712059493741056
 30
0.0
 40
0.0153818062434269
100
AcDbArc
 50
174.7883570302258
 51
270.0
  0
LWPOLYLINE
  5
7DE1B343D9E1353
330
7DE1B343D9E13C6
100
AcDbEntity
  8
TEXT
100
AcDbPolyline
 90
        2
 70
     0
 43
0.0
 10
1.123665276105217
 20
0.2417666590895057
 42
0.3318488747599744
 10
1.19278456867053
 20
0.1902153168745774
 42
-6.868794160588311
  0
LINE
  5
7DE1B343D9E1357
330
7DE1B343D9E13C6
100
AcDbEntity
  8
TEXT
100
AcDbLine
 10
1.348176971359226
 20
0.1902153168745774
 30
0.0
 11
1.415235018141066
 21
0.1902153168745774
 31
0.0
  0
LINE
  5
7DE1B343D9E1358
330
7DE1B343D9E13C6
100
AcDbEntity
  8
TEXT
100
AcDbLine
 10
1.348176971359226
 20
0.384857866040213
 30
0.0
 11
1.348176971359226
 21
0.1902153168745774
 31
0.0
  0
LINE
  5
7DE1B343D9E1359
330
7DE1B343D9E13C6
100
AcDbEntity
  8
TEXT
100
AcDbLine
 10
1.290787902369965
 20
0.392411655206323
 30
0.0
 11
1.340623182193112
 21
0.392411655206323
 31
0.0
  0
LINE
  5
7DE1B343D9E135A
330
7DE1B343D9E13C6
100
AcDbEntity
  8
TEXT
100
AcDbLine
 10
1.290787902369965
 20
0.1902153168745774
 30
0.0
 11
1.290787902369965
 21
0.392411655206323
 31
0.0
  0
LWPOLYLINE
  5
7DE1B343D9E135B
330
7DE1B343D9E13C6
100
AcDbEntity
  8
TEXT
100
AcDbPolyline
 90
        2
 70
     0
 43
0.0
 10
1.340623182193111
 20
0.392411655206323
 42
-0.4142135623731017
 10
1.348176971359224
 20
0.384857866040213
 42
-0.9999999999999998
  0
LINE
  5
7DE1B343D9E135F
330
7DE1B343D9E13C6
100
AcDbEntity
  8
TEXT
100
AcDbLine
 10
1.546433182970796
 20
0.392411655206323
 30
0.0
 11
1.546433182970796
 21
0.3173592491321163
 31
0.0
  0
LINE
  5
7DE1B343D9E1360
330
7DE1B343D9E13C6
100
AcDbEntity
  8
TEXT
100
AcDbLine
 10
1.415235018141066
 20
0.392411655206323
 30
0.0
 11
1.469368615062016
 21
0.392411655206323
 31
0.0
  0
LINE
  5
7DE1B343D9E1361
330
7DE1B343D9E13C6
100
AcDbEntity
  8
TEXT
100
AcDbLine
 10
1.415235018141066
 20
0.1902153168745774
 30
0.0
 11
1.415235018141066
 21
0.392411655206323
 31
0.0
  0
LWPOLYLINE
  5
7DE1B343D9E1362
330
7DE1B343D9E13C6
100
AcDbEntity
  8
TEXT
100
AcDbPolyline
 90
        2
 70
     0
 43
0.0
 10
1.469368615062014
 20
0.392411655206323
 42
-0.4142135623731017
 10
1.476922404228128
 20
0.384857866040213
 42
-0.9999999999999998
  0
LWPOLYLINE
  5
7DE1B343D9E1366
330
7DE1B343D9E13C6
100
AcDbEntity
  8
TEXT
100
AcDbPolyline
 90
        4
 70
     0
 43
0.0
 10
1.476922404228128
 20
0.384857866040213
 10
1.476922404228128
 20
0.1902153168745774
 10
1.545400687515986
 20
0.1902153168745774
 10
1.545400687515986
 20
0.2337062618250155
 42
-1.714843617202739
  0
LINE
  5
7DE1B343D9E136C
330
7DE1B343D9E13C6
100
AcDbEntity
  8
TEXT
100
AcDbLine
 10
0.9055365198328839
 20
0.4566883498630884
 30
0.0
 11
0.9055365198328839
 21
0.4910762674572266
 31
0.0
  0
LINE
  5
7DE1B343D9E136D
330
7DE1B343D9E13C6
100
AcDbEntity
  8
TEXT
100
AcDbLine
 10
0.9773354859767913
 20
0.4566883498630884
 30
0.0
 11
0.9055365198328839
 21
0.4566883498630884
 31
0.0
  0
LINE
  5
7DE1B343D9E136E
330
7DE1B343D9E13C6
100
AcDbEntity
  8
TEXT
100
AcDbLine
 10
1.12483628260797
 20
0.4566883498630884
 30
0.0
 11
1.094714369814594
 21
0.4566883498630884
 31
0.0
  0
LINE
  5
7DE1B343D9E136F
330
7DE1B343D9E13C6
100
AcDbEntity
  8
TEXT
100
AcDbLine
 10
1.12483628260797
 20
0.524699827601899
 30
0.0
 11
1.12483628260797
 21
0.4566883498630884
 31
0.0
  0
LINE
  5
7DE1B343D9E1370
330
7DE1B343D9E13C6
100
AcDbEntity
  8
TEXT
100
AcDbLine
 10
1.191644995174335
 20
0.524699827601899
 30
0.0
 11
1.12483628260797
 21
0.524699827601899
 31
0.0
  0
LWPOLYLINE
  5
7DE1B343D9E1371
330
7DE1B343D9E13C6
100
AcDbEntity
  8
TEXT
100
AcDbPolyline
 90
        3
 70
     0
 43
0.0
 10
1.512056754772338
 20
0.456688349863092
 10
1.393756595956293
 20
0.456688349863092
 10
1.393756595956293
 20
0.4295208531021961
 42
-1.960274751411753
  0
LINE
  5
7DE1B343D9E1376
330
7DE1B343D9E13C6
100
AcDbEntity
  8
TEXT
100
AcDbLine
 10
1.357974905243132
 20
0.4566883498630884
 30
0.0
 11
1.223956849311996
 21
0.4566883498630884
 31
0.0
  0
LWPOLYLINE
  5
7DE1B343D9E1377
330
7DE1B343D9E13C6
100
AcDbEntity
  8
TEXT
100
AcDbPolyline
 90
        2
 70
     0
 43
0.0
 10
1.357974905243132
 20
0.456688349863092
 42
-0.3328679258950098
 10
1.393756595956293
 20
0.4295208531021961
 42
6.772930709997214
  0
LINE
  5
7DE1B343D9E137B
330
7DE1B343D9E13C6
100
AcDbEntity
  8
TEXT
100
AcDbLine
 10
1.547838445485504
 20
0.4566883498630884
 30
0.0
 11
1.547838445485504
 21
0.4283658040934446
 31
0.0
  0
LWPOLYLINE
  5
7DE1B343D9E137C
330
7DE1B343D9E13C6
100
AcDbEntity
  8
TEXT
100
AcDbPolyline
 90
        2
 70
     0
 43
0.0
 10
1.512056754772338
 20
0.456688349863092
 42
-0.3277054968067132
 10
1.547838445485503
 20
0.4283658040934481
 42
6.667889725900311
  0
LINE
  5
7DE1B343D9E1380
330
7DE1B343D9E13C6
100
AcDbEntity
  8
TEXT
100
AcDbLine
 10
1.761630293577605
 20
0.351476371309661
 30
0.0
 11
1.717879522395703
 21
0.4337266473058063
 31
0.0
  0
LINE
  5
7DE1B343D9E1381
330
7DE1B343D9E13C6
100
AcDbEntity
  8
TEXT
100
AcDbLine
 10
1.761630293577605
 20
0.4566883498630884
 30
0.0
 11
1.761630293577605
 21
0.351476371309661
 31
0.0
  0
LINE
  5
7DE1B343D9E1382
330
7DE1B343D9E13C6
100
AcDbEntity
  8
TEXT
100
AcDbLine
 10
1.989314032515974
 20
0.3808230234515503
 30
0.0
 11
1.989314032515974
 21
0.5221525556306891
 31
0.0
  0
LINE
  5
7DE1B343D9E1383
330
7DE1B343D9E13C6
100
AcDbEntity
  8
TEXT
100
AcDbLine
 10
2.036412191071958
 20
0.4566883498630884
 30
0.0
 11
1.989314032515974
 21
0.3808230234515503
 31
0.0
  0
LINE
  5
7DE1B343D9E1384
330
7DE1B343D9E13C6
100
AcDbEntity
  8
TEXT
100
AcDbLine
 10
2.046846907835881
 20
0.3467951069221148
 30
0.0
 11
2.111404023801586
 21
0.4566883498630884
 31
0.0
  0
LINE
  5
7DE1B343D9E1385
330
7DE1B343D9E13C6
100
AcDbEntity
  8
TEXT
100
AcDbLine
 10
1.925479041293201
 20
0.1902153168745774
 30
0.0
 11
1.989857225611821
 21
0.1902153168745774
 31
0.0
  0
LWPOLYLINE
  5
7DE1B343D9E1386
330
7DE1B343D9E13C6
100
AcDbEntity
  8
TEXT
100
AcDbPolyline
 90
        2
 70
     0
 43
0.0
 10
1.765569970882642
 20
0.2337062618250155
 42
-0.2901071551932486
 10
1.722494038014998
 20
0.1902153168745774
 42
-5.328517124445184
  0
ARC
  5
7DE1B343D9E138A
330
7DE1B343D9E13C6
100
AcDbEntity
  8
TEXT
100
AcDbCircle
 10
1.653639456358083
 20
0.3640522802063256
 30
0.0
 40
0.028359375
100
AcDbArc
 50
25.78218179591245
 51
90.0
  0
LINE
  5
7DE1B343D9E138B
330
7DE1B343D9E13C6
100
AcDbEntity
  8
TEXT
100
AcDbLine
 10
1.689440531662206
 20
0.3551366817441907
 30
0.0
 11
1.679175771248642
 21
0.376387221316885
 31
0.0
  0
LINE
  5
7DE1B343D9E138C
330
7DE1B343D9E13C6
100
AcDbEntity
  8
TEXT
100
AcDbLine
 10
1.607152541878823
 20
0.3551366817441907
 30
0.0
 11
1.689440531662206
 21
0.3551366817441907
 31
0.0
  0
LWPOLYLINE
  5
7DE1B343D9E138D
330
7DE1B343D9E13C6
100
AcDbEntity
  8
TEXT
100
AcDbPolyline
 90
        4
 70
     1
 43
0.0
 10
1.702371572945105
 20
0.2931792948586026
 10
1.613711254285247
 20
0.2931792948586026
 42
0.9999999999999998
 10
1.613711254285247
 20
0.2507807543547419
 10
1.702371572945105
 20
0.2507807543547419
 42
1.0
  0
LWPOLYLINE
  5
7DE1B343D9E1393
330
7DE1B343D9E13C6
100
AcDbEntity
  8
TEXT
100
AcDbPolyline
 90
        2
 70
     0
 43
0.0
 10
1.588476620383621
 20
0.1902153168745774
 10
1.722494038014998
 20
0.1902153168745774
 42
0.9999999999999998
  0
LINE
  5
7DE1B343D9E1397
330
7DE1B343D9E13C6
100
AcDbEntity
  8
TEXT
100
AcDbLine
 10
1.848831060000637
 20
0.392411655206323
 30
0.0
 11
1.925479041293195
 21
0.392411655206323
 31
0.0
  0
LINE
  5
7DE1B343D9E1398
330
7DE1B343D9E13C6
100
AcDbEntity
  8
TEXT
100
AcDbLine
 10
1.925479041293195
 20
0.392411655206323
 30
0.0
 11
1.925479041293201
 21
0.1902153168745774
 31
0.0
  0
ARC
  5
7DE1B343D9E1399
330
7DE1B343D9E13C6
100
AcDbEntity
  8
TEXT
100
AcDbCircle
 10
1.848831060000636
 20
0.3675057799236602
 30
0.0
 40
0.0249058752826653
100
AcDbArc
 50
89.99971217465335
 51
179.9999999999985
  0
LINE
  5
7DE1B343D9E139A
330
7DE1B343D9E13C6
100
AcDbEntity
  8
TEXT
100
AcDbLine
 10
1.823925184717978
 20
0.1902153168745774
 30
0.0
 11
1.823925184717973
 21
0.3675058223060458
 31
0.0
  0
LWPOLYLINE
  5
7DE1B343D9E139B
330
7DE1B343D9E13C6
100
AcDbEntity
  8
TEXT
100
AcDbPolyline
 90
        2
 70
     0
 43
0.0
 10
1.765569970882642
 20
0.1902153168745774
 10
1.823925184717976
 20
0.1902153168745774
  0
LWPOLYLINE
  5
7DE1B343D9E139F
330
7DE1B343D9E13C6
100
AcDbEntity
  8
TEXT
100
AcDbPolyline
 90
        2
 70
     0
 43
0.0
 10
1.765569970882642
 20
0.2337062618250155
 10
1.765569970882642
 20
0.1902153168745774
  0
LINE
  5
7DE1B343D9E13A3
330
7DE1B343D9E13C6
100
AcDbEntity
  8
TEXT
100
AcDbLine
 10
2.142339131199491
 20
0.1902153168745774
 30
0.0
 11
2.046846907835881
 21
0.3467951069221148
 31
0.0
  0
LINE
  5
7DE1B343D9E13A4
330
7DE1B343D9E13C6
100
AcDbEntity
  8
TEXT
100
AcDbLine
 10
2.065760758823286
 20
0.1902153168745774
 30
0.0
 11
2.142339131199491
 21
0.1902153168745774
 31
0.0
  0
LINE
  5
7DE1B343D9E13A5
330
7DE1B343D9E13C6
100
AcDbEntity
  8
TEXT
100
AcDbLine
 10
1.989857225611821
 20
0.3217948853507576
 30
0.0
 11
2.065760758823286
 21
0.1902153168745774
 31
0.0
  0
LINE
  5
7DE1B343D9E13A6
330
7DE1B343D9E13C6
100
AcDbEntity
  8
TEXT
100
AcDbLine
 10
1.989857225611821
 20
0.1902153168745774
 30
0.0
 11
1.989857225611821
 21
0.3217948853507576
 31
0.0
  0
LINE
  5
7DE1B343D9E13A7
330
7DE1B343D9E13C6
100
AcDbEntity
  8
TEXT
100
AcDbLine
 10
1.989314032515974
 20
0.5221525556306891
 30
0.0
 11
1.9209991539667
 21
0.5221525556306891
 31
0.0
  0
ARC
  5
7DE1B343D9E13A8
330
7DE1B343D9E13C6
100
AcDbEntity
  8
TEXT
100
AcDbCircle
 10
1.680643414925494
 20
0.415104782742186
 30
0.0
 40
0.0416329381542859
100
AcDbArc
 50
26.56974201007528
 51
87.20939649401342
  0
LINE
  5
7DE1B343D9E13A9
330
7DE1B343D9E13C6
100
AcDbEntity
  8
TEXT
100
AcDbLine
 10
1.825527199877106
 20
0.4566883498630884
 30
0.0
 11
1.761630293577605
 21
0.4566883498630884
 31
0.0
  0
LINE
  5
7DE1B343D9E13AA
330
7DE1B343D9E13C6
100
AcDbEntity
  8
TEXT
100
AcDbLine
 10
1.825527199877106
 20
0.4291407000022138
 30
0.0
 11
1.825527199877106
 21
0.4566883498630884
 31
0.0
  0
ARC
  5
7DE1B343D9E13AB
330
7DE1B343D9E13C6
100
AcDbEntity
  8
TEXT
100
AcDbCircle
 10
1.856720016940213
 20
0.4254426225808236
 30
0.0
 40
0.0314112657011332
100
AcDbArc
 50
95.88484768694724
 51
173.2388340632136
  0
LINE
  5
7DE1B343D9E13AC
330
7DE1B343D9E13C6
100
AcDbEntity
  8
TEXT
100
AcDbLine
 10
1.920999153966695
 20
0.4566883498630884
 30
0.0
 11
1.853499436317179
 21
0.4566883498630884
 31
0.0
  0
LINE
  5
7DE1B343D9E13AD
330
7DE1B343D9E13C6
100
AcDbEntity
  8
TEXT
100
AcDbLine
 10
1.9209991539667
 20
0.5221525556306891
 30
0.0
 11
1.920999153966695
 21
0.4566883498630884
 31
0.0
  0
LINE
  5
7DE1B343D9E13AE
330
7DE1B343D9E13C6
100
AcDbEntity
  8
TEXT
100
AcDbLine
 10
2.111404023801586
 20
0.4566883498630884
 30
0.0
 11
2.03641219107196
 21
0.4566883498630884
 31
0.0
  0
ENDSEC
  0
SECTION
  2
OBJECTS
  0
DICTIONARY
  5
7DE1B343D9E13BA
330
0
100
AcDbDictionary
  3
ACAD_GROUP
350
7DE1B343D9E13BB
  3
ACAD_LAYOUT
350
7DE1B343D9E13E0
  3
ACAD_MLINESTYLE
350
7DE1B343D9E13BC
  3
ACAD_PLOTSETTINGS
350
7DE1B343D9E13E1
  3
ACAD_PLOTSTYLENAME
350
7DE1B343D9E13DE
  3
ACDBHEADERROUNDTRIPXREC
350
7DE1B343D9E13EB
  3
ACDBVARIABLEDICTIONARY
350
7DE1B343D9E13E8
  0
DICTIONARY
  5
7DE1B343D9E140D
330
7DE1B343D9E13C6
100
AcDbDictionary
280
     1
  3
ACAD_LAYOUTSELFREF
360
7DE1B343D9E140E
  0
DICTIONARY
  5
7DE1B343D9E140B
330
7DE1B343D9E13C3
100
AcDbDictionary
280
     1
  3
ACAD_LAYOUTSELFREF
360
7DE1B343D9E140C
  0
DICTIONARY
  5
7DE1B343D9E13BB
102
{ACAD_REACTORS
330
7DE1B343D9E13BA
102
}
330
7DE1B343D9E13BA
100
AcDbDictionary
  0
DICTIONARY
  5
7DE1B343D9E13E0
102
{ACAD_REACTORS
330
7DE1B343D9E13BA
102
}
330
7DE1B343D9E13BA
100
AcDbDictionary
  0
DICTIONARY
  5
7DE1B343D9E13BC
102
{ACAD_REACTORS
330
7DE1B343D9E13BA
102
}
330
7DE1B343D9E13BA
100
AcDbDictionary
  3
STANDARD
350
7DE1B343D9E13C9
  0
DICTIONARY
  5
7DE1B343D9E13E1
102
{ACAD_REACTORS
330
7DE1B343D9E13BA
102
}
330
7DE1B343D9E13BA
100
AcDbDictionary
  0
ACDBDICTIONARYWDFLT
  5
7DE1B343D9E13DE
102
{ACAD_REACTORS
330
7DE1B343D9E13BA
102
}
330
7DE1B343D9E13BA
100
AcDbDictionary
281
     1
  3
Normal
350
7DE1B343D9E13DF
100
AcDbDictionaryWithDefault
340
7DE1B343D9E13DF
  0
DICTIONARY
  5
7DE1B343D9E13EB
102
{ACAD_REACTORS
330
7DE1B343D9E13BA
102
}
330
7DE1B343D9E13BA
100
AcDbDictionary
  3
CEPSNTYPE
350
7DE1B343D9E13F5
  3
FINGERPRINTGUID
350
7DE1B343D9E13F6
  3
HYPERLINKBASE
350
7DE1B343D9E13EE
  3
INSUNITS
350
7DE1B343D9E13F4
  3
LAYOUTDICT
350
7DE1B343D9E13F0
  3
LWETCUNION
350
7DE1B343D9E13F3
  3
PLOTSETDICT
350
7DE1B343D9E13F1
  3
PLOTSTYLNAMDICT
350
7DE1B343D9E13F2
  3
PSVPSCALE
350
7DE1B343D9E13F8
  3
PUCSBASE
350
7DE1B343D9E13FB
  3
PUCSORGBACK
350
7DE1B343D9E1401
  3
PUCSORGBOTTOM
350
7DE1B343D9E13FD
  3
PUCSORGFRONT
350
7DE1B343D9E1400
  3
PUCSORGLEFT
350
7DE1B343D9E13FE
  3
PUCSORGRIGHT
350
7DE1B343D9E13FF
  3
PUCSORGTOP
350
7DE1B343D9E13FC
  3
PUCSORTHOREF
350
7DE1B343D9E13F9
  3
PUCSORTHOVIEW
350
7DE1B343D9E13FA
  3
STYLESHEET
350
7DE1B343D9E13EF
  3
TSTACKALIGN
350
7DE1B343D9E13EC
  3
TSTACKSIZE
350
7DE1B343D9E13ED
  3
UCSBASE
350
7DE1B343D9E1404
  3
UCSORGBACK
350
7DE1B343D9E140A
  3
UCSORGBOTTOM
350
7DE1B343D9E1406
  3
UCSORGFRONT
350
7DE1B343D9E1409
  3
UCSORGLEFT
350
7DE1B343D9E1407
  3
UCSORGRIGHT
350
7DE1B343D9E1408
  3
UCSORGTOP
350
7DE1B343D9E1405
  3
UCSORTHOREF
350
7DE1B343D9E1402
  3
UCSORTHOVIEW
350
7DE1B343D9E1403
  3
VERSIONGUID
350
7DE1B343D9E13F7
  0
DICTIONARY
  5
7DE1B343D9E13E8
102
{ACAD_REACTORS
330
7DE1B343D9E13BA
102
}
330
7DE1B343D9E13BA
100
AcDbDictionary
  3
DIMASSOC
350
7DE1B343D9E13E9
  0
XRECORD
  5
7DE1B343D9E140E
102
{ACAD_REACTORS
330
7DE1B343D9E140D
102
}
330
7DE1B343D9E140D
100
AcDbXrecord
340
7DE1B343D9E13C6
  0
XRECORD
  5
7DE1B343D9E140C
102
{ACAD_REACTORS
330
7DE1B343D9E140B
102
}
330
7DE1B343D9E140B
100
AcDbXrecord
340
7DE1B343D9E13C3
  0
MLINESTYLE
  5
7DE1B343D9E13C9
102
{ACAD_REACTORS
330
7DE1B343D9E13BC
102
}
330
7DE1B343D9E13BC
100
AcDbMlineStyle
  2
STANDARD
 70
     0
  3

 62
     0
 51
90.0
 52
90.0
 71
     2
 49
0.5
 62
   256
  6
BYLAYER
 49
-0.5
 62
   256
  6
BYLAYER
  0
ACDBPLACEHOLDER
  5
7DE1B343D9E13DF
102
{ACAD_REACTORS
330
7DE1B343D9E13DE
102
}
330
7DE1B343D9E13DE
100
AcDbPlaceHolder
280
     0
  0
XRECORD
  5
7DE1B343D9E13F5
102
{ACAD_REACTORS
330
7DE1B343D9E13EB
102
}
330
7DE1B343D9E13EB
100
AcDbXrecord
 90
        0
  0
XRECORD
  5
7DE1B343D9E13F6
102
{ACAD_REACTORS
330
7DE1B343D9E13EB
102
}
330
7DE1B343D9E13EB
100
AcDbXrecord
  1
{B2E748A0-8DB9-11D6-88E6-0090279574E7}
  0
XRECORD
  5
7DE1B343D9E13EE
102
{ACAD_REACTORS
330
7DE1B343D9E13EB
102
}
330
7DE1B343D9E13EB
100
AcDbXrecord
  1

  0
XRECORD
  5
7DE1B343D9E13F4
102
{ACAD_REACTORS
330
7DE1B343D9E13EB
102
}
330
7DE1B343D9E13EB
100
AcDbXrecord
 90
        0
  0
XRECORD
  5
7DE1B343D9E13F0
102
{ACAD_REACTORS
330
7DE1B343D9E13EB
102
}
330
7DE1B343D9E13EB
100
AcDbXrecord
340
7DE1B343D9E13E0
  0
XRECORD
  5
7DE1B343D9E13F3
102
{ACAD_REACTORS
330
7DE1B343D9E13EB
102
}
330
7DE1B343D9E13EB
100
AcDbXrecord
 90
    14877
  0
XRECORD
  5
7DE1B343D9E13F1
102
{ACAD_REACTORS
330
7DE1B343D9E13EB
102
}
330
7DE1B343D9E13EB
100
AcDbXrecord
340
7DE1B343D9E13E1
  0
XRECORD
  5
7DE1B343D9E13F2
102
{ACAD_REACTORS
330
7DE1B343D9E13EB
102
}
330
7DE1B343D9E13EB
100
AcDbXrecord
340
7DE1B343D9E13DE
  0
XRECORD
  5
7DE1B343D9E13F8
102
{ACAD_REACTORS
330
7DE1B343D9E13EB
102
}
330
7DE1B343D9E13EB
100
AcDbXrecord
 40
0.0
  0
XRECORD
  5
7DE1B343D9E13FB
102
{ACAD_REACTORS
330
7DE1B343D9E13EB
102
}
330
7DE1B343D9E13EB
100
AcDbXrecord
340
0
  0
XRECORD
  5
7DE1B343D9E1401
102
{ACAD_REACTORS
330
7DE1B343D9E13EB
102
}
330
7DE1B343D9E13EB
100
AcDbXrecord
 10
0.0
 20
0.0
 30
0.0
  0
XRECORD
  5
7DE1B343D9E13FD
102
{ACAD_REACTORS
330
7DE1B343D9E13EB
102
}
330
7DE1B343D9E13EB
100
AcDbXrecord
 10
0.0
 20
0.0
 30
0.0
  0
XRECORD
  5
7DE1B343D9E1400
102
{ACAD_REACTORS
330
7DE1B343D9E13EB
102
}
330
7DE1B343D9E13EB
100
AcDbXrecord
 10
0.0
 20
0.0
 30
0.0
  0
XRECORD
  5
7DE1B343D9E13FE
102
{ACAD_REACTORS
330
7DE1B343D9E13EB
102
}
330
7DE1B343D9E13EB
100
AcDbXrecord
 10
0.0
 20
0.0
 30
0.0
  0
XRECORD
  5
7DE1B343D9E13FF
102
{ACAD_REACTORS
330
7DE1B343D9E13EB
102
}
330
7DE1B343D9E13EB
100
AcDbXrecord
 10
0.0
 20
0.0
 30
0.0
  0
XRECORD
  5
7DE1B343D9E13FC
102
{ACAD_REACTORS
330
7DE1B343D9E13EB
102
}
330
7DE1B343D9E13EB
100
AcDbXrecord
 10
0.0
 20
0.0
 30
0.0
  0
XRECORD
  5
7DE1B343D9E13F9
102
{ACAD_REACTORS
330
7DE1B343D9E13EB
102
}
330
7DE1B343D9E13EB
100
AcDbXrecord
340
0
  0
XRECORD
  5
7DE1B343D9E13FA
102
{ACAD_REACTORS
330
7DE1B343D9E13EB
102
}
330
7DE1B343D9E13EB
100
AcDbXrecord
 70
     0
  0
XRECORD
  5
7DE1B343D9E13EF
102
{ACAD_REACTORS
330
7DE1B343D9E13EB
102
}
330
7DE1B343D9E13EB
100
AcDbXrecord
  1

  0
XRECORD
  5
7DE1B343D9E13EC
102
{ACAD_REACTORS
330
7DE1B343D9E13EB
102
}
330
7DE1B343D9E13EB
100
AcDbXrecord
 90
        1
  0
XRECORD
  5
7DE1B343D9E13ED
102
{ACAD_REACTORS
330
7DE1B343D9E13EB
102
}
330
7DE1B343D9E13EB
100
AcDbXrecord
 90
       70
  0
XRECORD
  5
7DE1B343D9E1404
102
{ACAD_REACTORS
330
7DE1B343D9E13EB
102
}
330
7DE1B343D9E13EB
100
AcDbXrecord
340
0
  0
XRECORD
  5
7DE1B343D9E140A
102
{ACAD_REACTORS
330
7DE1B343D9E13EB
102
}
330
7DE1B343D9E13EB
100
AcDbXrecord
 10
0.0
 20
0.0
 30
0.0
  0
XRECORD
  5
7DE1B343D9E1406
102
{ACAD_REACTORS
330
7DE1B343D9E13EB
102
}
330
7DE1B343D9E13EB
100
AcDbXrecord
 10
0.0
 20
0.0
 30
0.0
  0
XRECORD
  5
7DE1B343D9E1409
102
{ACAD_REACTORS
330
7DE1B343D9E13EB
102
}
330
7DE1B343D9E13EB
100
AcDbXrecord
 10
0.0
 20
0.0
 30
0.0
  0
XRECORD
  5
7DE1B343D9E1407
102
{ACAD_REACTORS
330
7DE1B343D9E13EB
102
}
330
7DE1B343D9E13EB
100
AcDbXrecord
 10
0.0
 20
0.0
 30
0.0
  0
XRECORD
  5
7DE1B343D9E1408
102
{ACAD_REACTORS
330
7DE1B343D9E13EB
102
}
330
7DE1B343D9E13EB
100
AcDbXrecord
 10
0.0
 20
0.0
 30
0.0
  0
XRECORD
  5
7DE1B343D9E1405
102
{ACAD_REACTORS
330
7DE1B343D9E13EB
102
}
330
7DE1B343D9E13EB
100
AcDbXrecord
 10
0.0
 20
0.0
 30
0.0
  0
XRECORD
  5
7DE1B343D9E1402
102
{ACAD_REACTORS
330
7DE1B343D9E13EB
102
}
330
7DE1B343D9E13EB
100
AcDbXrecord
340
0
  0
XRECORD
  5
7DE1B343D9E1403
102
{ACAD_REACTORS
330
7DE1B343D9E13EB
102
}
330
7DE1B343D9E13EB
100
AcDbXrecord
 70
     0
  0
XRECORD
  5
7DE1B343D9E13F7
102
{ACAD_REACTORS
330
7DE1B343D9E13EB
102
}
330
7DE1B343D9E13EB
100
AcDbXrecord
  1
{B2E748A2-8DB9-11D6-88E6-0090279574E7}
  0
DICTIONARYVAR
  5
7DE1B343D9E13E9
102
{ACAD_REACTORS
330
7DE1B343D9E13E8
102
}
330
7DE1B343D9E13E8
100
DictionaryVariables
280
     0
  1
1
  0
ENDSEC
  0
EOF
