  0
SECTION
  2
HEADER
  9
$ACADVER
  1
AC1014
  9
$ACADMAINTVER
 70
     9
  9
$DWGCODEPAGE
  3
ANSI_1252
  9
$INSBASE
 10
1.354420736753533
 20
1.067557749282473
 30
0.0
  9
$EXTMIN
 10
0.2478720698916903
 20
-0.1442060391084137
 30
0.0
  9
$EXTMAX
 10
3.733091391638818
 20
2.630057749282473
 30
0.0
  9
$LIMMIN
 10
0.0
 20
0.0
  9
$LIMMAX
 10
18.0
 20
12.0
  9
$ORTHOMODE
 70
     1
  9
$REGENMODE
 70
     1
  9
$FILLMODE
 70
     1
  9
$QTEXTMODE
 70
     0
  9
$MIRRTEXT
 70
     0
  9
$DRAGMODE
 70
     2
  9
$LTSCALE
 40
1.0
  9
$OSMODE
 70
    39
  9
$ATTMODE
 70
     1
  9
$TEXTSIZE
 40
0.125
  9
$TRACEWID
 40
0.05
  9
$TEXTSTYLE
  7
ROMANS
  9
$CLAYER
  8
0
  9
$CELTYPE
  6
BYLAYER
  9
$CECOLOR
 62
   256
  9
$CELTSCALE
 40
1.0
  9
$DELOBJ
 70
     1
  9
$DISPSILH
 70
     1
  9
$DIMSCALE
 40
1.0
  9
$DIMASZ
 40
0.125
  9
$DIMEXO
 40
0.125
  9
$DIMDLI
 40
0.375
  9
$DIMRND
 40
0.0
  9
$DIMDLE
 40
0.0
  9
$DIMEXE
 40
0.125
  9
$DIMTP
 40
0.0
  9
$DIMTM
 40
0.0
  9
$DIMTXT
 40
0.125
  9
$DIMCEN
 40
-0.125
  9
$DIMTSZ
 40
0.0
  9
$DIMTOL
 70
     0
  9
$DIMLIM
 70
     0
  9
$DIMTIH
 70
     1
  9
$DIMTOH
 70
     1
  9
$DIMSE1
 70
     0
  9
$DIMSE2
 70
     0
  9
$DIMTAD
 70
     0
  9
$DIMZIN
 70
     4
  9
$DIMBLK
  1

  9
$DIMASO
 70
     1
  9
$DIMSHO
 70
     1
  9
$DIMPOST
  1

  9
$DIMAPOST
  1

  9
$DIMALT
 70
     0
  9
$DIMALTD
 70
     2
  9
$DIMALTF
 40
25.4
  9
$DIMLFAC
 40
1.0
  9
$DIMTOFL
 70
     0
  9
$DIMTVP
 40
0.0
  9
$DIMTIX
 70
     1
  9
$DIMSOXD
 70
     0
  9
$DIMSAH
 70
     0
  9
$DIMBLK1
  1

  9
$DIMBLK2
  1

  9
$DIMSTYLE
  2
STANDARD
  9
$DIMCLRD
 70
     0
  9
$DIMCLRE
 70
     0
  9
$DIMCLRT
 70
     0
  9
$DIMTFAC
 40
1.0
  9
$DIMGAP
 40
0.09
  9
$DIMJUST
 70
     0
  9
$DIMSD1
 70
     0
  9
$DIMSD2
 70
     0
  9
$DIMTOLJ
 70
     1
  9
$DIMTZIN
 70
     4
  9
$DIMALTZ
 70
     0
  9
$DIMALTTZ
 70
     0
  9
$DIMFIT
 70
     3
  9
$DIMUPT
 70
     0
  9
$DIMUNIT
 70
     2
  9
$DIMDEC
 70
     3
  9
$DIMTDEC
 70
     3
  9
$DIMALTU
 70
     2
  9
$DIMALTTD
 70
     2
  9
$DIMTXSTY
  7
ROMANS
  9
$DIMAUNIT
 70
     0
  9
$LUNITS
 70
     2
  9
$LUPREC
 70
     3
  9
$SKETCHINC
 40
0.1
  9
$FILLETRAD
 40
0.03125
  9
$AUNITS
 70
     0
  9
$AUPREC
 70
     0
  9
$MENU
  1
ACAD
  9
$ELEVATION
 40
0.0
  9
$PELEVATION
 40
0.0
  9
$THICKNESS
 40
0.0
  9
$LIMCHECK
 70
     0
  9
$BLIPMODE
 70
     0
  9
$CHAMFERA
 40
0.0
  9
$CHAMFERB
 40
0.0
  9
$CHAMFERC
 40
0.0
  9
$CHAMFERD
 40
0.0
  9
$SKPOLY
 70
     0
  9
$TDCREATE
 40
2448994.693324999
  9
$TDUPDATE
 40
2452458.323740601
  9
$TDINDWG
 40
0.0004400116
  9
$TDUSRTIMER
 40
0.0004400116
  9
$USRTIMER
 70
     1
  9
$ANGBASE
 50
0.0
  9
$ANGDIR
 70
     0
  9
$PDMODE
 70
     0
  9
$PDSIZE
 40
0.0
  9
$PLINEWID
 40
0.0
  9
$COORDS
 70
     2
  9
$SPLFRAME
 70
     0
  9
$SPLINETYPE
 70
     6
  9
$SPLINESEGS
 70
     8
  9
$ATTDIA
 70
     0
  9
$ATTREQ
 70
     1
  9
$HANDLING
 70
 22529
  9
$HANDSEED
  5
7DE1B343D9E0FEA
  9
$SURFTAB1
 70
     6
  9
$SURFTAB2
 70
     6
  9
$SURFTYPE
 70
     6
  9
$SURFU
 70
     6
  9
$SURFV
 70
     6
  9
$UCSNAME
  2

  9
$UCSORG
 10
0.0
 20
0.0
 30
0.0
  9
$UCSXDIR
 10
1.0
 20
0.0
 30
0.0
  9
$UCSYDIR
 10
0.0
 20
1.0
 30
0.0
  9
$PUCSNAME
  2

  9
$PUCSORG
 10
0.0
 20
0.0
 30
0.0
  9
$PUCSXDIR
 10
1.0
 20
0.0
 30
0.0
  9
$PUCSYDIR
 10
0.0
 20
1.0
 30
0.0
  9
$USERI1
 70
     0
  9
$USERI2
 70
     0
  9
$USERI3
 70
     0
  9
$USERI4
 70
     0
  9
$USERI5
 70
     0
  9
$USERR1
 40
0.0
  9
$USERR2
 40
0.0
  9
$USERR3
 40
0.0
  9
$USERR4
 40
0.0
  9
$USERR5
 40
0.0
  9
$WORLDVIEW
 70
     1
  9
$SHADEDGE
 70
     3
  9
$SHADEDIF
 70
    70
  9
$TILEMODE
 70
     1
  9
$MAXACTVP
 70
    16
  9
$PINSBASE
 10
0.441774993353966
 20
50.00000000000001
 30
0.6798780538267041
  9
$PLIMCHECK
 70
     0
  9
$PEXTMIN
 10
1.000000000000000E+20
 20
1.000000000000000E+20
 30
1.000000000000000E+20
  9
$PEXTMAX
 10
-1.000000000000000E+20
 20
-1.000000000000000E+20
 30
-1.000000000000000E+20
  9
$PLIMMIN
 10
0.0
 20
0.0
  9
$PLIMMAX
 10
12.0
 20
9.0
  9
$UNITMODE
 70
     0
  9
$VISRETAIN
 70
     0
  9
$PLINEGEN
 70
     1
  9
$PSLTSCALE
 70
     0
  9
$TREEDEPTH
 70
  3020
  9
$PICKSTYLE
 70
     1
  9
$CMLSTYLE
  2
STANDARD
  9
$CMLJUST
 70
     0
  9
$CMLSCALE
 40
1.0
  9
$PROXYGRAPHICS
 70
     1
  9
$MEASUREMENT
 70
     0
  0
ENDSEC
  0
SECTION
  2
CLASSES
  0
CLASS
  1
LWPOLYLINE
  2
AcDbPolyline
  3
AutoCAD 2000
 90
        0
280
     0
281
     1
  0
CLASS
  1
ACDBDICTIONARYWDFLT
  2
AcDbDictionaryWithDefault
  3
AutoCAD 2000
 90
        0
280
     0
281
     0
  0
CLASS
  1
ACDBPLACEHOLDER
  2
AcDbPlaceHolder
  3
AutoCAD 2000
 90
        0
280
     0
281
     0
  0
CLASS
  1
LAYOUT
  2
AcDbLayout
  3
AutoCAD 2000
 90
        0
280
     0
281
     0
  0
CLASS
  1
DICTIONARYVAR
  2
AcDbDictionaryVar
  3
AutoCAD 2000
 90
        0
280
     0
281
     0
  0
CLASS
  1
LONG_TRANSACTION
  2
AcDbLongTransaction
  3
AutoCAD 2000
 90
        0
280
     0
281
     0
  0
CLASS
  1
LWPOLYLINE
  2
AcDbPolyline
  3
AutoCAD 2000
 90
        0
280
     0
281
     1
  0
CLASS
  1
HATCH
  2
AcDbHatch
  3
AutoCAD 2000
 90
        0
280
     0
281
     1
  0
CLASS
  1
XRECORD
  2
AcDbXrecord
  3
AutoCAD 2000
 90
        0
280
     0
281
     0
  0
ENDSEC
  0
SECTION
  2
TABLES
  0
TABLE
  2
VPORT
  5
7DE1B343D9E0F91
330
0
100
AcDbSymbolTable
 70
     2
  0
VPORT
  5
7DE1B343D9E0FC5
330
7DE1B343D9E0F91
100
AcDbSymbolTableRecord
100
AcDbViewportTableRecord
  2
*ACTIVE
 70
     0
 10
0.0
 20
0.0
 11
1.0
 21
1.0
 12
6.074816448087909
 22
1.242901135595078
 13
0.0
 23
0.0
 14
0.015625
 24
0.015625
 15
0.0
 25
0.0
 16
0.0
 26
0.0
 36
1.0
 17
0.0
 27
0.0
 37
0.0
 40
3.132748354785031
 41
4.320930232558139
 42
50.0
 43
0.0
 44
0.0
 50
0.0
 51
0.0
 71
     0
 72
  2000
 73
     1
 74
     0
 75
     0
 76
     0
 77
     0
 78
     0
  0
ENDTAB
  0
TABLE
  2
LTYPE
  5
7DE1B343D9E0F8E
330
0
100
AcDbSymbolTable
 70
     1
  0
LTYPE
  5
7DE1B343D9E0F9B
330
7DE1B343D9E0F8E
100
AcDbSymbolTableRecord
100
AcDbLinetypeTableRecord
  2
BYBLOCK
 70
     0
  3

 72
    65
 73
     0
 40
0.0
  0
LTYPE
  5
7DE1B343D9E0F9C
330
7DE1B343D9E0F8E
100
AcDbSymbolTableRecord
100
AcDbLinetypeTableRecord
  2
BYLAYER
 70
     0
  3

 72
    65
 73
     0
 40
0.0
  0
LTYPE
  5
7DE1B343D9E0F9D
330
7DE1B343D9E0F8E
100
AcDbSymbolTableRecord
100
AcDbLinetypeTableRecord
  2
CONTINUOUS
 70
     0
  3
Solid line
 72
    65
 73
     0
 40
0.0
  0
ENDTAB
  0
TABLE
  2
LAYER
  5
7DE1B343D9E0F8B
330
0
100
AcDbSymbolTable
 70
     2
  0
LAYER
  5
7DE1B343D9E0F98
330
7DE1B343D9E0F8B
100
AcDbSymbolTableRecord
100
AcDbLayerTableRecord
  2
0
 70
     0
 62
     7
  6
CONTINUOUS
  0
LAYER
  5
7DE1B343D9E0FA8
330
7DE1B343D9E0F8B
100
AcDbSymbolTableRecord
100
AcDbLayerTableRecord
  2
TEXT
 70
     0
 62
     3
  6
CONTINUOUS
  0
ENDTAB
  0
TABLE
  2
STYLE
  5
7DE1B343D9E0F8C
330
0
100
AcDbSymbolTable
 70
     3
  0
STYLE
  5
7DE1B343D9E0F99
330
7DE1B343D9E0F8C
100
AcDbSymbolTableRecord
100
AcDbTextStyleTableRecord
  2
STANDARD
 70
     0
 40
0.0
 41
1.0
 50
0.0
 71
     0
 42
0.3125
  3
txt
  4

  0
STYLE
  5
7DE1B343D9E0FA5
330
7DE1B343D9E0F8C
100
AcDbSymbolTableRecord
100
AcDbTextStyleTableRecord
  2
ITALICC
 70
     0
 40
0.0
 41
1.0
 50
0.0
 71
     0
 42
0.125
  3
italicc
  4

  0
STYLE
  5
7DE1B343D9E0FB5
330
7DE1B343D9E0F8C
100
AcDbSymbolTableRecord
100
AcDbTextStyleTableRecord
  2
ROMANS
 70
     0
 40
0.0
 41
1.0
 50
0.0
 71
     0
 42
0.125
  3
romans.shx
  4

  0
ENDTAB
  0
TABLE
  2
VIEW
  5
7DE1B343D9E0F8F
330
0
100
AcDbSymbolTable
 70
     0
  0
ENDTAB
  0
TABLE
  2
UCS
  5
7DE1B343D9E0F90
330
0
100
AcDbSymbolTable
 70
     0
  0
ENDTAB
  0
TABLE
  2
APPID
  5
7DE1B343D9E0F92
330
0
100
AcDbSymbolTable
 70
     1
  0
APPID
  5
7DE1B343D9E0F9A
330
7DE1B343D9E0F92
100
AcDbSymbolTableRecord
100
AcDbRegAppTableRecord
  2
ACAD
 70
     0
  0
ENDTAB
  0
TABLE
  2
DIMSTYLE
  5
7DE1B343D9E0F93
330
0
100
AcDbSymbolTable
 70
     1
  0
DIMSTYLE
105
7DE1B343D9E0FAD
330
7DE1B343D9E0F93
100
AcDbSymbolTableRecord
100
AcDbDimStyleTableRecord
  2
STANDARD
 70
     0
  3

  4

  5

  6

  7

 40
1.0
 41
0.125
 42
0.125
 43
0.375
 44
0.125
 45
0.0
 46
0.0
 47
0.0
 48
0.0
140
0.125
141
-0.125
142
0.0
143
25.4
144
1.0
145
0.0
146
1.0
147
0.09
 71
     0
 72
     0
 73
     1
 74
     1
 75
     0
 76
     0
 77
     0
 78
     4
170
     0
171
     2
172
     0
173
     0
174
     1
175
     0
176
     0
177
     0
178
     0
270
     2
271
     3
272
     3
273
     2
274
     2
340
7DE1B343D9E0FB5
275
     0
280
     0
281
     0
282
     0
283
     1
284
     4
285
     0
286
     0
287
     3
288
     0
  0
ENDTAB
  0
TABLE
  2
BLOCK_RECORD
  5
7DE1B343D9E0F8A
330
0
100
AcDbSymbolTable
 70
     0
  0
BLOCK_RECORD
  5
7DE1B343D9E0FA1
102
{ACAD_XDICTIONARY
360
7DE1B343D9E0FE8
102
}
330
7DE1B343D9E0F8A
100
AcDbSymbolTableRecord
100
AcDbBlockTableRecord
  2
*MODEL_SPACE
  0
BLOCK_RECORD
  5
7DE1B343D9E0F9E
102
{ACAD_XDICTIONARY
360
7DE1B343D9E0FE6
102
}
330
7DE1B343D9E0F8A
100
AcDbSymbolTableRecord
100
AcDbBlockTableRecord
  2
*PAPER_SPACE
  0
ENDTAB
  0
ENDSEC
  0
SECTION
  2
BLOCKS
  0
BLOCK
  5
7DE1B343D9E0FAB
330
7DE1B343D9E0FA1
100
AcDbEntity
  8
0
100
AcDbBlockBegin
  2
*MODEL_SPACE
 70
     0
 10
0.0
 20
0.0
 30
0.0
  3
*MODEL_SPACE
  1

  0
ENDBLK
  5
7DE1B343D9E0FAC
330
7DE1B343D9E0FA1
100
AcDbEntity
  8
0
100
AcDbBlockEnd
  0
BLOCK
  5
7DE1B343D9E0FA9
330
7DE1B343D9E0F9E
100
AcDbEntity
 67
     1
  8
0
100
AcDbBlockBegin
  2
*PAPER_SPACE
 70
     0
 10
0.0
 20
0.0
 30
0.0
  3
*PAPER_SPACE
  1

  0
ENDBLK
  5
7DE1B343D9E0FAA
330
7DE1B343D9E0F9E
100
AcDbEntity
 67
     1
  8
0
100
AcDbBlockEnd
  0
ENDSEC
  0
SECTION
  2
ENTITIES
  0
LWPOLYLINE
  5
7DE1B343D9DF9E2
330
7DE1B343D9E0FA1
100
AcDbEntity
  8
0
100
AcDbPolyline
 90
       33
 70
     1
 43
0.0
 10
1.416920736753533
 20
2.598807749282473
 42
1.0
 10
1.354420736753533
 20
2.598807749282473
 10
1.354420736753533
 20
1.442557749282473
 10
1.323170736753533
 20
1.442557749282473
 42
0.4142135623730951
 10
1.291920736753533
 20
1.411307749282473
 10
1.291920736753533
 20
1.049251923106633
 10
1.010670736753533
 20
0.7680019231066331
 10
1.010670736753533
 20
1.255057749282473
 42
1.0
 10
0.9481707367535333
 20
1.255057749282473
 10
0.9481707367535333
 20
0.692557749282474
 42
0.4142135623730951
 10
0.9794207367535333
 20
0.661307749282474
 10
1.541920736753533
 20
0.661307749282474
 42
1.0
 10
1.541920736753533
 20
0.723807749282474
 10
1.054864910577692
 20
0.723807749282474
 10
1.336114910577693
 20
1.005057749282473
 10
1.698170736753533
 20
1.005057749282473
 42
0.4142135623730951
 10
1.729420736753533
 20
1.036307749282473
 10
1.729420736753533
 20
1.067557749282473
 10
2.885670736753533
 20
1.067557749282473
 42
1.0
 10
2.885670736753533
 20
1.130057749282473
 10
2.551920736753533
 20
1.130057749282473
 10
2.541920736753533
 20
1.120057749282473
 10
2.531920736753533
 20
1.130057749282473
 10
1.698170736753533
 20
1.130057749282473
 42
0.4142135623730951
 10
1.666920736753533
 20
1.098807749282473
 10
1.666920736753533
 20
1.067557749282473
 10
1.354420736753533
 20
1.067557749282473
 10
1.354420736753533
 20
1.380057749282473
 10
1.385670736753533
 20
1.380057749282473
 42
0.4142135623730951
 10
1.416920736753533
 20
1.411307749282473
 10
1.416920736753533
 20
2.245057749282473
 10
1.406920736753533
 20
2.255057749282473
 10
1.416920736753533
 20
2.265057749282473
  0
TEXT
  5
7DE1B343D9E0E4C
330
7DE1B343D9E0FA1
100
AcDbEntity
  8
TEXT
100
AcDbText
 10
1.234901268166452
 20
0.3138125649741678
 30
0.0
 40
0.125
  1
PART #120065
  7
ITALICC
 72
     1
 11
1.990853649118833
 21
0.3138125649741678
 31
0.0
100
AcDbText
  0
TEXT
  5
7DE1B343D9E0E4D
330
7DE1B343D9E0FA1
100
AcDbEntity
  8
TEXT
100
AcDbText
 10
2.404158807369154
 20
-0.1331100776982073
 30
0.0
 40
0.0522247191011236
  1
Phone  1-800-328-2495
 41
1.272321428571429
 72
     5
 11
3.733091391638818
 21
-0.1331100776982073
 31
0.0
100
AcDbText
  0
TEXT
  5
7DE1B343D9E0E4E
330
7DE1B343D9E0FA1
100
AcDbEntity
  8
TEXT
100
AcDbText
 10
2.404158807369154
 20
0.1466652032006692
 30
0.0
 40
0.0522247191011236
  1
Stylmark  Incorporated
 41
1.221428571428573
 72
     5
 11
3.733091391638818
 21
0.1466652032006692
 31
0.0
100
AcDbText
  0
TEXT
  5
7DE1B343D9E0E4F
330
7DE1B343D9E0FA1
100
AcDbEntity
  8
TEXT
100
AcDbText
 10
2.404158807369154
 20
0.053406776234377
 30
0.0
 40
0.0522247191011236
  1
6536 Main St. N.E. * P.O. Box 32008
 41
0.8388932496075366
 72
     5
 11
3.733091391638818
 21
0.053406776234377
 31
0.0
100
AcDbText
  0
TEXT
  5
7DE1B343D9E0E50
330
7DE1B343D9E0FA1
100
AcDbEntity
  8
TEXT
100
AcDbText
 10
2.404158807369154
 20
-0.0398516507319152
 30
0.0
 40
0.0522247191011236
  1
Minneapolis, MN 55432-0008
 41
1.11444212721585
 72
     5
 11
3.733091391638818
 21
-0.0398516507319152
 31
0.0
100
AcDbText
  0
LWPOLYLINE
  5
7DE1B343D9E0E51
330
7DE1B343D9E0FA1
100
AcDbEntity
  8
TEXT
100
AcDbPolyline
 90
        3
 70
     0
 43
0.0006660908203125
 10
0.2482051153018465
 20
-0.0194653150607725
 10
0.2482051153018465
 20
-0.1327007545139001
 10
0.3614405547549688
 20
-0.1327007545139001
  0
LWPOLYLINE
  5
7DE1B343D9E0E56
330
7DE1B343D9E0FA1
100
AcDbEntity
  8
TEXT
100
AcDbPolyline
 90
        3
 70
     0
 43
0.0006660908203125
 10
0.274848748114344
 20
-0.0194653150607725
 10
0.274848748114344
 20
-0.1060571217013991
 10
0.3614405547549688
 20
-0.1060571217013991
  0
LWPOLYLINE
  5
7DE1B343D9E0E5B
330
7DE1B343D9E0FA1
100
AcDbEntity
  8
TEXT
100
AcDbPolyline
 90
        2
 70
     0
 43
0.0001332181640625
 10
0.3214751055362208
 20
-0.0094739527560873
 10
0.2482051153018465
 20
-0.0194653150607725
  0
LWPOLYLINE
  5
7DE1B343D9E0E5F
330
7DE1B343D9E0FA1
100
AcDbEntity
  8
TEXT
100
AcDbPolyline
 90
        2
 70
     0
 43
0.0001332181640625
 10
0.274848748114344
 20
-0.0194653150607725
 10
0.3347969219424713
 20
-0.0094739527560873
  0
LWPOLYLINE
  5
7DE1B343D9E0E63
330
7DE1B343D9E0FA1
100
AcDbEntity
  8
TEXT
100
AcDbPolyline
 90
        2
 70
     0
 43
0.0001332181640625
 10
0.274848748114344
 20
-0.1060571217013991
 10
0.3347969219424713
 20
-0.0461089478732735
  0
LWPOLYLINE
  5
7DE1B343D9E0E67
330
7DE1B343D9E0FA1
100
AcDbEntity
  8
TEXT
100
AcDbPolyline
 90
        3
 70
     0
 43
0.0006660908203125
 10
0.3614405547549688
 20
0.1337355736111032
 10
0.2482051153018465
 20
0.1337355736111032
 10
0.2482051153018465
 20
0.0205001341579755
  0
LWPOLYLINE
  5
7DE1B343D9E0E6C
330
7DE1B343D9E0FA1
100
AcDbEntity
  8
TEXT
100
AcDbPolyline
 90
        3
 70
     0
 43
0.0006660908203125
 10
0.3614405547549688
 20
0.1070919407986021
 10
0.274848748114344
 20
0.1070919407986021
 10
0.274848748114344
 20
0.0205001341579755
  0
LWPOLYLINE
  5
7DE1B343D9E0E71
330
7DE1B343D9E0FA1
100
AcDbEntity
  8
TEXT
100
AcDbPolyline
 90
        2
 70
     0
 43
0.0001332181640625
 10
0.274848748114344
 20
0.1070919407986021
 10
0.3347969219424696
 20
0.0471437669704766
  0
LWPOLYLINE
  5
7DE1B343D9E0E75
330
7DE1B343D9E0FA1
100
AcDbEntity
  8
TEXT
100
AcDbPolyline
 90
        2
 70
     0
 43
0.0001332181640625
 10
0.274848748114344
 20
0.0205001341579755
 10
0.3347969219424696
 20
0.0105087718532868
  0
LWPOLYLINE
  5
7DE1B343D9E0E79
330
7DE1B343D9E0FA1
100
AcDbEntity
  8
TEXT
100
AcDbPolyline
 90
        2
 70
     0
 43
0.0001332181640625
 10
0.2482051153018465
 20
0.0205001341579755
 10
0.3214751055362208
 20
0.0105087718532868
  0
LWPOLYLINE
  5
7DE1B343D9E0E7D
330
7DE1B343D9E0FA1
100
AcDbEntity
  8
TEXT
100
AcDbPolyline
 90
        2
 70
     0
 43
0.0006660908203125
 10
0.274848748114344
 20
-0.0194653150607725
 10
0.2482051153018465
 20
-0.0194653150607725
  0
LWPOLYLINE
  5
7DE1B343D9E0E81
330
7DE1B343D9E0FA1
100
AcDbEntity
  8
TEXT
100
AcDbPolyline
 90
        2
 70
     0
 43
0.0006660908203125
 10
0.274848748114344
 20
0.0205001341579755
 10
0.2482051153018465
 20
0.0205001341579755
  0
LINE
  5
7DE1B343D9E0E85
330
7DE1B343D9E0FA1
100
AcDbEntity
  8
TEXT
100
AcDbLine
 10
1.763395544428344
 20
0.0694588789543342
 30
0.0
 11
1.656189271041054
 21
0.0694588789543342
 31
0.0
  0
LINE
  5
7DE1B343D9E0E86
330
7DE1B343D9E0FA1
100
AcDbEntity
  8
TEXT
100
AcDbLine
 10
1.792426442772822
 20
0.1337355736110996
 30
0.0
 11
1.657594533555763
 21
0.1337355736110996
 31
0.0
  0
ARC
  5
7DE1B343D9E0E87
330
7DE1B343D9E0FA1
100
AcDbEntity
  8
TEXT
100
AcDbCircle
 10
1.71690862994908
 20
-0.0355016756519167
 30
0.0
 40
0.0676855811441166
100
AcDbArc
 50
90.0
 51
153.7768192527749
  0
LWPOLYLINE
  5
7DE1B343D9E0E88
330
7DE1B343D9E0FA1
100
AcDbEntity
  8
TEXT
100
AcDbPolyline
 90
        2
 70
     0
 43
0.0
 10
1.655156775586244
 20
-0.0892465144269733
 42
0.2901071551932823
 10
1.69823270845388
 20
-0.1327374593774114
 42
5.328517124445801
  0
ARC
  5
7DE1B343D9E0E8C
330
7DE1B343D9E0FA1
100
AcDbEntity
  8
TEXT
100
AcDbCircle
 10
1.011777252277594
 20
-0.0729450680393616
 30
0.0
 40
0.0601160179737537
100
AcDbArc
 50
180.0000000000003
 51
264.0521544866073
  0
LINE
  5
7DE1B343D9E0E8D
330
7DE1B343D9E0FA1
100
AcDbEntity
  8
TEXT
100
AcDbLine
 10
1.015292607903142
 20
0.1681234912052378
 30
0.0
 11
0.9552500030591353
 21
0.1681234912052378
 31
0.0
  0
ARC
  5
7DE1B343D9E0E8E
330
7DE1B343D9E0FA1
100
AcDbEntity
  8
TEXT
100
AcDbCircle
 10
0.779518250160624
 20
0.0516481141645979
 30
0.0
 40
0.0820874594465043
100
AcDbArc
 50
90.0
 51
270.0
  0
LWPOLYLINE
  5
7DE1B343D9E0E8F
330
7DE1B343D9E0FA1
100
AcDbEntity
  8
TEXT
100
AcDbPolyline
 90
        2
 70
     0
 43
0.0001332181640625
 10
0.3714319170596594
 20
0.0604655833767235
 10
0.3614405547549688
 20
0.1337355736111032
  0
LWPOLYLINE
  5
7DE1B343D9E0E93
330
7DE1B343D9E0FA1
100
AcDbEntity
  8
TEXT
100
AcDbPolyline
 90
        2
 70
     0
 43
0.0001332181640625
 10
0.3614405547549688
 20
0.1070919407986021
 10
0.3714319170596594
 20
0.0471437669704766
  0
LWPOLYLINE
  5
7DE1B343D9E0E97
330
7DE1B343D9E0FA1
100
AcDbEntity
  8
TEXT
100
AcDbPolyline
 90
        3
 70
     0
 43
0.0006660908203125
 10
0.5146414434268463
 20
0.0205001341579755
 10
0.5146414434268463
 20
0.1337355736111032
 10
0.4014060039737205
 20
0.1337355736111032
  0
LWPOLYLINE
  5
7DE1B343D9E0E9C
330
7DE1B343D9E0FA1
100
AcDbEntity
  8
TEXT
100
AcDbPolyline
 90
        3
 70
     0
 43
0.0006660908203125
 10
0.4879978106143453
 20
0.0205001341579755
 10
0.4879978106143453
 20
0.1070919407986021
 10
0.4014060039737205
 20
0.1070919407986021
  0
LWPOLYLINE
  5
7DE1B343D9E0EA1
330
7DE1B343D9E0FA1
100
AcDbEntity
  8
TEXT
100
AcDbPolyline
 90
        2
 70
     0
 43
0.0001332181640625
 10
0.4879978106143453
 20
0.1070919407986021
 10
0.4280496367862215
 20
0.0471437669704766
  0
LWPOLYLINE
  5
7DE1B343D9E0EA5
330
7DE1B343D9E0FA1
100
AcDbEntity
  8
TEXT
100
AcDbPolyline
 90
        2
 70
     0
 43
0.0001332181640625
 10
0.4014060039737205
 20
0.1070919407986021
 10
0.3914146416690316
 20
0.0471437669704766
  0
LWPOLYLINE
  5
7DE1B343D9E0EA9
330
7DE1B343D9E0FA1
100
AcDbEntity
  8
TEXT
100
AcDbPolyline
 90
        2
 70
     0
 43
0.0001332181640625
 10
0.4014060039737205
 20
0.1337355736111032
 10
0.3914146416690316
 20
0.0604655833767235
  0
LWPOLYLINE
  5
7DE1B343D9E0EAD
330
7DE1B343D9E0FA1
100
AcDbEntity
  8
TEXT
100
AcDbPolyline
 90
        2
 70
     0
 43
0.0001332181640625
 10
0.4413714531924703
 20
0.0105087718532868
 10
0.5146414434268463
 20
0.0205001341579755
  0
LWPOLYLINE
  5
7DE1B343D9E0EB1
330
7DE1B343D9E0FA1
100
AcDbEntity
  8
TEXT
100
AcDbPolyline
 90
        2
 70
     0
 43
0.0001332181640625
 10
0.4879978106143453
 20
0.0205001341579755
 10
0.4280496367862215
 20
0.0105087718532868
  0
LWPOLYLINE
  5
7DE1B343D9E0EB5
330
7DE1B343D9E0FA1
100
AcDbEntity
  8
TEXT
100
AcDbPolyline
 90
        2
 70
     0
 43
0.0001332181640625
 10
0.5146414434268463
 20
-0.0194653150607725
 10
0.4413714531924703
 20
-0.0094739527560873
  0
LWPOLYLINE
  5
7DE1B343D9E0EB9
330
7DE1B343D9E0FA1
100
AcDbEntity
  8
TEXT
100
AcDbPolyline
 90
        2
 70
     0
 43
0.0001332181640625
 10
0.4879978106143453
 20
-0.0194653150607725
 10
0.4280496367862215
 20
-0.0094739527560873
  0
LWPOLYLINE
  5
7DE1B343D9E0EBD
330
7DE1B343D9E0FA1
100
AcDbEntity
  8
TEXT
100
AcDbPolyline
 90
        2
 70
     0
 43
0.0001332181640625
 10
0.4879978106143453
 20
-0.1060571217013991
 10
0.4280496367862215
 20
-0.0461089478732735
  0
LWPOLYLINE
  5
7DE1B343D9E0EC1
330
7DE1B343D9E0FA1
100
AcDbEntity
  8
TEXT
100
AcDbPolyline
 90
        3
 70
     0
 43
0.0006660908203125
 10
0.4014060039737205
 20
-0.1060571217013991
 10
0.4879978106143453
 20
-0.1060571217013991
 10
0.4879978106143453
 20
-0.0194653150607725
  0
LWPOLYLINE
  5
7DE1B343D9E0EC6
330
7DE1B343D9E0FA1
100
AcDbEntity
  8
TEXT
100
AcDbPolyline
 90
        3
 70
     0
 43
0.0006660908203125
 10
0.4014060039737205
 20
-0.1327007545139001
 10
0.5146414434268463
 20
-0.1327007545139001
 10
0.5146414434268463
 20
-0.0194653150607725
  0
LWPOLYLINE
  5
7DE1B343D9E0ECB
330
7DE1B343D9E0FA1
100
AcDbEntity
  8
TEXT
100
AcDbPolyline
 90
        5
 70
     0
 43
0.0001332181640625
 10
0.3714319170596594
 20
-0.059430764279524
 10
0.3714319170596594
 20
-0.0461089478732735
 10
0.3347969219424713
 20
-0.0461089478732735
 10
0.3347969219424713
 20
-0.0094739527560873
 10
0.3214751055362208
 20
-0.0094739527560873
  0
LWPOLYLINE
  5
7DE1B343D9E0ED2
330
7DE1B343D9E0FA1
100
AcDbEntity
  8
TEXT
100
AcDbPolyline
 90
        2
 70
     0
 43
0.0006660908203125
 10
0.3614405547549688
 20
-0.1060571217013991
 10
0.3614405547549688
 20
-0.1327007545139001
  0
LWPOLYLINE
  5
7DE1B343D9E0ED6
330
7DE1B343D9E0FA1
100
AcDbEntity
  8
TEXT
100
AcDbPolyline
 90
        2
 70
     0
 43
0.0001332181640625
 10
0.3614405547549688
 20
-0.1060571217013991
 10
0.3714319170596594
 20
-0.0461089478732735
  0
LWPOLYLINE
  5
7DE1B343D9E0EDA
330
7DE1B343D9E0FA1
100
AcDbEntity
  8
TEXT
100
AcDbPolyline
 90
        2
 70
     0
 43
0.0001332181640625
 10
0.3614405547549688
 20
-0.1327007545139001
 10
0.3714319170596594
 20
-0.059430764279524
  0
LWPOLYLINE
  5
7DE1B343D9E0EDE
330
7DE1B343D9E0FA1
100
AcDbEntity
  8
TEXT
100
AcDbPolyline
 90
        5
 70
     0
 43
0.0001332181640625
 10
0.3214751055362208
 20
0.0105087718532868
 10
0.3347969219424696
 20
0.0105087718532868
 10
0.3347969219424696
 20
0.0471437669704766
 10
0.3714319170596594
 20
0.0471437669704766
 10
0.3714319170596594
 20
0.0604655833767235
  0
LWPOLYLINE
  5
7DE1B343D9E0EE5
330
7DE1B343D9E0FA1
100
AcDbEntity
  8
TEXT
100
AcDbPolyline
 90
        5
 70
     0
 43
0.0001332181640625
 10
0.3914146416690316
 20
0.0604655833767235
 10
0.3914146416690316
 20
0.0471437669704766
 10
0.4280496367862215
 20
0.0471437669704766
 10
0.4280496367862215
 20
0.0105087718532868
 10
0.4413714531924703
 20
0.0105087718532868
  0
LWPOLYLINE
  5
7DE1B343D9E0EEC
330
7DE1B343D9E0FA1
100
AcDbEntity
  8
TEXT
100
AcDbPolyline
 90
        2
 70
     0
 43
0.0001332181640625
 10
0.4014060039737205
 20
-0.1060571217013991
 10
0.3914146416690316
 20
-0.0461089478732735
  0
LWPOLYLINE
  5
7DE1B343D9E0EF0
330
7DE1B343D9E0FA1
100
AcDbEntity
  8
TEXT
100
AcDbPolyline
 90
        2
 70
     0
 43
0.0001332181640625
 10
0.3914146416690316
 20
-0.059430764279524
 10
0.4014060039737205
 20
-0.1327007545139001
  0
LWPOLYLINE
  5
7DE1B343D9E0EF4
330
7DE1B343D9E0FA1
100
AcDbEntity
  8
TEXT
100
AcDbPolyline
 90
        2
 70
     0
 43
0.0006660908203125
 10
0.4014060039737205
 20
-0.1060571217013991
 10
0.4014060039737205
 20
-0.1327007545139001
  0
LWPOLYLINE
  5
7DE1B343D9E0EF8
330
7DE1B343D9E0FA1
100
AcDbEntity
  8
TEXT
100
AcDbPolyline
 90
        5
 70
     0
 43
0.0001332181640625
 10
0.4413714531924703
 20
-0.0094739527560873
 10
0.4280496367862215
 20
-0.0094739527560873
 10
0.4280496367862215
 20
-0.0461089478732735
 10
0.3914146416690316
 20
-0.0461089478732735
 10
0.3914146416690316
 20
-0.059430764279524
  0
LWPOLYLINE
  5
7DE1B343D9E0EFF
330
7DE1B343D9E0FA1
100
AcDbEntity
  8
TEXT
100
AcDbPolyline
 90
        2
 70
     0
 43
0.0006660908203125
 10
0.4879978106143453
 20
0.0205001341579755
 10
0.5146414434268463
 20
0.0205001341579755
  0
LWPOLYLINE
  5
7DE1B343D9E0F03
330
7DE1B343D9E0FA1
100
AcDbEntity
  8
TEXT
100
AcDbPolyline
 90
        2
 70
     0
 43
0.0006660908203125
 10
0.4879978106143453
 20
-0.0194653150607725
 10
0.5146414434268463
 20
-0.0194653150607725
  0
LINE
  5
7DE1B343D9E0F07
330
7DE1B343D9E0FA1
100
AcDbEntity
  8
TEXT
100
AcDbLine
 10
0.7847555802748712
 20
0.0694588789543342
 30
0.0
 11
0.9516612343038424
 21
0.0694588789543342
 31
0.0
  0
LINE
  5
7DE1B343D9E0F08
330
7DE1B343D9E0FA1
100
AcDbEntity
  8
TEXT
100
AcDbLine
 10
0.8503557165191722
 20
0.0336541573437063
 30
0.0
 11
0.7847555802748712
 21
0.0336541573437063
 31
0.0
  0
LINE
  5
7DE1B343D9E0F09
330
7DE1B343D9E0FA1
100
AcDbEntity
  8
TEXT
100
AcDbLine
 10
0.6974307907141196
 20
-0.1327374593774114
 30
0.0
 11
0.8503557165191722
 21
-0.1327374593774114
 31
0.0
  0
LINE
  5
7DE1B343D9E0F0A
330
7DE1B343D9E0FA1
100
AcDbEntity
  8
TEXT
100
AcDbLine
 10
0.8552960904254518
 20
-0.0643804530439721
 30
0.0
 11
0.6974307907141178
 21
-0.0643804530439721
 31
0.0
  0
LINE
  5
7DE1B343D9E0F0B
330
7DE1B343D9E0FA1
100
AcDbEntity
  8
TEXT
100
AcDbLine
 10
0.7795182501606231
 20
-0.0304393452819075
 30
0.0
 11
0.8552960904254518
 21
-0.0304393452819075
 31
0.0
  0
ARC
  5
7DE1B343D9E0F0C
330
7DE1B343D9E0FA1
100
AcDbEntity
  8
TEXT
100
AcDbCircle
 10
0.7847555802748721
 20
0.051556518149022
 30
0.0
 40
0.017902360805315
100
AcDbArc
 50
90.0
 51
270.0
  0
LINE
  5
7DE1B343D9E0F0D
330
7DE1B343D9E0FA1
100
AcDbEntity
  8
TEXT
100
AcDbLine
 10
0.6974307907141178
 20
-0.0643804530439721
 30
0.0
 11
0.6974307907141196
 21
-0.1327374593774114
 31
0.0
  0
LINE
  5
7DE1B343D9E0F0E
330
7DE1B343D9E0FA1
100
AcDbEntity
  8
TEXT
100
AcDbLine
 10
0.9516612343038424
 20
0.0694588789543342
 30
0.0
 11
0.9516612343038424
 21
-0.0729450680393616
 31
0.0
  0
ARC
  5
7DE1B343D9E0F0F
330
7DE1B343D9E0FA1
100
AcDbEntity
  8
TEXT
100
AcDbCircle
 10
0.8503557165191731
 20
-0.0495416510168543
 30
0.0
 40
0.0831958083605586
100
AcDbArc
 50
270.0
 51
90.0
  0
ARC
  5
7DE1B343D9E0F10
330
7DE1B343D9E0FA1
100
AcDbEntity
  8
TEXT
100
AcDbCircle
 10
0.8552960904254527
 20
-0.047409899162938
 30
0.0
 40
0.0169705538810321
100
AcDbArc
 50
270.0
 51
90.0
  0
LWPOLYLINE
  5
7DE1B343D9E0F11
330
7DE1B343D9E0FA1
100
AcDbEntity
  8
TEXT
100
AcDbPolyline
 90
        2
 70
     0
 43
0.0006660908203125
 10
0.3614405547549688
 20
0.1070919407986021
 10
0.3614405547549688
 20
0.1337355736111032
  0
LWPOLYLINE
  5
7DE1B343D9E0F15
330
7DE1B343D9E0FA1
100
AcDbEntity
  8
TEXT
100
AcDbPolyline
 90
        2
 70
     0
 43
0.0006660908203125
 10
0.4014060039737205
 20
0.1070919407986021
 10
0.4014060039737205
 20
0.1337355736111032
  0
LINE
  5
7DE1B343D9E0F19
330
7DE1B343D9E0FA1
100
AcDbEntity
  8
TEXT
100
AcDbLine
 10
0.9552500030591353
 20
0.1337355736110996
 30
0.0
 11
0.7795182501606231
 21
0.1337355736110996
 31
0.0
  0
LINE
  5
7DE1B343D9E0F1A
330
7DE1B343D9E0FA1
100
AcDbEntity
  8
TEXT
100
AcDbLine
 10
0.9552500030591353
 20
0.1681234912052378
 30
0.0
 11
0.9552500030591353
 21
0.1337355736110996
 31
0.0
  0
LINE
  5
7DE1B343D9E0F1B
330
7DE1B343D9E0FA1
100
AcDbEntity
  8
TEXT
100
AcDbLine
 10
1.145721895078987
 20
0.032863577497979
 30
0.0
 11
1.087091574047049
 21
0.1337355736110996
 31
0.0
  0
LINE
  5
7DE1B343D9E0F1C
330
7DE1B343D9E0FA1
100
AcDbEntity
  8
TEXT
100
AcDbLine
 10
1.204470457884853
 20
0.1337355736110996
 30
0.0
 11
1.145721895078987
 21
0.032863577497979
 31
0.0
  0
LINE
  5
7DE1B343D9E0F1D
330
7DE1B343D9E0FA1
100
AcDbEntity
  8
TEXT
100
AcDbLine
 10
1.301401083244594
 20
-0.0503496212744122
 30
0.0
 11
1.301401083244594
 21
0.2017470513499102
 31
0.0
  0
LINE
  5
7DE1B343D9E0F1E
330
7DE1B343D9E0FA1
100
AcDbEntity
  8
TEXT
100
AcDbLine
 10
1.333712937382254
 20
0.1337355736110996
 30
0.0
 11
1.333712937382254
 21
-0.0671286331213086
 31
0.0
  0
LINE
  5
7DE1B343D9E0F1F
330
7DE1B343D9E0FA1
100
AcDbEntity
  8
TEXT
100
AcDbLine
 10
1.333712937382254
 20
-0.0671286331213086
 30
0.0
 11
1.316719300497653
 21
-0.0671286331213086
 31
0.0
  0
LINE
  5
7DE1B343D9E0F20
330
7DE1B343D9E0FA1
100
AcDbEntity
  8
TEXT
100
AcDbLine
 10
1.302540656740789
 20
-0.1327374593774114
 30
0.0
 11
1.400543990440223
 21
-0.1327374593774114
 31
0.0
  0
LINE
  5
7DE1B343D9E0F21
330
7DE1B343D9E0FA1
100
AcDbEntity
  8
TEXT
100
AcDbLine
 10
1.136121658082033
 20
-0.1127789532723984
 30
0.0
 11
1.233421364175477
 21
0.0515712576628697
 31
0.0
  0
ARC
  5
7DE1B343D9E0F22
330
7DE1B343D9E0FA1
100
AcDbEntity
  8
TEXT
100
AcDbCircle
 10
1.102078098169819
 20
-0.0931897371037157
 30
0.0
 40
0.0392772371940762
100
AcDbArc
 50
270.1604552698595
 51
330.0831797321295
  0
LINE
  5
7DE1B343D9E0F23
330
7DE1B343D9E0FA1
100
AcDbEntity
  8
TEXT
100
AcDbLine
 10
1.005547841783948
 20
-0.1327374593774114
 30
0.0
 11
1.102188092858942
 21
-0.1324668202791291
 31
0.0
  0
LWPOLYLINE
  5
7DE1B343D9E0F24
330
7DE1B343D9E0FA1
100
AcDbEntity
  8
TEXT
100
AcDbPolyline
 90
        6
 70
     1
 43
0.0
 10
1.048071645359097
 20
0.0694588789543342
 10
1.017755051138889
 20
0.0694588789543342
 10
1.017755051138889
 20
-0.0536521191005602
 42
0.407328721240804
 10
1.029298702300365
 20
-0.0654710337769463
 10
1.089920401345096
 20
-0.0654710337769463
 10
1.107385741752414
 20
-0.0326588047334671
  0
LINE
  5
7DE1B343D9E0F2C
330
7DE1B343D9E0FA1
100
AcDbEntity
  8
TEXT
100
AcDbLine
 10
1.233421364175477
 20
0.0515712576628697
 30
0.0
 11
1.233421364175477
 21
-0.0811861171624867
 31
0.0
  0
ARC
  5
7DE1B343D9E0F2D
330
7DE1B343D9E0FA1
100
AcDbEntity
  8
TEXT
100
AcDbCircle
 10
1.316719300497651
 20
-0.0517468268778832
 30
0.0
 40
0.0153818062434269
100
AcDbArc
 50
174.7883570302258
 51
270.0
  0
LWPOLYLINE
  5
7DE1B343D9E0F2E
330
7DE1B343D9E0FA1
100
AcDbEntity
  8
TEXT
100
AcDbPolyline
 90
        2
 70
     0
 43
0.0
 10
1.233421364175476
 20
-0.0811861171624831
 42
0.3318488747599744
 10
1.302540656740789
 20
-0.1327374593774114
 42
-6.868794160588311
  0
LINE
  5
7DE1B343D9E0F32
330
7DE1B343D9E0FA1
100
AcDbEntity
  8
TEXT
100
AcDbLine
 10
1.457933059429484
 20
-0.1327374593774114
 30
0.0
 11
1.524991106211324
 21
-0.1327374593774114
 31
0.0
  0
LINE
  5
7DE1B343D9E0F33
330
7DE1B343D9E0FA1
100
AcDbEntity
  8
TEXT
100
AcDbLine
 10
1.457933059429484
 20
0.0619050897882242
 30
0.0
 11
1.457933059429484
 21
-0.1327374593774114
 31
0.0
  0
LINE
  5
7DE1B343D9E0F34
330
7DE1B343D9E0FA1
100
AcDbEntity
  8
TEXT
100
AcDbLine
 10
1.400543990440223
 20
0.0694588789543342
 30
0.0
 11
1.450379270263371
 21
0.0694588789543342
 31
0.0
  0
LINE
  5
7DE1B343D9E0F35
330
7DE1B343D9E0FA1
100
AcDbEntity
  8
TEXT
100
AcDbLine
 10
1.400543990440223
 20
-0.1327374593774114
 30
0.0
 11
1.400543990440223
 21
0.0694588789543342
 31
0.0
  0
LWPOLYLINE
  5
7DE1B343D9E0F36
330
7DE1B343D9E0FA1
100
AcDbEntity
  8
TEXT
100
AcDbPolyline
 90
        2
 70
     0
 43
0.0
 10
1.450379270263369
 20
0.0694588789543342
 42
-0.4142135623731017
 10
1.457933059429483
 20
0.0619050897882242
 42
-0.9999999999999998
  0
LINE
  5
7DE1B343D9E0F3A
330
7DE1B343D9E0FA1
100
AcDbEntity
  8
TEXT
100
AcDbLine
 10
1.656189271041054
 20
0.0694588789543342
 30
0.0
 11
1.656189271041054
 21
-0.0055935271198724
 31
0.0
  0
LINE
  5
7DE1B343D9E0F3B
330
7DE1B343D9E0FA1
100
AcDbEntity
  8
TEXT
100
AcDbLine
 10
1.524991106211324
 20
0.0694588789543342
 30
0.0
 11
1.579124703132275
 21
0.0694588789543342
 31
0.0
  0
LINE
  5
7DE1B343D9E0F3C
330
7DE1B343D9E0FA1
100
AcDbEntity
  8
TEXT
100
AcDbLine
 10
1.524991106211324
 20
-0.1327374593774114
 30
0.0
 11
1.524991106211324
 21
0.0694588789543342
 31
0.0
  0
LWPOLYLINE
  5
7DE1B343D9E0F3D
330
7DE1B343D9E0FA1
100
AcDbEntity
  8
TEXT
100
AcDbPolyline
 90
        2
 70
     0
 43
0.0
 10
1.579124703132273
 20
0.0694588789543342
 42
-0.4142135623731017
 10
1.586678492298386
 20
0.0619050897882242
 42
-0.9999999999999998
  0
LWPOLYLINE
  5
7DE1B343D9E0F41
330
7DE1B343D9E0FA1
100
AcDbEntity
  8
TEXT
100
AcDbPolyline
 90
        4
 70
     0
 43
0.0
 10
1.586678492298386
 20
0.0619050897882242
 10
1.586678492298386
 20
-0.1327374593774114
 10
1.655156775586244
 20
-0.1327374593774114
 10
1.655156775586244
 20
-0.0892465144269733
 42
-1.714843617202739
  0
LINE
  5
7DE1B343D9E0F47
330
7DE1B343D9E0FA1
100
AcDbEntity
  8
TEXT
100
AcDbLine
 10
1.015292607903142
 20
0.1337355736110996
 30
0.0
 11
1.015292607903142
 21
0.1681234912052378
 31
0.0
  0
LINE
  5
7DE1B343D9E0F48
330
7DE1B343D9E0FA1
100
AcDbEntity
  8
TEXT
100
AcDbLine
 10
1.087091574047049
 20
0.1337355736110996
 30
0.0
 11
1.015292607903142
 21
0.1337355736110996
 31
0.0
  0
LINE
  5
7DE1B343D9E0F49
330
7DE1B343D9E0FA1
100
AcDbEntity
  8
TEXT
100
AcDbLine
 10
1.234592370678229
 20
0.1337355736110996
 30
0.0
 11
1.204470457884853
 21
0.1337355736110996
 31
0.0
  0
LINE
  5
7DE1B343D9E0F4A
330
7DE1B343D9E0FA1
100
AcDbEntity
  8
TEXT
100
AcDbLine
 10
1.234592370678229
 20
0.2017470513499102
 30
0.0
 11
1.234592370678229
 21
0.1337355736110996
 31
0.0
  0
LINE
  5
7DE1B343D9E0F4B
330
7DE1B343D9E0FA1
100
AcDbEntity
  8
TEXT
100
AcDbLine
 10
1.301401083244594
 20
0.2017470513499102
 30
0.0
 11
1.234592370678229
 21
0.2017470513499102
 31
0.0
  0
LWPOLYLINE
  5
7DE1B343D9E0F4C
330
7DE1B343D9E0FA1
100
AcDbEntity
  8
TEXT
100
AcDbPolyline
 90
        3
 70
     0
 43
0.0
 10
1.621812842842596
 20
0.1337355736111032
 10
1.503512684026552
 20
0.1337355736111032
 10
1.503512684026552
 20
0.1065680768502073
 42
-1.960274751411753
  0
LINE
  5
7DE1B343D9E0F51
330
7DE1B343D9E0FA1
100
AcDbEntity
  8
TEXT
100
AcDbLine
 10
1.46773099331339
 20
0.1337355736110996
 30
0.0
 11
1.333712937382254
 21
0.1337355736110996
 31
0.0
  0
LWPOLYLINE
  5
7DE1B343D9E0F52
330
7DE1B343D9E0FA1
100
AcDbEntity
  8
TEXT
100
AcDbPolyline
 90
        2
 70
     0
 43
0.0
 10
1.46773099331339
 20
0.1337355736111032
 42
-0.3328679258950098
 10
1.503512684026552
 20
0.1065680768502073
 42
6.772930709997214
  0
LINE
  5
7DE1B343D9E0F56
330
7DE1B343D9E0FA1
100
AcDbEntity
  8
TEXT
100
AcDbLine
 10
1.657594533555763
 20
0.1337355736110996
 30
0.0
 11
1.657594533555763
 21
0.1054130278414557
 31
0.0
  0
LWPOLYLINE
  5
7DE1B343D9E0F57
330
7DE1B343D9E0FA1
100
AcDbEntity
  8
TEXT
100
AcDbPolyline
 90
        2
 70
     0
 43
0.0
 10
1.621812842842596
 20
0.1337355736111032
 42
-0.3277054968067132
 10
1.657594533555761
 20
0.1054130278414593
 42
6.667889725900311
  0
LINE
  5
7DE1B343D9E0F5B
330
7DE1B343D9E0FA1
100
AcDbEntity
  8
TEXT
100
AcDbLine
 10
1.871386381647863
 20
0.0285235950576723
 30
0.0
 11
1.827635610465961
 21
0.1107738710538175
 31
0.0
  0
LINE
  5
7DE1B343D9E0F5C
330
7DE1B343D9E0FA1
100
AcDbEntity
  8
TEXT
100
AcDbLine
 10
1.871386381647863
 20
0.1337355736110996
 30
0.0
 11
1.871386381647863
 21
0.0285235950576723
 31
0.0
  0
LINE
  5
7DE1B343D9E0F5D
330
7DE1B343D9E0FA1
100
AcDbEntity
  8
TEXT
100
AcDbLine
 10
2.099070120586232
 20
0.0578702471995615
 30
0.0
 11
2.099070120586232
 21
0.1991997793787003
 31
0.0
  0
LINE
  5
7DE1B343D9E0F5E
330
7DE1B343D9E0FA1
100
AcDbEntity
  8
TEXT
100
AcDbLine
 10
2.146168279142217
 20
0.1337355736110996
 30
0.0
 11
2.099070120586232
 21
0.0578702471995615
 31
0.0
  0
LINE
  5
7DE1B343D9E0F5F
330
7DE1B343D9E0FA1
100
AcDbEntity
  8
TEXT
100
AcDbLine
 10
2.15660299590614
 20
0.023842330670126
 30
0.0
 11
2.221160111871845
 21
0.1337355736110996
 31
0.0
  0
LINE
  5
7DE1B343D9E0F60
330
7DE1B343D9E0FA1
100
AcDbEntity
  8
TEXT
100
AcDbLine
 10
2.035235129363459
 20
-0.1327374593774114
 30
0.0
 11
2.09961331368208
 21
-0.1327374593774114
 31
0.0
  0
LWPOLYLINE
  5
7DE1B343D9E0F61
330
7DE1B343D9E0FA1
100
AcDbEntity
  8
TEXT
100
AcDbPolyline
 90
        2
 70
     0
 43
0.0
 10
1.875326058952901
 20
-0.0892465144269733
 42
-0.2901071551932486
 10
1.832250126085256
 20
-0.1327374593774114
 42
-5.328517124445184
  0
ARC
  5
7DE1B343D9E0F65
330
7DE1B343D9E0FA1
100
AcDbEntity
  8
TEXT
100
AcDbCircle
 10
1.763395544428342
 20
0.0410995039543369
 30
0.0
 40
0.028359375
100
AcDbArc
 50
25.78218179591245
 51
90.0
  0
LINE
  5
7DE1B343D9E0F66
330
7DE1B343D9E0FA1
100
AcDbEntity
  8
TEXT
100
AcDbLine
 10
1.799196619732465
 20
0.0321839054922019
 30
0.0
 11
1.788931859318901
 21
0.0534344450648962
 31
0.0
  0
LINE
  5
7DE1B343D9E0F67
330
7DE1B343D9E0FA1
100
AcDbEntity
  8
TEXT
100
AcDbLine
 10
1.716908629949082
 20
0.0321839054922019
 30
0.0
 11
1.799196619732465
 21
0.0321839054922019
 31
0.0
  0
LWPOLYLINE
  5
7DE1B343D9E0F68
330
7DE1B343D9E0FA1
100
AcDbEntity
  8
TEXT
100
AcDbPolyline
 90
        4
 70
     1
 43
0.0
 10
1.812127661015364
 20
-0.0297734813933862
 10
1.723467342355505
 20
-0.0297734813933862
 42
0.9999999999999998
 10
1.723467342355505
 20
-0.0721720218972469
 10
1.812127661015364
 20
-0.0721720218972469
 42
1.0
  0
LWPOLYLINE
  5
7DE1B343D9E0F6E
330
7DE1B343D9E0FA1
100
AcDbEntity
  8
TEXT
100
AcDbPolyline
 90
        2
 70
     0
 43
0.0
 10
1.69823270845388
 20
-0.1327374593774114
 10
1.832250126085256
 20
-0.1327374593774114
 42
0.9999999999999998
  0
LINE
  5
7DE1B343D9E0F72
330
7DE1B343D9E0FA1
100
AcDbEntity
  8
TEXT
100
AcDbLine
 10
1.958587148070896
 20
0.0694588789543342
 30
0.0
 11
2.035235129363454
 21
0.0694588789543342
 31
0.0
  0
LINE
  5
7DE1B343D9E0F73
330
7DE1B343D9E0FA1
100
AcDbEntity
  8
TEXT
100
AcDbLine
 10
2.035235129363454
 20
0.0694588789543342
 30
0.0
 11
2.035235129363459
 21
-0.1327374593774114
 31
0.0
  0
ARC
  5
7DE1B343D9E0F74
330
7DE1B343D9E0FA1
100
AcDbEntity
  8
TEXT
100
AcDbCircle
 10
1.958587148070894
 20
0.0445530036716714
 30
0.0
 40
0.0249058752826653
100
AcDbArc
 50
89.99971217465335
 51
179.9999999999985
  0
LINE
  5
7DE1B343D9E0F75
330
7DE1B343D9E0FA1
100
AcDbEntity
  8
TEXT
100
AcDbLine
 10
1.933681272788237
 20
-0.1327374593774114
 30
0.0
 11
1.933681272788231
 21
0.044553046054057
 31
0.0
  0
LWPOLYLINE
  5
7DE1B343D9E0F76
330
7DE1B343D9E0FA1
100
AcDbEntity
  8
TEXT
100
AcDbPolyline
 90
        2
 70
     0
 43
0.0
 10
1.875326058952901
 20
-0.1327374593774114
 10
1.933681272788235
 20
-0.1327374593774114
  0
LWPOLYLINE
  5
7DE1B343D9E0F7A
330
7DE1B343D9E0FA1
100
AcDbEntity
  8
TEXT
100
AcDbPolyline
 90
        2
 70
     0
 43
0.0
 10
1.875326058952901
 20
-0.0892465144269733
 10
1.875326058952901
 20
-0.1327374593774114
  0
LINE
  5
7DE1B343D9E0F7E
330
7DE1B343D9E0FA1
100
AcDbEntity
  8
TEXT
100
AcDbLine
 10
2.25209521926975
 20
-0.1327374593774114
 30
0.0
 11
2.15660299590614
 21
0.023842330670126
 31
0.0
  0
LINE
  5
7DE1B343D9E0F7F
330
7DE1B343D9E0FA1
100
AcDbEntity
  8
TEXT
100
AcDbLine
 10
2.175516846893544
 20
-0.1327374593774114
 30
0.0
 11
2.25209521926975
 21
-0.1327374593774114
 31
0.0
  0
LINE
  5
7DE1B343D9E0F80
330
7DE1B343D9E0FA1
100
AcDbEntity
  8
TEXT
100
AcDbLine
 10
2.09961331368208
 20
-0.0011578909012311
 30
0.0
 11
2.175516846893544
 21
-0.1327374593774114
 31
0.0
  0
LINE
  5
7DE1B343D9E0F81
330
7DE1B343D9E0FA1
100
AcDbEntity
  8
TEXT
100
AcDbLine
 10
2.09961331368208
 20
-0.1327374593774114
 30
0.0
 11
2.09961331368208
 21
-0.0011578909012311
 31
0.0
  0
LINE
  5
7DE1B343D9E0F82
330
7DE1B343D9E0FA1
100
AcDbEntity
  8
TEXT
100
AcDbLine
 10
2.099070120586232
 20
0.1991997793787003
 30
0.0
 11
2.030755242036959
 21
0.1991997793787003
 31
0.0
  0
ARC
  5
7DE1B343D9E0F83
330
7DE1B343D9E0FA1
100
AcDbEntity
  8
TEXT
100
AcDbCircle
 10
1.790399502995753
 20
0.0921520064901972
 30
0.0
 40
0.0416329381542859
100
AcDbArc
 50
26.56974201007528
 51
87.20939649401342
  0
LINE
  5
7DE1B343D9E0F84
330
7DE1B343D9E0FA1
100
AcDbEntity
  8
TEXT
100
AcDbLine
 10
1.935283287947364
 20
0.1337355736110996
 30
0.0
 11
1.871386381647863
 21
0.1337355736110996
 31
0.0
  0
LINE
  5
7DE1B343D9E0F85
330
7DE1B343D9E0FA1
100
AcDbEntity
  8
TEXT
100
AcDbLine
 10
1.935283287947364
 20
0.106187923750225
 30
0.0
 11
1.935283287947364
 21
0.1337355736110996
 31
0.0
  0
ARC
  5
7DE1B343D9E0F86
330
7DE1B343D9E0FA1
100
AcDbEntity
  8
TEXT
100
AcDbCircle
 10
1.966476105010472
 20
0.1024898463288348
 30
0.0
 40
0.0314112657011332
100
AcDbArc
 50
95.88484768694724
 51
173.2388340632136
  0
LINE
  5
7DE1B343D9E0F87
330
7DE1B343D9E0FA1
100
AcDbEntity
  8
TEXT
100
AcDbLine
 10
2.030755242036954
 20
0.1337355736110996
 30
0.0
 11
1.963255524387437
 21
0.1337355736110996
 31
0.0
  0
LINE
  5
7DE1B343D9E0F88
330
7DE1B343D9E0FA1
100
AcDbEntity
  8
TEXT
100
AcDbLine
 10
2.030755242036959
 20
0.1991997793787003
 30
0.0
 11
2.030755242036954
 21
0.1337355736110996
 31
0.0
  0
LINE
  5
7DE1B343D9E0F89
330
7DE1B343D9E0FA1
100
AcDbEntity
  8
TEXT
100
AcDbLine
 10
2.221160111871845
 20
0.1337355736110996
 30
0.0
 11
2.146168279142218
 21
0.1337355736110996
 31
0.0
  0
ENDSEC
  0
SECTION
  2
OBJECTS
  0
DICTIONARY
  5
7DE1B343D9E0F95
330
0
100
AcDbDictionary
  3
ACAD_GROUP
350
7DE1B343D9E0F96
  3
ACAD_LAYOUT
350
7DE1B343D9E0FBB
  3
ACAD_MLINESTYLE
350
7DE1B343D9E0F97
  3
ACAD_PLOTSETTINGS
350
7DE1B343D9E0FBC
  3
ACAD_PLOTSTYLENAME
350
7DE1B343D9E0FB9
  3
ACDBHEADERROUNDTRIPXREC
350
7DE1B343D9E0FC6
  3
ACDBVARIABLEDICTIONARY
350
7DE1B343D9E0FC3
  0
DICTIONARY
  5
7DE1B343D9E0FE8
330
7DE1B343D9E0FA1
100
AcDbDictionary
280
     1
  3
ACAD_LAYOUTSELFREF
360
7DE1B343D9E0FE9
  0
DICTIONARY
  5
7DE1B343D9E0FE6
330
7DE1B343D9E0F9E
100
AcDbDictionary
280
     1
  3
ACAD_LAYOUTSELFREF
360
7DE1B343D9E0FE7
  0
DICTIONARY
  5
7DE1B343D9E0F96
102
{ACAD_REACTORS
330
7DE1B343D9E0F95
102
}
330
7DE1B343D9E0F95
100
AcDbDictionary
  0
DICTIONARY
  5
7DE1B343D9E0FBB
102
{ACAD_REACTORS
330
7DE1B343D9E0F95
102
}
330
7DE1B343D9E0F95
100
AcDbDictionary
  0
DICTIONARY
  5
7DE1B343D9E0F97
102
{ACAD_REACTORS
330
7DE1B343D9E0F95
102
}
330
7DE1B343D9E0F95
100
AcDbDictionary
  3
STANDARD
350
7DE1B343D9E0FA4
  0
DICTIONARY
  5
7DE1B343D9E0FBC
102
{ACAD_REACTORS
330
7DE1B343D9E0F95
102
}
330
7DE1B343D9E0F95
100
AcDbDictionary
  0
ACDBDICTIONARYWDFLT
  5
7DE1B343D9E0FB9
102
{ACAD_REACTORS
330
7DE1B343D9E0F95
102
}
330
7DE1B343D9E0F95
100
AcDbDictionary
281
     1
  3
Normal
350
7DE1B343D9E0FBA
100
AcDbDictionaryWithDefault
340
7DE1B343D9E0FBA
  0
DICTIONARY
  5
7DE1B343D9E0FC6
102
{ACAD_REACTORS
330
7DE1B343D9E0F95
102
}
330
7DE1B343D9E0F95
100
AcDbDictionary
  3
CEPSNTYPE
350
7DE1B343D9E0FD0
  3
FINGERPRINTGUID
350
7DE1B343D9E0FD1
  3
HYPERLINKBASE
350
7DE1B343D9E0FC9
  3
INSUNITS
350
7DE1B343D9E0FCF
  3
LAYOUTDICT
350
7DE1B343D9E0FCB
  3
LWETCUNION
350
7DE1B343D9E0FCE
  3
PLOTSETDICT
350
7DE1B343D9E0FCC
  3
PLOTSTYLNAMDICT
350
7DE1B343D9E0FCD
  3
PSVPSCALE
350
7DE1B343D9E0FD3
  3
PUCSBASE
350
7DE1B343D9E0FD6
  3
PUCSORGBACK
350
7DE1B343D9E0FDC
  3
PUCSORGBOTTOM
350
7DE1B343D9E0FD8
  3
PUCSORGFRONT
350
7DE1B343D9E0FDB
  3
PUCSORGLEFT
350
7DE1B343D9E0FD9
  3
PUCSORGRIGHT
350
7DE1B343D9E0FDA
  3
PUCSORGTOP
350
7DE1B343D9E0FD7
  3
PUCSORTHOREF
350
7DE1B343D9E0FD4
  3
PUCSORTHOVIEW
350
7DE1B343D9E0FD5
  3
STYLESHEET
350
7DE1B343D9E0FCA
  3
TSTACKALIGN
350
7DE1B343D9E0FC7
  3
TSTACKSIZE
350
7DE1B343D9E0FC8
  3
UCSBASE
350
7DE1B343D9E0FDF
  3
UCSORGBACK
350
7DE1B343D9E0FE5
  3
UCSORGBOTTOM
350
7DE1B343D9E0FE1
  3
UCSORGFRONT
350
7DE1B343D9E0FE4
  3
UCSORGLEFT
350
7DE1B343D9E0FE2
  3
UCSORGRIGHT
350
7DE1B343D9E0FE3
  3
UCSORGTOP
350
7DE1B343D9E0FE0
  3
UCSORTHOREF
350
7DE1B343D9E0FDD
  3
UCSORTHOVIEW
350
7DE1B343D9E0FDE
  3
VERSIONGUID
350
7DE1B343D9E0FD2
  0
DICTIONARY
  5
7DE1B343D9E0FC3
102
{ACAD_REACTORS
330
7DE1B343D9E0F95
102
}
330
7DE1B343D9E0F95
100
AcDbDictionary
  3
DIMASSOC
350
7DE1B343D9E0FC4
  0
XRECORD
  5
7DE1B343D9E0FE9
102
{ACAD_REACTORS
330
7DE1B343D9E0FE8
102
}
330
7DE1B343D9E0FE8
100
AcDbXrecord
340
7DE1B343D9E0FA1
  0
XRECORD
  5
7DE1B343D9E0FE7
102
{ACAD_REACTORS
330
7DE1B343D9E0FE6
102
}
330
7DE1B343D9E0FE6
100
AcDbXrecord
340
7DE1B343D9E0F9E
  0
MLINESTYLE
  5
7DE1B343D9E0FA4
102
{ACAD_REACTORS
330
7DE1B343D9E0F97
102
}
330
7DE1B343D9E0F97
100
AcDbMlineStyle
  2
STANDARD
 70
     0
  3

 62
     0
 51
90.0
 52
90.0
 71
     2
 49
0.5
 62
   256
  6
BYLAYER
 49
-0.5
 62
   256
  6
BYLAYER
  0
ACDBPLACEHOLDER
  5
7DE1B343D9E0FBA
102
{ACAD_REACTORS
330
7DE1B343D9E0FB9
102
}
330
7DE1B343D9E0FB9
100
AcDbPlaceHolder
280
     0
  0
XRECORD
  5
7DE1B343D9E0FD0
102
{ACAD_REACTORS
330
7DE1B343D9E0FC6
102
}
330
7DE1B343D9E0FC6
100
AcDbXrecord
 90
        0
  0
XRECORD
  5
7DE1B343D9E0FD1
102
{ACAD_REACTORS
330
7DE1B343D9E0FC6
102
}
330
7DE1B343D9E0FC6
100
AcDbXrecord
  1
{AE1311F0-8DB9-11D6-88E6-0090279574E7}
  0
XRECORD
  5
7DE1B343D9E0FC9
102
{ACAD_REACTORS
330
7DE1B343D9E0FC6
102
}
330
7DE1B343D9E0FC6
100
AcDbXrecord
  1

  0
XRECORD
  5
7DE1B343D9E0FCF
102
{ACAD_REACTORS
330
7DE1B343D9E0FC6
102
}
330
7DE1B343D9E0FC6
100
AcDbXrecord
 90
        0
  0
XRECORD
  5
7DE1B343D9E0FCB
102
{ACAD_REACTORS
330
7DE1B343D9E0FC6
102
}
330
7DE1B343D9E0FC6
100
AcDbXrecord
340
7DE1B343D9E0FBB
  0
XRECORD
  5
7DE1B343D9E0FCE
102
{ACAD_REACTORS
330
7DE1B343D9E0FC6
102
}
330
7DE1B343D9E0FC6
100
AcDbXrecord
 90
    14877
  0
XRECORD
  5
7DE1B343D9E0FCC
102
{ACAD_REACTORS
330
7DE1B343D9E0FC6
102
}
330
7DE1B343D9E0FC6
100
AcDbXrecord
340
7DE1B343D9E0FBC
  0
XRECORD
  5
7DE1B343D9E0FCD
102
{ACAD_REACTORS
330
7DE1B343D9E0FC6
102
}
330
7DE1B343D9E0FC6
100
AcDbXrecord
340
7DE1B343D9E0FB9
  0
XRECORD
  5
7DE1B343D9E0FD3
102
{ACAD_REACTORS
330
7DE1B343D9E0FC6
102
}
330
7DE1B343D9E0FC6
100
AcDbXrecord
 40
0.0
  0
XRECORD
  5
7DE1B343D9E0FD6
102
{ACAD_REACTORS
330
7DE1B343D9E0FC6
102
}
330
7DE1B343D9E0FC6
100
AcDbXrecord
340
0
  0
XRECORD
  5
7DE1B343D9E0FDC
102
{ACAD_REACTORS
330
7DE1B343D9E0FC6
102
}
330
7DE1B343D9E0FC6
100
AcDbXrecord
 10
0.0
 20
0.0
 30
0.0
  0
XRECORD
  5
7DE1B343D9E0FD8
102
{ACAD_REACTORS
330
7DE1B343D9E0FC6
102
}
330
7DE1B343D9E0FC6
100
AcDbXrecord
 10
0.0
 20
0.0
 30
0.0
  0
XRECORD
  5
7DE1B343D9E0FDB
102
{ACAD_REACTORS
330
7DE1B343D9E0FC6
102
}
330
7DE1B343D9E0FC6
100
AcDbXrecord
 10
0.0
 20
0.0
 30
0.0
  0
XRECORD
  5
7DE1B343D9E0FD9
102
{ACAD_REACTORS
330
7DE1B343D9E0FC6
102
}
330
7DE1B343D9E0FC6
100
AcDbXrecord
 10
0.0
 20
0.0
 30
0.0
  0
XRECORD
  5
7DE1B343D9E0FDA
102
{ACAD_REACTORS
330
7DE1B343D9E0FC6
102
}
330
7DE1B343D9E0FC6
100
AcDbXrecord
 10
0.0
 20
0.0
 30
0.0
  0
XRECORD
  5
7DE1B343D9E0FD7
102
{ACAD_REACTORS
330
7DE1B343D9E0FC6
102
}
330
7DE1B343D9E0FC6
100
AcDbXrecord
 10
0.0
 20
0.0
 30
0.0
  0
XRECORD
  5
7DE1B343D9E0FD4
102
{ACAD_REACTORS
330
7DE1B343D9E0FC6
102
}
330
7DE1B343D9E0FC6
100
AcDbXrecord
340
0
  0
XRECORD
  5
7DE1B343D9E0FD5
102
{ACAD_REACTORS
330
7DE1B343D9E0FC6
102
}
330
7DE1B343D9E0FC6
100
AcDbXrecord
 70
     0
  0
XRECORD
  5
7DE1B343D9E0FCA
102
{ACAD_REACTORS
330
7DE1B343D9E0FC6
102
}
330
7DE1B343D9E0FC6
100
AcDbXrecord
  1

  0
XRECORD
  5
7DE1B343D9E0FC7
102
{ACAD_REACTORS
330
7DE1B343D9E0FC6
102
}
330
7DE1B343D9E0FC6
100
AcDbXrecord
 90
        1
  0
XRECORD
  5
7DE1B343D9E0FC8
102
{ACAD_REACTORS
330
7DE1B343D9E0FC6
102
}
330
7DE1B343D9E0FC6
100
AcDbXrecord
 90
       70
  0
XRECORD
  5
7DE1B343D9E0FDF
102
{ACAD_REACTORS
330
7DE1B343D9E0FC6
102
}
330
7DE1B343D9E0FC6
100
AcDbXrecord
340
0
  0
XRECORD
  5
7DE1B343D9E0FE5
102
{ACAD_REACTORS
330
7DE1B343D9E0FC6
102
}
330
7DE1B343D9E0FC6
100
AcDbXrecord
 10
0.0
 20
0.0
 30
0.0
  0
XRECORD
  5
7DE1B343D9E0FE1
102
{ACAD_REACTORS
330
7DE1B343D9E0FC6
102
}
330
7DE1B343D9E0FC6
100
AcDbXrecord
 10
0.0
 20
0.0
 30
0.0
  0
XRECORD
  5
7DE1B343D9E0FE4
102
{ACAD_REACTORS
330
7DE1B343D9E0FC6
102
}
330
7DE1B343D9E0FC6
100
AcDbXrecord
 10
0.0
 20
0.0
 30
0.0
  0
XRECORD
  5
7DE1B343D9E0FE2
102
{ACAD_REACTORS
330
7DE1B343D9E0FC6
102
}
330
7DE1B343D9E0FC6
100
AcDbXrecord
 10
0.0
 20
0.0
 30
0.0
  0
XRECORD
  5
7DE1B343D9E0FE3
102
{ACAD_REACTORS
330
7DE1B343D9E0FC6
102
}
330
7DE1B343D9E0FC6
100
AcDbXrecord
 10
0.0
 20
0.0
 30
0.0
  0
XRECORD
  5
7DE1B343D9E0FE0
102
{ACAD_REACTORS
330
7DE1B343D9E0FC6
102
}
330
7DE1B343D9E0FC6
100
AcDbXrecord
 10
0.0
 20
0.0
 30
0.0
  0
XRECORD
  5
7DE1B343D9E0FDD
102
{ACAD_REACTORS
330
7DE1B343D9E0FC6
102
}
330
7DE1B343D9E0FC6
100
AcDbXrecord
340
0
  0
XRECORD
  5
7DE1B343D9E0FDE
102
{ACAD_REACTORS
330
7DE1B343D9E0FC6
102
}
330
7DE1B343D9E0FC6
100
AcDbXrecord
 70
     0
  0
XRECORD
  5
7DE1B343D9E0FD2
102
{ACAD_REACTORS
330
7DE1B343D9E0FC6
102
}
330
7DE1B343D9E0FC6
100
AcDbXrecord
  1
{AE1311F2-8DB9-11D6-88E6-0090279574E7}
  0
DICTIONARYVAR
  5
7DE1B343D9E0FC4
102
{ACAD_REACTORS
330
7DE1B343D9E0FC3
102
}
330
7DE1B343D9E0FC3
100
DictionaryVariables
280
     0
  1
1
  0
ENDSEC
  0
EOF
