  0
SECTION
  2
HEADER
  9
$ACADVER
  1
AC1014
  9
$ACADMAINTVER
 70
     9
  9
$DWGCODEPAGE
  3
ANSI_1252
  9
$INSBASE
 10
2.196872729949303
 20
1.259466513478287
 30
0.0
  9
$EXTMIN
 10
0.1855984692529004
 20
-0.3806810719203801
 30
0.0
  9
$EXTMAX
 10
3.670817791000028
 20
3.053999459160495
 30
0.0
  9
$LIMMIN
 10
0.0
 20
0.0
  9
$LIMMAX
 10
18.0
 20
12.0
  9
$ORTHOMODE
 70
     1
  9
$REGENMODE
 70
     1
  9
$FILLMODE
 70
     1
  9
$QTEXTMODE
 70
     0
  9
$MIRRTEXT
 70
     0
  9
$DRAGMODE
 70
     2
  9
$LTSCALE
 40
1.0
  9
$OSMODE
 70
    39
  9
$ATTMODE
 70
     1
  9
$TEXTSIZE
 40
0.125
  9
$TRACEWID
 40
0.05
  9
$TEXTSTYLE
  7
ROMANS
  9
$CLAYER
  8
0
  9
$CELTYPE
  6
BYLAYER
  9
$CECOLOR
 62
   256
  9
$CELTSCALE
 40
1.0
  9
$DELOBJ
 70
     1
  9
$DISPSILH
 70
     1
  9
$DIMSCALE
 40
1.0
  9
$DIMASZ
 40
0.125
  9
$DIMEXO
 40
0.125
  9
$DIMDLI
 40
0.375
  9
$DIMRND
 40
0.0
  9
$DIMDLE
 40
0.0
  9
$DIMEXE
 40
0.125
  9
$DIMTP
 40
0.0
  9
$DIMTM
 40
0.0
  9
$DIMTXT
 40
0.125
  9
$DIMCEN
 40
-0.125
  9
$DIMTSZ
 40
0.0
  9
$DIMTOL
 70
     0
  9
$DIMLIM
 70
     0
  9
$DIMTIH
 70
     1
  9
$DIMTOH
 70
     1
  9
$DIMSE1
 70
     0
  9
$DIMSE2
 70
     0
  9
$DIMTAD
 70
     0
  9
$DIMZIN
 70
     4
  9
$DIMBLK
  1

  9
$DIMASO
 70
     1
  9
$DIMSHO
 70
     1
  9
$DIMPOST
  1

  9
$DIMAPOST
  1

  9
$DIMALT
 70
     0
  9
$DIMALTD
 70
     2
  9
$DIMALTF
 40
25.4
  9
$DIMLFAC
 40
1.0
  9
$DIMTOFL
 70
     0
  9
$DIMTVP
 40
0.0
  9
$DIMTIX
 70
     1
  9
$DIMSOXD
 70
     0
  9
$DIMSAH
 70
     0
  9
$DIMBLK1
  1

  9
$DIMBLK2
  1

  9
$DIMSTYLE
  2
STANDARD
  9
$DIMCLRD
 70
     0
  9
$DIMCLRE
 70
     0
  9
$DIMCLRT
 70
     0
  9
$DIMTFAC
 40
1.0
  9
$DIMGAP
 40
0.09
  9
$DIMJUST
 70
     0
  9
$DIMSD1
 70
     0
  9
$DIMSD2
 70
     0
  9
$DIMTOLJ
 70
     1
  9
$DIMTZIN
 70
     4
  9
$DIMALTZ
 70
     0
  9
$DIMALTTZ
 70
     0
  9
$DIMFIT
 70
     3
  9
$DIMUPT
 70
     0
  9
$DIMUNIT
 70
     2
  9
$DIMDEC
 70
     3
  9
$DIMTDEC
 70
     3
  9
$DIMALTU
 70
     2
  9
$DIMALTTD
 70
     2
  9
$DIMTXSTY
  7
ROMANS
  9
$DIMAUNIT
 70
     0
  9
$LUNITS
 70
     2
  9
$LUPREC
 70
     3
  9
$SKETCHINC
 40
0.1
  9
$FILLETRAD
 40
0.03125
  9
$AUNITS
 70
     0
  9
$AUPREC
 70
     0
  9
$MENU
  1
ACAD
  9
$ELEVATION
 40
0.0
  9
$PELEVATION
 40
0.0
  9
$THICKNESS
 40
0.0
  9
$LIMCHECK
 70
     0
  9
$BLIPMODE
 70
     0
  9
$CHAMFERA
 40
0.0
  9
$CHAMFERB
 40
0.0
  9
$CHAMFERC
 40
0.0
  9
$CHAMFERD
 40
0.0
  9
$SKPOLY
 70
     0
  9
$TDCREATE
 40
2448994.692623148
  9
$TDUPDATE
 40
2452458.323640346
  9
$TDINDWG
 40
0.0005968519
  9
$TDUSRTIMER
 40
0.0005968519
  9
$USRTIMER
 70
     1
  9
$ANGBASE
 50
0.0
  9
$ANGDIR
 70
     0
  9
$PDMODE
 70
     0
  9
$PDSIZE
 40
0.0
  9
$PLINEWID
 40
0.0
  9
$COORDS
 70
     2
  9
$SPLFRAME
 70
     0
  9
$SPLINETYPE
 70
     6
  9
$SPLINESEGS
 70
     8
  9
$ATTDIA
 70
     0
  9
$ATTREQ
 70
     1
  9
$HANDLING
 70
 22529
  9
$HANDSEED
  5
7DE1B343D9E0BC3
  9
$SURFTAB1
 70
     6
  9
$SURFTAB2
 70
     6
  9
$SURFTYPE
 70
     6
  9
$SURFU
 70
     6
  9
$SURFV
 70
     6
  9
$UCSNAME
  2

  9
$UCSORG
 10
0.0
 20
0.0
 30
0.0
  9
$UCSXDIR
 10
1.0
 20
0.0
 30
0.0
  9
$UCSYDIR
 10
0.0
 20
1.0
 30
0.0
  9
$PUCSNAME
  2

  9
$PUCSORG
 10
0.0
 20
0.0
 30
0.0
  9
$PUCSXDIR
 10
1.0
 20
0.0
 30
0.0
  9
$PUCSYDIR
 10
0.0
 20
1.0
 30
0.0
  9
$USERI1
 70
     0
  9
$USERI2
 70
     0
  9
$USERI3
 70
     0
  9
$USERI4
 70
     0
  9
$USERI5
 70
     0
  9
$USERR1
 40
0.0
  9
$USERR2
 40
0.0
  9
$USERR3
 40
0.0
  9
$USERR4
 40
0.0
  9
$USERR5
 40
0.0
  9
$WORLDVIEW
 70
     1
  9
$SHADEDGE
 70
     3
  9
$SHADEDIF
 70
    70
  9
$TILEMODE
 70
     1
  9
$MAXACTVP
 70
    16
  9
$PINSBASE
 10
0.7951949966231954
 20
50.00000000000001
 30
1.112804884662932
  9
$PLIMCHECK
 70
     0
  9
$PEXTMIN
 10
1.000000000000000E+20
 20
1.000000000000000E+20
 30
1.000000000000000E+20
  9
$PEXTMAX
 10
-1.000000000000000E+20
 20
-1.000000000000000E+20
 30
-1.000000000000000E+20
  9
$PLIMMIN
 10
0.0
 20
0.0
  9
$PLIMMAX
 10
12.0
 20
9.0
  9
$UNITMODE
 70
     0
  9
$VISRETAIN
 70
     0
  9
$PLINEGEN
 70
     1
  9
$PSLTSCALE
 70
     0
  9
$TREEDEPTH
 70
  3020
  9
$PICKSTYLE
 70
     1
  9
$CMLSTYLE
  2
STANDARD
  9
$CMLJUST
 70
     0
  9
$CMLSCALE
 40
1.0
  9
$PROXYGRAPHICS
 70
     1
  9
$MEASUREMENT
 70
     0
  0
ENDSEC
  0
SECTION
  2
CLASSES
  0
CLASS
  1
LWPOLYLINE
  2
AcDbPolyline
  3
AutoCAD 2000
 90
        0
280
     0
281
     1
  0
CLASS
  1
ACDBDICTIONARYWDFLT
  2
AcDbDictionaryWithDefault
  3
AutoCAD 2000
 90
        0
280
     0
281
     0
  0
CLASS
  1
ACDBPLACEHOLDER
  2
AcDbPlaceHolder
  3
AutoCAD 2000
 90
        0
280
     0
281
     0
  0
CLASS
  1
LAYOUT
  2
AcDbLayout
  3
AutoCAD 2000
 90
        0
280
     0
281
     0
  0
CLASS
  1
DICTIONARYVAR
  2
AcDbDictionaryVar
  3
AutoCAD 2000
 90
        0
280
     0
281
     0
  0
CLASS
  1
LONG_TRANSACTION
  2
AcDbLongTransaction
  3
AutoCAD 2000
 90
        0
280
     0
281
     0
  0
CLASS
  1
LWPOLYLINE
  2
AcDbPolyline
  3
AutoCAD 2000
 90
        0
280
     0
281
     1
  0
CLASS
  1
HATCH
  2
AcDbHatch
  3
AutoCAD 2000
 90
        0
280
     0
281
     1
  0
CLASS
  1
XRECORD
  2
AcDbXrecord
  3
AutoCAD 2000
 90
        0
280
     0
281
     0
  0
ENDSEC
  0
SECTION
  2
TABLES
  0
TABLE
  2
VPORT
  5
7DE1B343D9E0B6A
330
0
100
AcDbSymbolTable
 70
     2
  0
VPORT
  5
7DE1B343D9E0B9E
330
7DE1B343D9E0B6A
100
AcDbSymbolTableRecord
100
AcDbViewportTableRecord
  2
*ACTIVE
 70
     0
 10
0.0
 20
0.0
 11
1.0
 21
1.0
 12
6.985210520267609
 22
1.336643495220885
 13
0.0
 23
0.0
 14
0.015625
 24
0.015625
 15
0.0
 25
0.0
 16
0.0
 26
0.0
 36
1.0
 17
0.0
 27
0.0
 37
0.0
 40
3.878353531507221
 41
4.320930232558139
 42
50.0
 43
0.0
 44
0.0
 50
0.0
 51
0.0
 71
     0
 72
  2000
 73
     1
 74
     0
 75
     0
 76
     0
 77
     0
 78
     0
  0
ENDTAB
  0
TABLE
  2
LTYPE
  5
7DE1B343D9E0B67
330
0
100
AcDbSymbolTable
 70
     1
  0
LTYPE
  5
7DE1B343D9E0B74
330
7DE1B343D9E0B67
100
AcDbSymbolTableRecord
100
AcDbLinetypeTableRecord
  2
BYBLOCK
 70
     0
  3

 72
    65
 73
     0
 40
0.0
  0
LTYPE
  5
7DE1B343D9E0B75
330
7DE1B343D9E0B67
100
AcDbSymbolTableRecord
100
AcDbLinetypeTableRecord
  2
BYLAYER
 70
     0
  3

 72
    65
 73
     0
 40
0.0
  0
LTYPE
  5
7DE1B343D9E0B76
330
7DE1B343D9E0B67
100
AcDbSymbolTableRecord
100
AcDbLinetypeTableRecord
  2
CONTINUOUS
 70
     0
  3
Solid line
 72
    65
 73
     0
 40
0.0
  0
ENDTAB
  0
TABLE
  2
LAYER
  5
7DE1B343D9E0B64
330
0
100
AcDbSymbolTable
 70
     2
  0
LAYER
  5
7DE1B343D9E0B71
330
7DE1B343D9E0B64
100
AcDbSymbolTableRecord
100
AcDbLayerTableRecord
  2
0
 70
     0
 62
     7
  6
CONTINUOUS
  0
LAYER
  5
7DE1B343D9E0B81
330
7DE1B343D9E0B64
100
AcDbSymbolTableRecord
100
AcDbLayerTableRecord
  2
TEXT
 70
     0
 62
     3
  6
CONTINUOUS
  0
ENDTAB
  0
TABLE
  2
STYLE
  5
7DE1B343D9E0B65
330
0
100
AcDbSymbolTable
 70
     3
  0
STYLE
  5
7DE1B343D9E0B72
330
7DE1B343D9E0B65
100
AcDbSymbolTableRecord
100
AcDbTextStyleTableRecord
  2
STANDARD
 70
     0
 40
0.0
 41
1.0
 50
0.0
 71
     0
 42
0.3125
  3
txt
  4

  0
STYLE
  5
7DE1B343D9E0B7E
330
7DE1B343D9E0B65
100
AcDbSymbolTableRecord
100
AcDbTextStyleTableRecord
  2
ITALICC
 70
     0
 40
0.0
 41
1.0
 50
0.0
 71
     0
 42
0.125
  3
italicc
  4

  0
STYLE
  5
7DE1B343D9E0B8E
330
7DE1B343D9E0B65
100
AcDbSymbolTableRecord
100
AcDbTextStyleTableRecord
  2
ROMANS
 70
     0
 40
0.0
 41
1.0
 50
0.0
 71
     0
 42
0.125
  3
romans.shx
  4

  0
ENDTAB
  0
TABLE
  2
VIEW
  5
7DE1B343D9E0B68
330
0
100
AcDbSymbolTable
 70
     0
  0
ENDTAB
  0
TABLE
  2
UCS
  5
7DE1B343D9E0B69
330
0
100
AcDbSymbolTable
 70
     0
  0
ENDTAB
  0
TABLE
  2
APPID
  5
7DE1B343D9E0B6B
330
0
100
AcDbSymbolTable
 70
     1
  0
APPID
  5
7DE1B343D9E0B73
330
7DE1B343D9E0B6B
100
AcDbSymbolTableRecord
100
AcDbRegAppTableRecord
  2
ACAD
 70
     0
  0
ENDTAB
  0
TABLE
  2
DIMSTYLE
  5
7DE1B343D9E0B6C
330
0
100
AcDbSymbolTable
 70
     1
  0
DIMSTYLE
105
7DE1B343D9E0B86
330
7DE1B343D9E0B6C
100
AcDbSymbolTableRecord
100
AcDbDimStyleTableRecord
  2
STANDARD
 70
     0
  3

  4

  5

  6

  7

 40
1.0
 41
0.125
 42
0.125
 43
0.375
 44
0.125
 45
0.0
 46
0.0
 47
0.0
 48
0.0
140
0.125
141
-0.125
142
0.0
143
25.4
144
1.0
145
0.0
146
1.0
147
0.09
 71
     0
 72
     0
 73
     1
 74
     1
 75
     0
 76
     0
 77
     0
 78
     4
170
     0
171
     2
172
     0
173
     0
174
     1
175
     0
176
     0
177
     0
178
     0
270
     2
271
     3
272
     3
273
     2
274
     2
340
7DE1B343D9E0B8E
275
     0
280
     0
281
     0
282
     0
283
     1
284
     4
285
     0
286
     0
287
     3
288
     0
  0
ENDTAB
  0
TABLE
  2
BLOCK_RECORD
  5
7DE1B343D9E0B63
330
0
100
AcDbSymbolTable
 70
     0
  0
BLOCK_RECORD
  5
7DE1B343D9E0B7A
102
{ACAD_XDICTIONARY
360
7DE1B343D9E0BC1
102
}
330
7DE1B343D9E0B63
100
AcDbSymbolTableRecord
100
AcDbBlockTableRecord
  2
*MODEL_SPACE
  0
BLOCK_RECORD
  5
7DE1B343D9E0B77
102
{ACAD_XDICTIONARY
360
7DE1B343D9E0BBF
102
}
330
7DE1B343D9E0B63
100
AcDbSymbolTableRecord
100
AcDbBlockTableRecord
  2
*PAPER_SPACE
  0
ENDTAB
  0
ENDSEC
  0
SECTION
  2
BLOCKS
  0
BLOCK
  5
7DE1B343D9E0B84
330
7DE1B343D9E0B7A
100
AcDbEntity
  8
0
100
AcDbBlockBegin
  2
*MODEL_SPACE
 70
     0
 10
0.0
 20
0.0
 30
0.0
  3
*MODEL_SPACE
  1

  0
ENDBLK
  5
7DE1B343D9E0B85
330
7DE1B343D9E0B7A
100
AcDbEntity
  8
0
100
AcDbBlockEnd
  0
BLOCK
  5
7DE1B343D9E0B82
330
7DE1B343D9E0B77
100
AcDbEntity
 67
     1
  8
0
100
AcDbBlockBegin
  2
*PAPER_SPACE
 70
     0
 10
0.0
 20
0.0
 30
0.0
  3
*PAPER_SPACE
  1

  0
ENDBLK
  5
7DE1B343D9E0B83
330
7DE1B343D9E0B77
100
AcDbEntity
 67
     1
  8
0
100
AcDbBlockEnd
  0
ENDSEC
  0
SECTION
  2
ENTITIES
  0
LWPOLYLINE
  5
7DE1B343D9DF5C7
330
7DE1B343D9E0B7A
100
AcDbEntity
  8
0
100
AcDbPolyline
 90
       34
 70
     1
 43
0.0
 10
1.446872729949304
 20
0.9157165134782863
 42
0.4142135623730951
 10
1.478122729949304
 20
0.8844665134782863
 10
1.509372729949304
 20
0.8844665134782863
 10
1.509372729949304
 20
0.4157165134782872
 42
1.0
 10
1.571872729949304
 20
0.4157165134782872
 10
1.571872729949304
 20
0.6244665134782866
 10
1.561872729949304
 20
0.6344665134782863
 10
1.571872729949304
 20
0.6444665134782861
 10
1.571872729949304
 20
0.9157165134782863
 42
0.4142135623730951
 10
1.540622729949304
 20
0.9469665134782863
 10
1.509372729949304
 20
0.9469665134782863
 10
1.509372729949303
 20
1.321966513478286
 42
0.4142135623730951
 10
1.478122729949303
 20
1.353216513478286
 10
0.7937512099090754
 20
1.353216513478286
 42
-0.3756506801307434
 10
2.103122729949303
 20
2.662588033518515
 10
2.103122729949303
 20
1.978216513478287
 42
0.4142135623730951
 10
2.134372729949303
 20
1.946966513478287
 10
2.509372729949303
 20
1.946966513478287
 10
2.509372729949303
 20
1.915716513478287
 42
0.4142135623730951
 10
2.540622729949303
 20
1.884466513478287
 10
2.811872729949303
 20
1.884466513478287
 10
2.821872729949303
 20
1.894466513478286
 10
2.831872729949303
 20
1.884466513478287
 10
3.040622729949302
 20
1.884466513478287
 42
1.0
 10
3.040622729949302
 20
1.946966513478287
 10
2.571872729949303
 20
1.946966513478287
 10
2.571872729949303
 20
1.978216513478287
 42
0.4142135623730951
 10
2.540622729949303
 20
2.009466513478287
 10
2.196872729949303
 20
2.009466513478287
 10
2.196872729949303
 20
2.727884029037128
 42
0.4204596249396653
 10
2.164957836332281
 20
2.759126954900082
 42
0.4018033026248148
 10
0.6972122885275081
 20
1.291381407095307
 42
0.4204596249396654
 10
0.7284552143904622
 20
1.259466513478286
 10
1.446872729949303
 20
1.259466513478286
  0
TEXT
  5
7DE1B343D9E0A25
330
7DE1B343D9E0B7A
100
AcDbEntity
  8
TEXT
100
AcDbText
 10
1.175603858003853
 20
0.0773375321622014
 30
0.0
 40
0.125
  1
PART #120064
  7
ITALICC
 72
     1
 11
1.928580048480043
 21
0.0773375321622014
 31
0.0
100
AcDbText
  0
TEXT
  5
7DE1B343D9E0A26
330
7DE1B343D9E0B7A
100
AcDbEntity
  8
TEXT
100
AcDbText
 10
2.341885206730364
 20
-0.3695851105101737
 30
0.0
 40
0.0522247191011236
  1
Phone  1-800-328-2495
 41
1.272321428571429
 72
     5
 11
3.670817791000028
 21
-0.3695851105101737
 31
0.0
100
AcDbText
  0
TEXT
  5
7DE1B343D9E0A27
330
7DE1B343D9E0B7A
100
AcDbEntity
  8
TEXT
100
AcDbText
 10
2.341885206730364
 20
-0.0898098296112973
 30
0.0
 40
0.0522247191011236
  1
Stylmark  Incorporated
 41
1.221428571428573
 72
     5
 11
3.670817791000028
 21
-0.0898098296112973
 31
0.0
100
AcDbText
  0
TEXT
  5
7DE1B343D9E0A28
330
7DE1B343D9E0B7A
100
AcDbEntity
  8
TEXT
100
AcDbText
 10
2.341885206730364
 20
-0.1830682565775894
 30
0.0
 40
0.0522247191011236
  1
6536 Main St. N.E. * P.O. Box 32008
 41
0.8388932496075366
 72
     5
 11
3.670817791000028
 21
-0.1830682565775894
 31
0.0
100
AcDbText
  0
TEXT
  5
7DE1B343D9E0A29
330
7DE1B343D9E0B7A
100
AcDbEntity
  8
TEXT
100
AcDbText
 10
2.341885206730364
 20
-0.2763266835438816
 30
0.0
 40
0.0522247191011236
  1
Minneapolis, MN 55432-0008
 41
1.11444212721585
 72
     5
 11
3.670817791000028
 21
-0.2763266835438816
 31
0.0
100
AcDbText
  0
LWPOLYLINE
  5
7DE1B343D9E0A2A
330
7DE1B343D9E0B7A
100
AcDbEntity
  8
TEXT
100
AcDbPolyline
 90
        3
 70
     0
 43
0.0006660908203125
 10
0.1859315146630567
 20
-0.2559403478727389
 10
0.1859315146630567
 20
-0.3691757873258665
 10
0.299166954116179
 20
-0.3691757873258665
  0
LWPOLYLINE
  5
7DE1B343D9E0A2F
330
7DE1B343D9E0B7A
100
AcDbEntity
  8
TEXT
100
AcDbPolyline
 90
        3
 70
     0
 43
0.0006660908203125
 10
0.2125751474755542
 20
-0.2559403478727389
 10
0.2125751474755542
 20
-0.3425321545133655
 10
0.299166954116179
 20
-0.3425321545133655
  0
LWPOLYLINE
  5
7DE1B343D9E0A34
330
7DE1B343D9E0B7A
100
AcDbEntity
  8
TEXT
100
AcDbPolyline
 90
        2
 70
     0
 43
0.0001332181640625
 10
0.259201504897431
 20
-0.2459489855680537
 10
0.1859315146630567
 20
-0.2559403478727389
  0
LWPOLYLINE
  5
7DE1B343D9E0A38
330
7DE1B343D9E0B7A
100
AcDbEntity
  8
TEXT
100
AcDbPolyline
 90
        2
 70
     0
 43
0.0001332181640625
 10
0.2125751474755542
 20
-0.2559403478727389
 10
0.2725233213036815
 20
-0.2459489855680537
  0
LWPOLYLINE
  5
7DE1B343D9E0A3C
330
7DE1B343D9E0B7A
100
AcDbEntity
  8
TEXT
100
AcDbPolyline
 90
        2
 70
     0
 43
0.0001332181640625
 10
0.2125751474755542
 20
-0.3425321545133655
 10
0.2725233213036815
 20
-0.2825839806852399
  0
LWPOLYLINE
  5
7DE1B343D9E0A40
330
7DE1B343D9E0B7A
100
AcDbEntity
  8
TEXT
100
AcDbPolyline
 90
        3
 70
     0
 43
0.0006660908203125
 10
0.299166954116179
 20
-0.1027394592008632
 10
0.1859315146630567
 20
-0.1027394592008632
 10
0.1859315146630567
 20
-0.2159748986539909
  0
LWPOLYLINE
  5
7DE1B343D9E0A45
330
7DE1B343D9E0B7A
100
AcDbEntity
  8
TEXT
100
AcDbPolyline
 90
        3
 70
     0
 43
0.0006660908203125
 10
0.299166954116179
 20
-0.1293830920133643
 10
0.2125751474755542
 20
-0.1293830920133643
 10
0.2125751474755542
 20
-0.2159748986539909
  0
LWPOLYLINE
  5
7DE1B343D9E0A4A
330
7DE1B343D9E0B7A
100
AcDbEntity
  8
TEXT
100
AcDbPolyline
 90
        2
 70
     0
 43
0.0001332181640625
 10
0.2125751474755542
 20
-0.1293830920133643
 10
0.2725233213036797
 20
-0.1893312658414899
  0
LWPOLYLINE
  5
7DE1B343D9E0A4E
330
7DE1B343D9E0B7A
100
AcDbEntity
  8
TEXT
100
AcDbPolyline
 90
        2
 70
     0
 43
0.0001332181640625
 10
0.2125751474755542
 20
-0.2159748986539909
 10
0.2725233213036797
 20
-0.2259662609586797
  0
LWPOLYLINE
  5
7DE1B343D9E0A52
330
7DE1B343D9E0B7A
100
AcDbEntity
  8
TEXT
100
AcDbPolyline
 90
        2
 70
     0
 43
0.0001332181640625
 10
0.1859315146630567
 20
-0.2159748986539909
 10
0.259201504897431
 20
-0.2259662609586797
  0
LWPOLYLINE
  5
7DE1B343D9E0A56
330
7DE1B343D9E0B7A
100
AcDbEntity
  8
TEXT
100
AcDbPolyline
 90
        2
 70
     0
 43
0.0006660908203125
 10
0.2125751474755542
 20
-0.2559403478727389
 10
0.1859315146630567
 20
-0.2559403478727389
  0
LWPOLYLINE
  5
7DE1B343D9E0A5A
330
7DE1B343D9E0B7A
100
AcDbEntity
  8
TEXT
100
AcDbPolyline
 90
        2
 70
     0
 43
0.0006660908203125
 10
0.2125751474755542
 20
-0.2159748986539909
 10
0.1859315146630567
 20
-0.2159748986539909
  0
LINE
  5
7DE1B343D9E0A5E
330
7DE1B343D9E0B7A
100
AcDbEntity
  8
TEXT
100
AcDbLine
 10
1.701121943789554
 20
-0.1670161538576322
 30
0.0
 11
1.593915670402264
 21
-0.1670161538576322
 31
0.0
  0
LINE
  5
7DE1B343D9E0A5F
330
7DE1B343D9E0B7A
100
AcDbEntity
  8
TEXT
100
AcDbLine
 10
1.730152842134032
 20
-0.1027394592008668
 30
0.0
 11
1.595320932916973
 21
-0.1027394592008668
 31
0.0
  0
ARC
  5
7DE1B343D9E0A60
330
7DE1B343D9E0B7A
100
AcDbEntity
  8
TEXT
100
AcDbCircle
 10
1.65463502931029
 20
-0.2719767084638831
 30
0.0
 40
0.0676855811441166
100
AcDbArc
 50
90.0
 51
153.7768192527749
  0
LWPOLYLINE
  5
7DE1B343D9E0A61
330
7DE1B343D9E0B7A
100
AcDbEntity
  8
TEXT
100
AcDbPolyline
 90
        2
 70
     0
 43
0.0
 10
1.592883174947454
 20
-0.3257215472389396
 42
0.2901071551932823
 10
1.63595910781509
 20
-0.3692124921893778
 42
5.328517124445801
  0
ARC
  5
7DE1B343D9E0A65
330
7DE1B343D9E0B7A
100
AcDbEntity
  8
TEXT
100
AcDbCircle
 10
0.9495036516388047
 20
-0.309420100851328
 30
0.0
 40
0.0601160179737537
100
AcDbArc
 50
180.0000000000003
 51
264.0521544866073
  0
LINE
  5
7DE1B343D9E0A66
330
7DE1B343D9E0B7A
100
AcDbEntity
  8
TEXT
100
AcDbLine
 10
0.9530190072643524
 20
-0.0683515416067286
 30
0.0
 11
0.8929764024203453
 21
-0.0683515416067286
 31
0.0
  0
ARC
  5
7DE1B343D9E0A67
330
7DE1B343D9E0B7A
100
AcDbEntity
  8
TEXT
100
AcDbCircle
 10
0.7172446495218341
 20
-0.1848269186473686
 30
0.0
 40
0.0820874594465043
100
AcDbArc
 50
90.0
 51
270.0
  0
LWPOLYLINE
  5
7DE1B343D9E0A68
330
7DE1B343D9E0B7A
100
AcDbEntity
  8
TEXT
100
AcDbPolyline
 90
        2
 70
     0
 43
0.0001332181640625
 10
0.3091583164208695
 20
-0.1760094494352429
 10
0.299166954116179
 20
-0.1027394592008632
  0
LWPOLYLINE
  5
7DE1B343D9E0A6C
330
7DE1B343D9E0B7A
100
AcDbEntity
  8
TEXT
100
AcDbPolyline
 90
        2
 70
     0
 43
0.0001332181640625
 10
0.299166954116179
 20
-0.1293830920133643
 10
0.3091583164208695
 20
-0.1893312658414899
  0
LWPOLYLINE
  5
7DE1B343D9E0A70
330
7DE1B343D9E0B7A
100
AcDbEntity
  8
TEXT
100
AcDbPolyline
 90
        3
 70
     0
 43
0.0006660908203125
 10
0.4523678427880565
 20
-0.2159748986539909
 10
0.4523678427880565
 20
-0.1027394592008632
 10
0.3391324033349305
 20
-0.1027394592008632
  0
LWPOLYLINE
  5
7DE1B343D9E0A75
330
7DE1B343D9E0B7A
100
AcDbEntity
  8
TEXT
100
AcDbPolyline
 90
        3
 70
     0
 43
0.0006660908203125
 10
0.4257242099755554
 20
-0.2159748986539909
 10
0.4257242099755554
 20
-0.1293830920133643
 10
0.3391324033349305
 20
-0.1293830920133643
  0
LWPOLYLINE
  5
7DE1B343D9E0A7A
330
7DE1B343D9E0B7A
100
AcDbEntity
  8
TEXT
100
AcDbPolyline
 90
        2
 70
     0
 43
0.0001332181640625
 10
0.4257242099755554
 20
-0.1293830920133643
 10
0.3657760361474316
 20
-0.1893312658414899
  0
LWPOLYLINE
  5
7DE1B343D9E0A7E
330
7DE1B343D9E0B7A
100
AcDbEntity
  8
TEXT
100
AcDbPolyline
 90
        2
 70
     0
 43
0.0001332181640625
 10
0.3391324033349305
 20
-0.1293830920133643
 10
0.3291410410302418
 20
-0.1893312658414899
  0
LWPOLYLINE
  5
7DE1B343D9E0A82
330
7DE1B343D9E0B7A
100
AcDbEntity
  8
TEXT
100
AcDbPolyline
 90
        2
 70
     0
 43
0.0001332181640625
 10
0.3391324033349305
 20
-0.1027394592008632
 10
0.3291410410302418
 20
-0.1760094494352429
  0
LWPOLYLINE
  5
7DE1B343D9E0A86
330
7DE1B343D9E0B7A
100
AcDbEntity
  8
TEXT
100
AcDbPolyline
 90
        2
 70
     0
 43
0.0001332181640625
 10
0.3790978525536803
 20
-0.2259662609586797
 10
0.4523678427880565
 20
-0.2159748986539909
  0
LWPOLYLINE
  5
7DE1B343D9E0A8A
330
7DE1B343D9E0B7A
100
AcDbEntity
  8
TEXT
100
AcDbPolyline
 90
        2
 70
     0
 43
0.0001332181640625
 10
0.4257242099755554
 20
-0.2159748986539909
 10
0.3657760361474316
 20
-0.2259662609586797
  0
LWPOLYLINE
  5
7DE1B343D9E0A8E
330
7DE1B343D9E0B7A
100
AcDbEntity
  8
TEXT
100
AcDbPolyline
 90
        2
 70
     0
 43
0.0001332181640625
 10
0.4523678427880565
 20
-0.2559403478727389
 10
0.3790978525536803
 20
-0.2459489855680537
  0
LWPOLYLINE
  5
7DE1B343D9E0A92
330
7DE1B343D9E0B7A
100
AcDbEntity
  8
TEXT
100
AcDbPolyline
 90
        2
 70
     0
 43
0.0001332181640625
 10
0.4257242099755554
 20
-0.2559403478727389
 10
0.3657760361474316
 20
-0.2459489855680537
  0
LWPOLYLINE
  5
7DE1B343D9E0A96
330
7DE1B343D9E0B7A
100
AcDbEntity
  8
TEXT
100
AcDbPolyline
 90
        2
 70
     0
 43
0.0001332181640625
 10
0.4257242099755554
 20
-0.3425321545133655
 10
0.3657760361474316
 20
-0.2825839806852399
  0
LWPOLYLINE
  5
7DE1B343D9E0A9A
330
7DE1B343D9E0B7A
100
AcDbEntity
  8
TEXT
100
AcDbPolyline
 90
        3
 70
     0
 43
0.0006660908203125
 10
0.3391324033349305
 20
-0.3425321545133655
 10
0.4257242099755554
 20
-0.3425321545133655
 10
0.4257242099755554
 20
-0.2559403478727389
  0
LWPOLYLINE
  5
7DE1B343D9E0A9F
330
7DE1B343D9E0B7A
100
AcDbEntity
  8
TEXT
100
AcDbPolyline
 90
        3
 70
     0
 43
0.0006660908203125
 10
0.3391324033349305
 20
-0.3691757873258665
 10
0.4523678427880565
 20
-0.3691757873258665
 10
0.4523678427880565
 20
-0.2559403478727389
  0
LWPOLYLINE
  5
7DE1B343D9E0AA4
330
7DE1B343D9E0B7A
100
AcDbEntity
  8
TEXT
100
AcDbPolyline
 90
        5
 70
     0
 43
0.0001332181640625
 10
0.3091583164208695
 20
-0.2959057970914905
 10
0.3091583164208695
 20
-0.2825839806852399
 10
0.2725233213036815
 20
-0.2825839806852399
 10
0.2725233213036815
 20
-0.2459489855680537
 10
0.259201504897431
 20
-0.2459489855680537
  0
LWPOLYLINE
  5
7DE1B343D9E0AAB
330
7DE1B343D9E0B7A
100
AcDbEntity
  8
TEXT
100
AcDbPolyline
 90
        2
 70
     0
 43
0.0006660908203125
 10
0.299166954116179
 20
-0.3425321545133655
 10
0.299166954116179
 20
-0.3691757873258665
  0
LWPOLYLINE
  5
7DE1B343D9E0AAF
330
7DE1B343D9E0B7A
100
AcDbEntity
  8
TEXT
100
AcDbPolyline
 90
        2
 70
     0
 43
0.0001332181640625
 10
0.299166954116179
 20
-0.3425321545133655
 10
0.3091583164208695
 20
-0.2825839806852399
  0
LWPOLYLINE
  5
7DE1B343D9E0AB3
330
7DE1B343D9E0B7A
100
AcDbEntity
  8
TEXT
100
AcDbPolyline
 90
        2
 70
     0
 43
0.0001332181640625
 10
0.299166954116179
 20
-0.3691757873258665
 10
0.3091583164208695
 20
-0.2959057970914905
  0
LWPOLYLINE
  5
7DE1B343D9E0AB7
330
7DE1B343D9E0B7A
100
AcDbEntity
  8
TEXT
100
AcDbPolyline
 90
        5
 70
     0
 43
0.0001332181640625
 10
0.259201504897431
 20
-0.2259662609586797
 10
0.2725233213036797
 20
-0.2259662609586797
 10
0.2725233213036797
 20
-0.1893312658414899
 10
0.3091583164208695
 20
-0.1893312658414899
 10
0.3091583164208695
 20
-0.1760094494352429
  0
LWPOLYLINE
  5
7DE1B343D9E0ABE
330
7DE1B343D9E0B7A
100
AcDbEntity
  8
TEXT
100
AcDbPolyline
 90
        5
 70
     0
 43
0.0001332181640625
 10
0.3291410410302418
 20
-0.1760094494352429
 10
0.3291410410302418
 20
-0.1893312658414899
 10
0.3657760361474316
 20
-0.1893312658414899
 10
0.3657760361474316
 20
-0.2259662609586797
 10
0.3790978525536803
 20
-0.2259662609586797
  0
LWPOLYLINE
  5
7DE1B343D9E0AC5
330
7DE1B343D9E0B7A
100
AcDbEntity
  8
TEXT
100
AcDbPolyline
 90
        2
 70
     0
 43
0.0001332181640625
 10
0.3391324033349305
 20
-0.3425321545133655
 10
0.3291410410302418
 20
-0.2825839806852399
  0
LWPOLYLINE
  5
7DE1B343D9E0AC9
330
7DE1B343D9E0B7A
100
AcDbEntity
  8
TEXT
100
AcDbPolyline
 90
        2
 70
     0
 43
0.0001332181640625
 10
0.3291410410302418
 20
-0.2959057970914905
 10
0.3391324033349305
 20
-0.3691757873258665
  0
LWPOLYLINE
  5
7DE1B343D9E0ACD
330
7DE1B343D9E0B7A
100
AcDbEntity
  8
TEXT
100
AcDbPolyline
 90
        2
 70
     0
 43
0.0006660908203125
 10
0.3391324033349305
 20
-0.3425321545133655
 10
0.3391324033349305
 20
-0.3691757873258665
  0
LWPOLYLINE
  5
7DE1B343D9E0AD1
330
7DE1B343D9E0B7A
100
AcDbEntity
  8
TEXT
100
AcDbPolyline
 90
        5
 70
     0
 43
0.0001332181640625
 10
0.3790978525536803
 20
-0.2459489855680537
 10
0.3657760361474316
 20
-0.2459489855680537
 10
0.3657760361474316
 20
-0.2825839806852399
 10
0.3291410410302418
 20
-0.2825839806852399
 10
0.3291410410302418
 20
-0.2959057970914905
  0
LWPOLYLINE
  5
7DE1B343D9E0AD8
330
7DE1B343D9E0B7A
100
AcDbEntity
  8
TEXT
100
AcDbPolyline
 90
        2
 70
     0
 43
0.0006660908203125
 10
0.4257242099755554
 20
-0.2159748986539909
 10
0.4523678427880565
 20
-0.2159748986539909
  0
LWPOLYLINE
  5
7DE1B343D9E0ADC
330
7DE1B343D9E0B7A
100
AcDbEntity
  8
TEXT
100
AcDbPolyline
 90
        2
 70
     0
 43
0.0006660908203125
 10
0.4257242099755554
 20
-0.2559403478727389
 10
0.4523678427880565
 20
-0.2559403478727389
  0
LINE
  5
7DE1B343D9E0AE0
330
7DE1B343D9E0B7A
100
AcDbEntity
  8
TEXT
100
AcDbLine
 10
0.7224819796360813
 20
-0.1670161538576322
 30
0.0
 11
0.8893876336650524
 21
-0.1670161538576322
 31
0.0
  0
LINE
  5
7DE1B343D9E0AE1
330
7DE1B343D9E0B7A
100
AcDbEntity
  8
TEXT
100
AcDbLine
 10
0.7880821158803824
 20
-0.2028208754682601
 30
0.0
 11
0.7224819796360813
 21
-0.2028208754682601
 31
0.0
  0
LINE
  5
7DE1B343D9E0AE2
330
7DE1B343D9E0B7A
100
AcDbEntity
  8
TEXT
100
AcDbLine
 10
0.6351571900753297
 20
-0.3692124921893778
 30
0.0
 11
0.7880821158803824
 21
-0.3692124921893778
 31
0.0
  0
LINE
  5
7DE1B343D9E0AE3
330
7DE1B343D9E0B7A
100
AcDbEntity
  8
TEXT
100
AcDbLine
 10
0.793022489786662
 20
-0.3008554858559385
 30
0.0
 11
0.6351571900753279
 21
-0.3008554858559385
 31
0.0
  0
LINE
  5
7DE1B343D9E0AE4
330
7DE1B343D9E0B7A
100
AcDbEntity
  8
TEXT
100
AcDbLine
 10
0.7172446495218332
 20
-0.2669143780938739
 30
0.0
 11
0.793022489786662
 21
-0.2669143780938739
 31
0.0
  0
ARC
  5
7DE1B343D9E0AE5
330
7DE1B343D9E0B7A
100
AcDbEntity
  8
TEXT
100
AcDbCircle
 10
0.7224819796360822
 20
-0.1849185146629444
 30
0.0
 40
0.017902360805315
100
AcDbArc
 50
90.0
 51
270.0
  0
LINE
  5
7DE1B343D9E0AE6
330
7DE1B343D9E0B7A
100
AcDbEntity
  8
TEXT
100
AcDbLine
 10
0.6351571900753279
 20
-0.3008554858559385
 30
0.0
 11
0.6351571900753297
 21
-0.3692124921893778
 31
0.0
  0
LINE
  5
7DE1B343D9E0AE7
330
7DE1B343D9E0B7A
100
AcDbEntity
  8
TEXT
100
AcDbLine
 10
0.8893876336650524
 20
-0.1670161538576322
 30
0.0
 11
0.8893876336650524
 21
-0.309420100851328
 31
0.0
  0
ARC
  5
7DE1B343D9E0AE8
330
7DE1B343D9E0B7A
100
AcDbEntity
  8
TEXT
100
AcDbCircle
 10
0.7880821158803833
 20
-0.2860166838288207
 30
0.0
 40
0.0831958083605586
100
AcDbArc
 50
270.0
 51
90.0
  0
ARC
  5
7DE1B343D9E0AE9
330
7DE1B343D9E0B7A
100
AcDbEntity
  8
TEXT
100
AcDbCircle
 10
0.7930224897866629
 20
-0.2838849319749044
 30
0.0
 40
0.0169705538810321
100
AcDbArc
 50
270.0
 51
90.0
  0
LWPOLYLINE
  5
7DE1B343D9E0AEA
330
7DE1B343D9E0B7A
100
AcDbEntity
  8
TEXT
100
AcDbPolyline
 90
        2
 70
     0
 43
0.0006660908203125
 10
0.299166954116179
 20
-0.1293830920133643
 10
0.299166954116179
 20
-0.1027394592008632
  0
LWPOLYLINE
  5
7DE1B343D9E0AEE
330
7DE1B343D9E0B7A
100
AcDbEntity
  8
TEXT
100
AcDbPolyline
 90
        2
 70
     0
 43
0.0006660908203125
 10
0.3391324033349305
 20
-0.1293830920133643
 10
0.3391324033349305
 20
-0.1027394592008632
  0
LINE
  5
7DE1B343D9E0AF2
330
7DE1B343D9E0B7A
100
AcDbEntity
  8
TEXT
100
AcDbLine
 10
0.8929764024203453
 20
-0.1027394592008668
 30
0.0
 11
0.7172446495218332
 21
-0.1027394592008668
 31
0.0
  0
LINE
  5
7DE1B343D9E0AF3
330
7DE1B343D9E0B7A
100
AcDbEntity
  8
TEXT
100
AcDbLine
 10
0.8929764024203453
 20
-0.0683515416067286
 30
0.0
 11
0.8929764024203453
 21
-0.1027394592008668
 31
0.0
  0
LINE
  5
7DE1B343D9E0AF4
330
7DE1B343D9E0B7A
100
AcDbEntity
  8
TEXT
100
AcDbLine
 10
1.083448294440197
 20
-0.2036114553139874
 30
0.0
 11
1.024817973408259
 21
-0.1027394592008668
 31
0.0
  0
LINE
  5
7DE1B343D9E0AF5
330
7DE1B343D9E0B7A
100
AcDbEntity
  8
TEXT
100
AcDbLine
 10
1.142196857246063
 20
-0.1027394592008668
 30
0.0
 11
1.083448294440197
 21
-0.2036114553139874
 31
0.0
  0
LINE
  5
7DE1B343D9E0AF6
330
7DE1B343D9E0B7A
100
AcDbEntity
  8
TEXT
100
AcDbLine
 10
1.239127482605804
 20
-0.2868246540863786
 30
0.0
 11
1.239127482605804
 21
-0.0347279814620563
 31
0.0
  0
LINE
  5
7DE1B343D9E0AF7
330
7DE1B343D9E0B7A
100
AcDbEntity
  8
TEXT
100
AcDbLine
 10
1.271439336743464
 20
-0.1027394592008668
 30
0.0
 11
1.271439336743464
 21
-0.303603665933275
 31
0.0
  0
LINE
  5
7DE1B343D9E0AF8
330
7DE1B343D9E0B7A
100
AcDbEntity
  8
TEXT
100
AcDbLine
 10
1.271439336743464
 20
-0.303603665933275
 30
0.0
 11
1.254445699858863
 21
-0.303603665933275
 31
0.0
  0
LINE
  5
7DE1B343D9E0AF9
330
7DE1B343D9E0B7A
100
AcDbEntity
  8
TEXT
100
AcDbLine
 10
1.240267056101999
 20
-0.3692124921893778
 30
0.0
 11
1.338270389801433
 21
-0.3692124921893778
 31
0.0
  0
LINE
  5
7DE1B343D9E0AFA
330
7DE1B343D9E0B7A
100
AcDbEntity
  8
TEXT
100
AcDbLine
 10
1.073848057443243
 20
-0.3492539860843649
 30
0.0
 11
1.171147763536688
 21
-0.1849037751490967
 31
0.0
  0
ARC
  5
7DE1B343D9E0AFB
330
7DE1B343D9E0B7A
100
AcDbEntity
  8
TEXT
100
AcDbCircle
 10
1.039804497531029
 20
-0.329664769915682
 30
0.0
 40
0.0392772371940762
100
AcDbArc
 50
270.1604552698595
 51
330.0831797321295
  0
LINE
  5
7DE1B343D9E0AFC
330
7DE1B343D9E0B7A
100
AcDbEntity
  8
TEXT
100
AcDbLine
 10
0.9432742411451581
 20
-0.3692124921893778
 30
0.0
 11
1.039914492220152
 21
-0.3689418530910955
 31
0.0
  0
LWPOLYLINE
  5
7DE1B343D9E0AFD
330
7DE1B343D9E0B7A
100
AcDbEntity
  8
TEXT
100
AcDbPolyline
 90
        6
 70
     1
 43
0.0
 10
0.9857980447203079
 20
-0.1670161538576322
 10
0.9554814505000997
 20
-0.1670161538576322
 10
0.9554814505000997
 20
-0.2901271519125266
 42
0.407328721240804
 10
0.9670251016615761
 20
-0.3019460665889126
 10
1.027646800706306
 20
-0.3019460665889126
 10
1.045112141113624
 20
-0.2691338375454335
  0
LINE
  5
7DE1B343D9E0B05
330
7DE1B343D9E0B7A
100
AcDbEntity
  8
TEXT
100
AcDbLine
 10
1.171147763536688
 20
-0.1849037751490967
 30
0.0
 11
1.171147763536688
 21
-0.317661149974453
 31
0.0
  0
ARC
  5
7DE1B343D9E0B06
330
7DE1B343D9E0B7A
100
AcDbEntity
  8
TEXT
100
AcDbCircle
 10
1.254445699858861
 20
-0.2882218596898496
 30
0.0
 40
0.0153818062434269
100
AcDbArc
 50
174.7883570302258
 51
270.0
  0
LWPOLYLINE
  5
7DE1B343D9E0B07
330
7DE1B343D9E0B7A
100
AcDbEntity
  8
TEXT
100
AcDbPolyline
 90
        2
 70
     0
 43
0.0
 10
1.171147763536686
 20
-0.3176611499744495
 42
0.3318488747599744
 10
1.240267056101999
 20
-0.3692124921893778
 42
-6.868794160588311
  0
LINE
  5
7DE1B343D9E0B0B
330
7DE1B343D9E0B7A
100
AcDbEntity
  8
TEXT
100
AcDbLine
 10
1.395659458790694
 20
-0.3692124921893778
 30
0.0
 11
1.462717505572534
 21
-0.3692124921893778
 31
0.0
  0
LINE
  5
7DE1B343D9E0B0C
330
7DE1B343D9E0B7A
100
AcDbEntity
  8
TEXT
100
AcDbLine
 10
1.395659458790694
 20
-0.1745699430237422
 30
0.0
 11
1.395659458790694
 21
-0.3692124921893778
 31
0.0
  0
LINE
  5
7DE1B343D9E0B0D
330
7DE1B343D9E0B7A
100
AcDbEntity
  8
TEXT
100
AcDbLine
 10
1.338270389801433
 20
-0.1670161538576322
 30
0.0
 11
1.388105669624581
 21
-0.1670161538576322
 31
0.0
  0
LINE
  5
7DE1B343D9E0B0E
330
7DE1B343D9E0B7A
100
AcDbEntity
  8
TEXT
100
AcDbLine
 10
1.338270389801433
 20
-0.3692124921893778
 30
0.0
 11
1.338270389801433
 21
-0.1670161538576322
 31
0.0
  0
LWPOLYLINE
  5
7DE1B343D9E0B0F
330
7DE1B343D9E0B7A
100
AcDbEntity
  8
TEXT
100
AcDbPolyline
 90
        2
 70
     0
 43
0.0
 10
1.388105669624579
 20
-0.1670161538576322
 42
-0.4142135623731017
 10
1.395659458790693
 20
-0.1745699430237422
 42
-0.9999999999999998
  0
LINE
  5
7DE1B343D9E0B13
330
7DE1B343D9E0B7A
100
AcDbEntity
  8
TEXT
100
AcDbLine
 10
1.593915670402264
 20
-0.1670161538576322
 30
0.0
 11
1.593915670402264
 21
-0.2420685599318388
 31
0.0
  0
LINE
  5
7DE1B343D9E0B14
330
7DE1B343D9E0B7A
100
AcDbEntity
  8
TEXT
100
AcDbLine
 10
1.462717505572534
 20
-0.1670161538576322
 30
0.0
 11
1.516851102493485
 21
-0.1670161538576322
 31
0.0
  0
LINE
  5
7DE1B343D9E0B15
330
7DE1B343D9E0B7A
100
AcDbEntity
  8
TEXT
100
AcDbLine
 10
1.462717505572534
 20
-0.3692124921893778
 30
0.0
 11
1.462717505572534
 21
-0.1670161538576322
 31
0.0
  0
LWPOLYLINE
  5
7DE1B343D9E0B16
330
7DE1B343D9E0B7A
100
AcDbEntity
  8
TEXT
100
AcDbPolyline
 90
        2
 70
     0
 43
0.0
 10
1.516851102493483
 20
-0.1670161538576322
 42
-0.4142135623731017
 10
1.524404891659596
 20
-0.1745699430237422
 42
-0.9999999999999998
  0
LWPOLYLINE
  5
7DE1B343D9E0B1A
330
7DE1B343D9E0B7A
100
AcDbEntity
  8
TEXT
100
AcDbPolyline
 90
        4
 70
     0
 43
0.0
 10
1.524404891659596
 20
-0.1745699430237422
 10
1.524404891659596
 20
-0.3692124921893778
 10
1.592883174947454
 20
-0.3692124921893778
 10
1.592883174947454
 20
-0.3257215472389396
 42
-1.714843617202739
  0
LINE
  5
7DE1B343D9E0B20
330
7DE1B343D9E0B7A
100
AcDbEntity
  8
TEXT
100
AcDbLine
 10
0.9530190072643524
 20
-0.1027394592008668
 30
0.0
 11
0.9530190072643524
 21
-0.0683515416067286
 31
0.0
  0
LINE
  5
7DE1B343D9E0B21
330
7DE1B343D9E0B7A
100
AcDbEntity
  8
TEXT
100
AcDbLine
 10
1.024817973408259
 20
-0.1027394592008668
 30
0.0
 11
0.9530190072643524
 21
-0.1027394592008668
 31
0.0
  0
LINE
  5
7DE1B343D9E0B22
330
7DE1B343D9E0B7A
100
AcDbEntity
  8
TEXT
100
AcDbLine
 10
1.172318770039439
 20
-0.1027394592008668
 30
0.0
 11
1.142196857246063
 21
-0.1027394592008668
 31
0.0
  0
LINE
  5
7DE1B343D9E0B23
330
7DE1B343D9E0B7A
100
AcDbEntity
  8
TEXT
100
AcDbLine
 10
1.172318770039439
 20
-0.0347279814620563
 30
0.0
 11
1.172318770039439
 21
-0.1027394592008668
 31
0.0
  0
LINE
  5
7DE1B343D9E0B24
330
7DE1B343D9E0B7A
100
AcDbEntity
  8
TEXT
100
AcDbLine
 10
1.239127482605804
 20
-0.0347279814620563
 30
0.0
 11
1.172318770039439
 21
-0.0347279814620563
 31
0.0
  0
LWPOLYLINE
  5
7DE1B343D9E0B25
330
7DE1B343D9E0B7A
100
AcDbEntity
  8
TEXT
100
AcDbPolyline
 90
        3
 70
     0
 43
0.0
 10
1.559539242203806
 20
-0.1027394592008632
 10
1.441239083387762
 20
-0.1027394592008632
 10
1.441239083387762
 20
-0.1299069559617592
 42
-1.960274751411753
  0
LINE
  5
7DE1B343D9E0B2A
330
7DE1B343D9E0B7A
100
AcDbEntity
  8
TEXT
100
AcDbLine
 10
1.405457392674601
 20
-0.1027394592008668
 30
0.0
 11
1.271439336743464
 21
-0.1027394592008668
 31
0.0
  0
LWPOLYLINE
  5
7DE1B343D9E0B2B
330
7DE1B343D9E0B7A
100
AcDbEntity
  8
TEXT
100
AcDbPolyline
 90
        2
 70
     0
 43
0.0
 10
1.405457392674601
 20
-0.1027394592008632
 42
-0.3328679258950098
 10
1.441239083387762
 20
-0.1299069559617592
 42
6.772930709997214
  0
LINE
  5
7DE1B343D9E0B2F
330
7DE1B343D9E0B7A
100
AcDbEntity
  8
TEXT
100
AcDbLine
 10
1.595320932916973
 20
-0.1027394592008668
 30
0.0
 11
1.595320932916973
 21
-0.1310620049705107
 31
0.0
  0
LWPOLYLINE
  5
7DE1B343D9E0B30
330
7DE1B343D9E0B7A
100
AcDbEntity
  8
TEXT
100
AcDbPolyline
 90
        2
 70
     0
 43
0.0
 10
1.559539242203806
 20
-0.1027394592008632
 42
-0.3277054968067132
 10
1.595320932916971
 20
-0.1310620049705071
 42
6.667889725900311
  0
LINE
  5
7DE1B343D9E0B34
330
7DE1B343D9E0B7A
100
AcDbEntity
  8
TEXT
100
AcDbLine
 10
1.809112781009073
 20
-0.2079514377542941
 30
0.0
 11
1.765362009827172
 21
-0.1257011617581489
 31
0.0
  0
LINE
  5
7DE1B343D9E0B35
330
7DE1B343D9E0B7A
100
AcDbEntity
  8
TEXT
100
AcDbLine
 10
1.809112781009073
 20
-0.1027394592008668
 30
0.0
 11
1.809112781009073
 21
-0.2079514377542941
 31
0.0
  0
LINE
  5
7DE1B343D9E0B36
330
7DE1B343D9E0B7A
100
AcDbEntity
  8
TEXT
100
AcDbLine
 10
2.036796519947442
 20
-0.1786047856124049
 30
0.0
 11
2.036796519947442
 21
-0.0372752534332661
 31
0.0
  0
LINE
  5
7DE1B343D9E0B37
330
7DE1B343D9E0B7A
100
AcDbEntity
  8
TEXT
100
AcDbLine
 10
2.083894678503427
 20
-0.1027394592008668
 30
0.0
 11
2.036796519947442
 21
-0.1786047856124049
 31
0.0
  0
LINE
  5
7DE1B343D9E0B38
330
7DE1B343D9E0B7A
100
AcDbEntity
  8
TEXT
100
AcDbLine
 10
2.09432939526735
 20
-0.2126327021418404
 30
0.0
 11
2.158886511233055
 21
-0.1027394592008668
 31
0.0
  0
LINE
  5
7DE1B343D9E0B39
330
7DE1B343D9E0B7A
100
AcDbEntity
  8
TEXT
100
AcDbLine
 10
1.972961528724669
 20
-0.3692124921893778
 30
0.0
 11
2.037339713043289
 21
-0.3692124921893778
 31
0.0
  0
LWPOLYLINE
  5
7DE1B343D9E0B3A
330
7DE1B343D9E0B7A
100
AcDbEntity
  8
TEXT
100
AcDbPolyline
 90
        2
 70
     0
 43
0.0
 10
1.813052458314111
 20
-0.3257215472389396
 42
-0.2901071551932486
 10
1.769976525446466
 20
-0.3692124921893778
 42
-5.328517124445184
  0
ARC
  5
7DE1B343D9E0B3E
330
7DE1B343D9E0B7A
100
AcDbEntity
  8
TEXT
100
AcDbCircle
 10
1.701121943789552
 20
-0.1953755288576295
 30
0.0
 40
0.028359375
100
AcDbArc
 50
25.78218179591245
 51
90.0
  0
LINE
  5
7DE1B343D9E0B3F
330
7DE1B343D9E0B7A
100
AcDbEntity
  8
TEXT
100
AcDbLine
 10
1.736923019093675
 20
-0.2042911273197645
 30
0.0
 11
1.726658258680111
 21
-0.1830405877470702
 31
0.0
  0
LINE
  5
7DE1B343D9E0B40
330
7DE1B343D9E0B7A
100
AcDbEntity
  8
TEXT
100
AcDbLine
 10
1.654635029310292
 20
-0.2042911273197645
 30
0.0
 11
1.736923019093675
 21
-0.2042911273197645
 31
0.0
  0
LWPOLYLINE
  5
7DE1B343D9E0B41
330
7DE1B343D9E0B7A
100
AcDbEntity
  8
TEXT
100
AcDbPolyline
 90
        4
 70
     1
 43
0.0
 10
1.749854060376574
 20
-0.2662485142053526
 10
1.661193741716715
 20
-0.2662485142053526
 42
0.9999999999999998
 10
1.661193741716715
 20
-0.3086470547092133
 10
1.749854060376574
 20
-0.3086470547092133
 42
1.0
  0
LWPOLYLINE
  5
7DE1B343D9E0B47
330
7DE1B343D9E0B7A
100
AcDbEntity
  8
TEXT
100
AcDbPolyline
 90
        2
 70
     0
 43
0.0
 10
1.63595910781509
 20
-0.3692124921893778
 10
1.769976525446466
 20
-0.3692124921893778
 42
0.9999999999999998
  0
LINE
  5
7DE1B343D9E0B4B
330
7DE1B343D9E0B7A
100
AcDbEntity
  8
TEXT
100
AcDbLine
 10
1.896313547432106
 20
-0.1670161538576322
 30
0.0
 11
1.972961528724664
 21
-0.1670161538576322
 31
0.0
  0
LINE
  5
7DE1B343D9E0B4C
330
7DE1B343D9E0B7A
100
AcDbEntity
  8
TEXT
100
AcDbLine
 10
1.972961528724664
 20
-0.1670161538576322
 30
0.0
 11
1.972961528724669
 21
-0.3692124921893778
 31
0.0
  0
ARC
  5
7DE1B343D9E0B4D
330
7DE1B343D9E0B7A
100
AcDbEntity
  8
TEXT
100
AcDbCircle
 10
1.896313547432104
 20
-0.191922029140295
 30
0.0
 40
0.0249058752826653
100
AcDbArc
 50
89.99971217465335
 51
179.9999999999985
  0
LINE
  5
7DE1B343D9E0B4E
330
7DE1B343D9E0B7A
100
AcDbEntity
  8
TEXT
100
AcDbLine
 10
1.871407672149447
 20
-0.3692124921893778
 30
0.0
 11
1.871407672149441
 21
-0.1919219867579094
 31
0.0
  0
LWPOLYLINE
  5
7DE1B343D9E0B4F
330
7DE1B343D9E0B7A
100
AcDbEntity
  8
TEXT
100
AcDbPolyline
 90
        2
 70
     0
 43
0.0
 10
1.813052458314111
 20
-0.3692124921893778
 10
1.871407672149445
 20
-0.3692124921893778
  0
LWPOLYLINE
  5
7DE1B343D9E0B53
330
7DE1B343D9E0B7A
100
AcDbEntity
  8
TEXT
100
AcDbPolyline
 90
        2
 70
     0
 43
0.0
 10
1.813052458314111
 20
-0.3257215472389396
 10
1.813052458314111
 20
-0.3692124921893778
  0
LINE
  5
7DE1B343D9E0B57
330
7DE1B343D9E0B7A
100
AcDbEntity
  8
TEXT
100
AcDbLine
 10
2.18982161863096
 20
-0.3692124921893778
 30
0.0
 11
2.09432939526735
 21
-0.2126327021418404
 31
0.0
  0
LINE
  5
7DE1B343D9E0B58
330
7DE1B343D9E0B7A
100
AcDbEntity
  8
TEXT
100
AcDbLine
 10
2.113243246254754
 20
-0.3692124921893778
 30
0.0
 11
2.18982161863096
 21
-0.3692124921893778
 31
0.0
  0
LINE
  5
7DE1B343D9E0B59
330
7DE1B343D9E0B7A
100
AcDbEntity
  8
TEXT
100
AcDbLine
 10
2.037339713043289
 20
-0.2376329237131975
 30
0.0
 11
2.113243246254754
 21
-0.3692124921893778
 31
0.0
  0
LINE
  5
7DE1B343D9E0B5A
330
7DE1B343D9E0B7A
100
AcDbEntity
  8
TEXT
100
AcDbLine
 10
2.037339713043289
 20
-0.3692124921893778
 30
0.0
 11
2.037339713043289
 21
-0.2376329237131975
 31
0.0
  0
LINE
  5
7DE1B343D9E0B5B
330
7DE1B343D9E0B7A
100
AcDbEntity
  8
TEXT
100
AcDbLine
 10
2.036796519947442
 20
-0.0372752534332661
 30
0.0
 11
1.968481641398169
 21
-0.0372752534332661
 31
0.0
  0
ARC
  5
7DE1B343D9E0B5C
330
7DE1B343D9E0B7A
100
AcDbEntity
  8
TEXT
100
AcDbCircle
 10
1.728125902356963
 20
-0.1443230263217692
 30
0.0
 40
0.0416329381542859
100
AcDbArc
 50
26.56974201007528
 51
87.20939649401342
  0
LINE
  5
7DE1B343D9E0B5D
330
7DE1B343D9E0B7A
100
AcDbEntity
  8
TEXT
100
AcDbLine
 10
1.873009687308574
 20
-0.1027394592008668
 30
0.0
 11
1.809112781009073
 21
-0.1027394592008668
 31
0.0
  0
LINE
  5
7DE1B343D9E0B5E
330
7DE1B343D9E0B7A
100
AcDbEntity
  8
TEXT
100
AcDbLine
 10
1.873009687308574
 20
-0.1302871090617415
 30
0.0
 11
1.873009687308574
 21
-0.1027394592008668
 31
0.0
  0
ARC
  5
7DE1B343D9E0B5F
330
7DE1B343D9E0B7A
100
AcDbEntity
  8
TEXT
100
AcDbCircle
 10
1.904202504371682
 20
-0.1339851864831316
 30
0.0
 40
0.0314112657011332
100
AcDbArc
 50
95.88484768694724
 51
173.2388340632136
  0
LINE
  5
7DE1B343D9E0B60
330
7DE1B343D9E0B7A
100
AcDbEntity
  8
TEXT
100
AcDbLine
 10
1.968481641398163
 20
-0.1027394592008668
 30
0.0
 11
1.900981923748647
 21
-0.1027394592008668
 31
0.0
  0
LINE
  5
7DE1B343D9E0B61
330
7DE1B343D9E0B7A
100
AcDbEntity
  8
TEXT
100
AcDbLine
 10
1.968481641398169
 20
-0.0372752534332661
 30
0.0
 11
1.968481641398163
 21
-0.1027394592008668
 31
0.0
  0
LINE
  5
7DE1B343D9E0B62
330
7DE1B343D9E0B7A
100
AcDbEntity
  8
TEXT
100
AcDbLine
 10
2.158886511233055
 20
-0.1027394592008668
 30
0.0
 11
2.083894678503428
 21
-0.1027394592008668
 31
0.0
  0
ENDSEC
  0
SECTION
  2
OBJECTS
  0
DICTIONARY
  5
7DE1B343D9E0B6E
330
0
100
AcDbDictionary
  3
ACAD_GROUP
350
7DE1B343D9E0B6F
  3
ACAD_LAYOUT
350
7DE1B343D9E0B94
  3
ACAD_MLINESTYLE
350
7DE1B343D9E0B70
  3
ACAD_PLOTSETTINGS
350
7DE1B343D9E0B95
  3
ACAD_PLOTSTYLENAME
350
7DE1B343D9E0B92
  3
ACDBHEADERROUNDTRIPXREC
350
7DE1B343D9E0B9F
  3
ACDBVARIABLEDICTIONARY
350
7DE1B343D9E0B9C
  0
DICTIONARY
  5
7DE1B343D9E0BC1
330
7DE1B343D9E0B7A
100
AcDbDictionary
280
     1
  3
ACAD_LAYOUTSELFREF
360
7DE1B343D9E0BC2
  0
DICTIONARY
  5
7DE1B343D9E0BBF
330
7DE1B343D9E0B77
100
AcDbDictionary
280
     1
  3
ACAD_LAYOUTSELFREF
360
7DE1B343D9E0BC0
  0
DICTIONARY
  5
7DE1B343D9E0B6F
102
{ACAD_REACTORS
330
7DE1B343D9E0B6E
102
}
330
7DE1B343D9E0B6E
100
AcDbDictionary
  0
DICTIONARY
  5
7DE1B343D9E0B94
102
{ACAD_REACTORS
330
7DE1B343D9E0B6E
102
}
330
7DE1B343D9E0B6E
100
AcDbDictionary
  0
DICTIONARY
  5
7DE1B343D9E0B70
102
{ACAD_REACTORS
330
7DE1B343D9E0B6E
102
}
330
7DE1B343D9E0B6E
100
AcDbDictionary
  3
STANDARD
350
7DE1B343D9E0B7D
  0
DICTIONARY
  5
7DE1B343D9E0B95
102
{ACAD_REACTORS
330
7DE1B343D9E0B6E
102
}
330
7DE1B343D9E0B6E
100
AcDbDictionary
  0
ACDBDICTIONARYWDFLT
  5
7DE1B343D9E0B92
102
{ACAD_REACTORS
330
7DE1B343D9E0B6E
102
}
330
7DE1B343D9E0B6E
100
AcDbDictionary
281
     1
  3
Normal
350
7DE1B343D9E0B93
100
AcDbDictionaryWithDefault
340
7DE1B343D9E0B93
  0
DICTIONARY
  5
7DE1B343D9E0B9F
102
{ACAD_REACTORS
330
7DE1B343D9E0B6E
102
}
330
7DE1B343D9E0B6E
100
AcDbDictionary
  3
CEPSNTYPE
350
7DE1B343D9E0BA9
  3
FINGERPRINTGUID
350
7DE1B343D9E0BAA
  3
HYPERLINKBASE
350
7DE1B343D9E0BA2
  3
INSUNITS
350
7DE1B343D9E0BA8
  3
LAYOUTDICT
350
7DE1B343D9E0BA4
  3
LWETCUNION
350
7DE1B343D9E0BA7
  3
PLOTSETDICT
350
7DE1B343D9E0BA5
  3
PLOTSTYLNAMDICT
350
7DE1B343D9E0BA6
  3
PSVPSCALE
350
7DE1B343D9E0BAC
  3
PUCSBASE
350
7DE1B343D9E0BAF
  3
PUCSORGBACK
350
7DE1B343D9E0BB5
  3
PUCSORGBOTTOM
350
7DE1B343D9E0BB1
  3
PUCSORGFRONT
350
7DE1B343D9E0BB4
  3
PUCSORGLEFT
350
7DE1B343D9E0BB2
  3
PUCSORGRIGHT
350
7DE1B343D9E0BB3
  3
PUCSORGTOP
350
7DE1B343D9E0BB0
  3
PUCSORTHOREF
350
7DE1B343D9E0BAD
  3
PUCSORTHOVIEW
350
7DE1B343D9E0BAE
  3
STYLESHEET
350
7DE1B343D9E0BA3
  3
TSTACKALIGN
350
7DE1B343D9E0BA0
  3
TSTACKSIZE
350
7DE1B343D9E0BA1
  3
UCSBASE
350
7DE1B343D9E0BB8
  3
UCSORGBACK
350
7DE1B343D9E0BBE
  3
UCSORGBOTTOM
350
7DE1B343D9E0BBA
  3
UCSORGFRONT
350
7DE1B343D9E0BBD
  3
UCSORGLEFT
350
7DE1B343D9E0BBB
  3
UCSORGRIGHT
350
7DE1B343D9E0BBC
  3
UCSORGTOP
350
7DE1B343D9E0BB9
  3
UCSORTHOREF
350
7DE1B343D9E0BB6
  3
UCSORTHOVIEW
350
7DE1B343D9E0BB7
  3
VERSIONGUID
350
7DE1B343D9E0BAB
  0
DICTIONARY
  5
7DE1B343D9E0B9C
102
{ACAD_REACTORS
330
7DE1B343D9E0B6E
102
}
330
7DE1B343D9E0B6E
100
AcDbDictionary
  3
DIMASSOC
350
7DE1B343D9E0B9D
  0
XRECORD
  5
7DE1B343D9E0BC2
102
{ACAD_REACTORS
330
7DE1B343D9E0BC1
102
}
330
7DE1B343D9E0BC1
100
AcDbXrecord
340
7DE1B343D9E0B7A
  0
XRECORD
  5
7DE1B343D9E0BC0
102
{ACAD_REACTORS
330
7DE1B343D9E0BBF
102
}
330
7DE1B343D9E0BBF
100
AcDbXrecord
340
7DE1B343D9E0B77
  0
MLINESTYLE
  5
7DE1B343D9E0B7D
102
{ACAD_REACTORS
330
7DE1B343D9E0B70
102
}
330
7DE1B343D9E0B70
100
AcDbMlineStyle
  2
STANDARD
 70
     0
  3

 62
     0
 51
90.0
 52
90.0
 71
     2
 49
0.5
 62
   256
  6
BYLAYER
 49
-0.5
 62
   256
  6
BYLAYER
  0
ACDBPLACEHOLDER
  5
7DE1B343D9E0B93
102
{ACAD_REACTORS
330
7DE1B343D9E0B92
102
}
330
7DE1B343D9E0B92
100
AcDbPlaceHolder
280
     0
  0
XRECORD
  5
7DE1B343D9E0BA9
102
{ACAD_REACTORS
330
7DE1B343D9E0B9F
102
}
330
7DE1B343D9E0B9F
100
AcDbXrecord
 90
        0
  0
XRECORD
  5
7DE1B343D9E0BAA
102
{ACAD_REACTORS
330
7DE1B343D9E0B9F
102
}
330
7DE1B343D9E0B9F
100
AcDbXrecord
  1
{A8EC5720-8DB9-11D6-88E6-0090279574E7}
  0
XRECORD
  5
7DE1B343D9E0BA2
102
{ACAD_REACTORS
330
7DE1B343D9E0B9F
102
}
330
7DE1B343D9E0B9F
100
AcDbXrecord
  1

  0
XRECORD
  5
7DE1B343D9E0BA8
102
{ACAD_REACTORS
330
7DE1B343D9E0B9F
102
}
330
7DE1B343D9E0B9F
100
AcDbXrecord
 90
        0
  0
XRECORD
  5
7DE1B343D9E0BA4
102
{ACAD_REACTORS
330
7DE1B343D9E0B9F
102
}
330
7DE1B343D9E0B9F
100
AcDbXrecord
340
7DE1B343D9E0B94
  0
XRECORD
  5
7DE1B343D9E0BA7
102
{ACAD_REACTORS
330
7DE1B343D9E0B9F
102
}
330
7DE1B343D9E0B9F
100
AcDbXrecord
 90
    14877
  0
XRECORD
  5
7DE1B343D9E0BA5
102
{ACAD_REACTORS
330
7DE1B343D9E0B9F
102
}
330
7DE1B343D9E0B9F
100
AcDbXrecord
340
7DE1B343D9E0B95
  0
XRECORD
  5
7DE1B343D9E0BA6
102
{ACAD_REACTORS
330
7DE1B343D9E0B9F
102
}
330
7DE1B343D9E0B9F
100
AcDbXrecord
340
7DE1B343D9E0B92
  0
XRECORD
  5
7DE1B343D9E0BAC
102
{ACAD_REACTORS
330
7DE1B343D9E0B9F
102
}
330
7DE1B343D9E0B9F
100
AcDbXrecord
 40
0.0
  0
XRECORD
  5
7DE1B343D9E0BAF
102
{ACAD_REACTORS
330
7DE1B343D9E0B9F
102
}
330
7DE1B343D9E0B9F
100
AcDbXrecord
340
0
  0
XRECORD
  5
7DE1B343D9E0BB5
102
{ACAD_REACTORS
330
7DE1B343D9E0B9F
102
}
330
7DE1B343D9E0B9F
100
AcDbXrecord
 10
0.0
 20
0.0
 30
0.0
  0
XRECORD
  5
7DE1B343D9E0BB1
102
{ACAD_REACTORS
330
7DE1B343D9E0B9F
102
}
330
7DE1B343D9E0B9F
100
AcDbXrecord
 10
0.0
 20
0.0
 30
0.0
  0
XRECORD
  5
7DE1B343D9E0BB4
102
{ACAD_REACTORS
330
7DE1B343D9E0B9F
102
}
330
7DE1B343D9E0B9F
100
AcDbXrecord
 10
0.0
 20
0.0
 30
0.0
  0
XRECORD
  5
7DE1B343D9E0BB2
102
{ACAD_REACTORS
330
7DE1B343D9E0B9F
102
}
330
7DE1B343D9E0B9F
100
AcDbXrecord
 10
0.0
 20
0.0
 30
0.0
  0
XRECORD
  5
7DE1B343D9E0BB3
102
{ACAD_REACTORS
330
7DE1B343D9E0B9F
102
}
330
7DE1B343D9E0B9F
100
AcDbXrecord
 10
0.0
 20
0.0
 30
0.0
  0
XRECORD
  5
7DE1B343D9E0BB0
102
{ACAD_REACTORS
330
7DE1B343D9E0B9F
102
}
330
7DE1B343D9E0B9F
100
AcDbXrecord
 10
0.0
 20
0.0
 30
0.0
  0
XRECORD
  5
7DE1B343D9E0BAD
102
{ACAD_REACTORS
330
7DE1B343D9E0B9F
102
}
330
7DE1B343D9E0B9F
100
AcDbXrecord
340
0
  0
XRECORD
  5
7DE1B343D9E0BAE
102
{ACAD_REACTORS
330
7DE1B343D9E0B9F
102
}
330
7DE1B343D9E0B9F
100
AcDbXrecord
 70
     0
  0
XRECORD
  5
7DE1B343D9E0BA3
102
{ACAD_REACTORS
330
7DE1B343D9E0B9F
102
}
330
7DE1B343D9E0B9F
100
AcDbXrecord
  1

  0
XRECORD
  5
7DE1B343D9E0BA0
102
{ACAD_REACTORS
330
7DE1B343D9E0B9F
102
}
330
7DE1B343D9E0B9F
100
AcDbXrecord
 90
        1
  0
XRECORD
  5
7DE1B343D9E0BA1
102
{ACAD_REACTORS
330
7DE1B343D9E0B9F
102
}
330
7DE1B343D9E0B9F
100
AcDbXrecord
 90
       70
  0
XRECORD
  5
7DE1B343D9E0BB8
102
{ACAD_REACTORS
330
7DE1B343D9E0B9F
102
}
330
7DE1B343D9E0B9F
100
AcDbXrecord
340
0
  0
XRECORD
  5
7DE1B343D9E0BBE
102
{ACAD_REACTORS
330
7DE1B343D9E0B9F
102
}
330
7DE1B343D9E0B9F
100
AcDbXrecord
 10
0.0
 20
0.0
 30
0.0
  0
XRECORD
  5
7DE1B343D9E0BBA
102
{ACAD_REACTORS
330
7DE1B343D9E0B9F
102
}
330
7DE1B343D9E0B9F
100
AcDbXrecord
 10
0.0
 20
0.0
 30
0.0
  0
XRECORD
  5
7DE1B343D9E0BBD
102
{ACAD_REACTORS
330
7DE1B343D9E0B9F
102
}
330
7DE1B343D9E0B9F
100
AcDbXrecord
 10
0.0
 20
0.0
 30
0.0
  0
XRECORD
  5
7DE1B343D9E0BBB
102
{ACAD_REACTORS
330
7DE1B343D9E0B9F
102
}
330
7DE1B343D9E0B9F
100
AcDbXrecord
 10
0.0
 20
0.0
 30
0.0
  0
XRECORD
  5
7DE1B343D9E0BBC
102
{ACAD_REACTORS
330
7DE1B343D9E0B9F
102
}
330
7DE1B343D9E0B9F
100
AcDbXrecord
 10
0.0
 20
0.0
 30
0.0
  0
XRECORD
  5
7DE1B343D9E0BB9
102
{ACAD_REACTORS
330
7DE1B343D9E0B9F
102
}
330
7DE1B343D9E0B9F
100
AcDbXrecord
 10
0.0
 20
0.0
 30
0.0
  0
XRECORD
  5
7DE1B343D9E0BB6
102
{ACAD_REACTORS
330
7DE1B343D9E0B9F
102
}
330
7DE1B343D9E0B9F
100
AcDbXrecord
340
0
  0
XRECORD
  5
7DE1B343D9E0BB7
102
{ACAD_REACTORS
330
7DE1B343D9E0B9F
102
}
330
7DE1B343D9E0B9F
100
AcDbXrecord
 70
     0
  0
XRECORD
  5
7DE1B343D9E0BAB
102
{ACAD_REACTORS
330
7DE1B343D9E0B9F
102
}
330
7DE1B343D9E0B9F
100
AcDbXrecord
  1
{A8EC5722-8DB9-11D6-88E6-0090279574E7}
  0
DICTIONARYVAR
  5
7DE1B343D9E0B9D
102
{ACAD_REACTORS
330
7DE1B343D9E0B9C
102
}
330
7DE1B343D9E0B9C
100
DictionaryVariables
280
     0
  1
1
  0
ENDSEC
  0
EOF
