  0
SECTION
  2
HEADER
  9
$ACADVER
  1
AC1014
  9
$ACADMAINTVER
 70
     9
  9
$DWGCODEPAGE
  3
ANSI_1252
  9
$INSBASE
 10
1.171493903631569
 20
1.131147591828195
 30
0.0
  9
$EXTMIN
 10
0.016164765814864
 20
-0.0954584336132767
 30
0.0
  9
$EXTMAX
 10
3.501384087561991
 20
2.756147591828195
 30
0.0
  9
$LIMMIN
 10
0.0
 20
0.0
  9
$LIMMAX
 10
18.0
 20
12.0
  9
$ORTHOMODE
 70
     1
  9
$REGENMODE
 70
     1
  9
$FILLMODE
 70
     1
  9
$QTEXTMODE
 70
     0
  9
$MIRRTEXT
 70
     0
  9
$DRAGMODE
 70
     2
  9
$LTSCALE
 40
1.0
  9
$OSMODE
 70
    39
  9
$ATTMODE
 70
     1
  9
$TEXTSIZE
 40
0.125
  9
$TRACEWID
 40
0.05
  9
$TEXTSTYLE
  7
ROMANS
  9
$CLAYER
  8
0
  9
$CELTYPE
  6
BYLAYER
  9
$CECOLOR
 62
   256
  9
$CELTSCALE
 40
1.0
  9
$DELOBJ
 70
     1
  9
$DISPSILH
 70
     1
  9
$DIMSCALE
 40
1.0
  9
$DIMASZ
 40
0.125
  9
$DIMEXO
 40
0.125
  9
$DIMDLI
 40
0.375
  9
$DIMRND
 40
0.0
  9
$DIMDLE
 40
0.0
  9
$DIMEXE
 40
0.125
  9
$DIMTP
 40
0.0
  9
$DIMTM
 40
0.0
  9
$DIMTXT
 40
0.125
  9
$DIMCEN
 40
-0.125
  9
$DIMTSZ
 40
0.0
  9
$DIMTOL
 70
     0
  9
$DIMLIM
 70
     0
  9
$DIMTIH
 70
     1
  9
$DIMTOH
 70
     1
  9
$DIMSE1
 70
     0
  9
$DIMSE2
 70
     0
  9
$DIMTAD
 70
     0
  9
$DIMZIN
 70
     4
  9
$DIMBLK
  1

  9
$DIMASO
 70
     1
  9
$DIMSHO
 70
     1
  9
$DIMPOST
  1

  9
$DIMAPOST
  1

  9
$DIMALT
 70
     0
  9
$DIMALTD
 70
     2
  9
$DIMALTF
 40
25.4
  9
$DIMLFAC
 40
1.0
  9
$DIMTOFL
 70
     0
  9
$DIMTVP
 40
0.0
  9
$DIMTIX
 70
     1
  9
$DIMSOXD
 70
     0
  9
$DIMSAH
 70
     0
  9
$DIMBLK1
  1

  9
$DIMBLK2
  1

  9
$DIMSTYLE
  2
STANDARD
  9
$DIMCLRD
 70
     0
  9
$DIMCLRE
 70
     0
  9
$DIMCLRT
 70
     0
  9
$DIMTFAC
 40
1.0
  9
$DIMGAP
 40
0.09
  9
$DIMJUST
 70
     0
  9
$DIMSD1
 70
     0
  9
$DIMSD2
 70
     0
  9
$DIMTOLJ
 70
     1
  9
$DIMTZIN
 70
     4
  9
$DIMALTZ
 70
     0
  9
$DIMALTTZ
 70
     0
  9
$DIMFIT
 70
     3
  9
$DIMUPT
 70
     0
  9
$DIMUNIT
 70
     2
  9
$DIMDEC
 70
     3
  9
$DIMTDEC
 70
     3
  9
$DIMALTU
 70
     2
  9
$DIMALTTD
 70
     2
  9
$DIMTXSTY
  7
ROMANS
  9
$DIMAUNIT
 70
     0
  9
$LUNITS
 70
     2
  9
$LUPREC
 70
     3
  9
$SKETCHINC
 40
0.1
  9
$FILLETRAD
 40
0.03125
  9
$AUNITS
 70
     0
  9
$AUPREC
 70
     0
  9
$MENU
  1
ACAD
  9
$ELEVATION
 40
0.0
  9
$PELEVATION
 40
0.0
  9
$THICKNESS
 40
0.0
  9
$LIMCHECK
 70
     0
  9
$BLIPMODE
 70
     0
  9
$CHAMFERA
 40
0.0
  9
$CHAMFERB
 40
0.0
  9
$CHAMFERC
 40
0.0
  9
$CHAMFERD
 40
0.0
  9
$SKPOLY
 70
     0
  9
$TDCREATE
 40
2448994.691761110
  9
$TDUPDATE
 40
2452458.323541944
  9
$TDINDWG
 40
0.0005009375
  9
$TDUSRTIMER
 40
0.0005009375
  9
$USRTIMER
 70
     1
  9
$ANGBASE
 50
0.0
  9
$ANGDIR
 70
     0
  9
$PDMODE
 70
     0
  9
$PDSIZE
 40
0.0
  9
$PLINEWID
 40
0.0
  9
$COORDS
 70
     2
  9
$SPLFRAME
 70
     0
  9
$SPLINETYPE
 70
     6
  9
$SPLINESEGS
 70
     8
  9
$ATTDIA
 70
     0
  9
$ATTREQ
 70
     1
  9
$HANDLING
 70
 22529
  9
$HANDSEED
  5
7DE1B343D9E07BA
  9
$SURFTAB1
 70
     6
  9
$SURFTAB2
 70
     6
  9
$SURFTYPE
 70
     6
  9
$SURFU
 70
     6
  9
$SURFV
 70
     6
  9
$UCSNAME
  2

  9
$UCSORG
 10
0.0
 20
0.0
 30
0.0
  9
$UCSXDIR
 10
1.0
 20
0.0
 30
0.0
  9
$UCSYDIR
 10
0.0
 20
1.0
 30
0.0
  9
$PUCSNAME
  2

  9
$PUCSORG
 10
0.0
 20
0.0
 30
0.0
  9
$PUCSXDIR
 10
1.0
 20
0.0
 30
0.0
  9
$PUCSYDIR
 10
0.0
 20
1.0
 30
0.0
  9
$USERI1
 70
     0
  9
$USERI2
 70
     0
  9
$USERI3
 70
     0
  9
$USERI4
 70
     0
  9
$USERI5
 70
     0
  9
$USERR1
 40
0.0
  9
$USERR2
 40
0.0
  9
$USERR3
 40
0.0
  9
$USERR4
 40
0.0
  9
$USERR5
 40
0.0
  9
$WORLDVIEW
 70
     1
  9
$SHADEDGE
 70
     3
  9
$SHADEDIF
 70
    70
  9
$TILEMODE
 70
     1
  9
$MAXACTVP
 70
    16
  9
$PINSBASE
 10
0.5209898309810318
 20
50.00000000000001
 30
0.5030487805275542
  9
$PLIMCHECK
 70
     0
  9
$PEXTMIN
 10
1.000000000000000E+20
 20
1.000000000000000E+20
 30
1.000000000000000E+20
  9
$PEXTMAX
 10
-1.000000000000000E+20
 20
-1.000000000000000E+20
 30
-1.000000000000000E+20
  9
$PLIMMIN
 10
0.0
 20
0.0
  9
$PLIMMAX
 10
12.0
 20
9.0
  9
$UNITMODE
 70
     0
  9
$VISRETAIN
 70
     0
  9
$PLINEGEN
 70
     1
  9
$PSLTSCALE
 70
     0
  9
$TREEDEPTH
 70
  3020
  9
$PICKSTYLE
 70
     1
  9
$CMLSTYLE
  2
STANDARD
  9
$CMLJUST
 70
     0
  9
$CMLSCALE
 40
1.0
  9
$PROXYGRAPHICS
 70
     1
  9
$MEASUREMENT
 70
     0
  0
ENDSEC
  0
SECTION
  2
CLASSES
  0
CLASS
  1
LWPOLYLINE
  2
AcDbPolyline
  3
AutoCAD 2000
 90
        0
280
     0
281
     1
  0
CLASS
  1
ACDBDICTIONARYWDFLT
  2
AcDbDictionaryWithDefault
  3
AutoCAD 2000
 90
        0
280
     0
281
     0
  0
CLASS
  1
ACDBPLACEHOLDER
  2
AcDbPlaceHolder
  3
AutoCAD 2000
 90
        0
280
     0
281
     0
  0
CLASS
  1
LAYOUT
  2
AcDbLayout
  3
AutoCAD 2000
 90
        0
280
     0
281
     0
  0
CLASS
  1
DICTIONARYVAR
  2
AcDbDictionaryVar
  3
AutoCAD 2000
 90
        0
280
     0
281
     0
  0
CLASS
  1
LONG_TRANSACTION
  2
AcDbLongTransaction
  3
AutoCAD 2000
 90
        0
280
     0
281
     0
  0
CLASS
  1
LWPOLYLINE
  2
AcDbPolyline
  3
AutoCAD 2000
 90
        0
280
     0
281
     1
  0
CLASS
  1
HATCH
  2
AcDbHatch
  3
AutoCAD 2000
 90
        0
280
     0
281
     1
  0
CLASS
  1
XRECORD
  2
AcDbXrecord
  3
AutoCAD 2000
 90
        0
280
     0
281
     0
  0
ENDSEC
  0
SECTION
  2
TABLES
  0
TABLE
  2
VPORT
  5
7DE1B343D9E075B
330
0
100
AcDbSymbolTable
 70
     2
  0
VPORT
  5
7DE1B343D9E0795
330
7DE1B343D9E075B
100
AcDbSymbolTableRecord
100
AcDbViewportTableRecord
  2
*ACTIVE
 70
     0
 10
0.0
 20
0.0
 11
1.0
 21
1.0
 12
5.958240745516459
 22
1.330050111328478
 13
0.0
 23
0.0
 14
0.015625
 24
0.015625
 15
0.0
 25
0.0
 16
0.0
 26
0.0
 36
1.0
 17
0.0
 27
0.0
 37
0.0
 40
3.220283804333581
 41
4.320930232558139
 42
50.0
 43
0.0
 44
0.0
 50
0.0
 51
0.0
 71
     0
 72
  2000
 73
     1
 74
     0
 75
     0
 76
     0
 77
     0
 78
     0
  0
ENDTAB
  0
TABLE
  2
LTYPE
  5
7DE1B343D9E0758
330
0
100
AcDbSymbolTable
 70
     1
  0
LTYPE
  5
7DE1B343D9E0765
330
7DE1B343D9E0758
100
AcDbSymbolTableRecord
100
AcDbLinetypeTableRecord
  2
BYBLOCK
 70
     0
  3

 72
    65
 73
     0
 40
0.0
  0
LTYPE
  5
7DE1B343D9E0766
330
7DE1B343D9E0758
100
AcDbSymbolTableRecord
100
AcDbLinetypeTableRecord
  2
BYLAYER
 70
     0
  3

 72
    65
 73
     0
 40
0.0
  0
LTYPE
  5
7DE1B343D9E0767
330
7DE1B343D9E0758
100
AcDbSymbolTableRecord
100
AcDbLinetypeTableRecord
  2
CONTINUOUS
 70
     0
  3
Solid line
 72
    65
 73
     0
 40
0.0
  0
ENDTAB
  0
TABLE
  2
LAYER
  5
7DE1B343D9E0755
330
0
100
AcDbSymbolTable
 70
     2
  0
LAYER
  5
7DE1B343D9E0762
330
7DE1B343D9E0755
100
AcDbSymbolTableRecord
100
AcDbLayerTableRecord
  2
0
 70
     0
 62
     7
  6
CONTINUOUS
  0
LAYER
  5
7DE1B343D9E0772
330
7DE1B343D9E0755
100
AcDbSymbolTableRecord
100
AcDbLayerTableRecord
  2
TEXT
 70
     0
 62
     3
  6
CONTINUOUS
  0
ENDTAB
  0
TABLE
  2
STYLE
  5
7DE1B343D9E0756
330
0
100
AcDbSymbolTable
 70
     3
  0
STYLE
  5
7DE1B343D9E0763
330
7DE1B343D9E0756
100
AcDbSymbolTableRecord
100
AcDbTextStyleTableRecord
  2
STANDARD
 70
     0
 40
0.0
 41
1.0
 50
0.0
 71
     0
 42
0.3125
  3
txt
  4

  0
STYLE
  5
7DE1B343D9E076F
330
7DE1B343D9E0756
100
AcDbSymbolTableRecord
100
AcDbTextStyleTableRecord
  2
ITALICC
 70
     0
 40
0.0
 41
1.0
 50
0.0
 71
     0
 42
0.125
  3
italicc
  4

  0
STYLE
  5
7DE1B343D9E077F
330
7DE1B343D9E0756
100
AcDbSymbolTableRecord
100
AcDbTextStyleTableRecord
  2
ROMANS
 70
     0
 40
0.0
 41
1.0
 50
0.0
 71
     0
 42
0.125
  3
romans.shx
  4

  0
ENDTAB
  0
TABLE
  2
VIEW
  5
7DE1B343D9E0759
330
0
100
AcDbSymbolTable
 70
     0
  0
ENDTAB
  0
TABLE
  2
UCS
  5
7DE1B343D9E075A
330
0
100
AcDbSymbolTable
 70
     0
  0
ENDTAB
  0
TABLE
  2
APPID
  5
7DE1B343D9E075C
330
0
100
AcDbSymbolTable
 70
     1
  0
APPID
  5
7DE1B343D9E0764
330
7DE1B343D9E075C
100
AcDbSymbolTableRecord
100
AcDbRegAppTableRecord
  2
ACAD
 70
     0
  0
ENDTAB
  0
TABLE
  2
DIMSTYLE
  5
7DE1B343D9E075D
330
0
100
AcDbSymbolTable
 70
     1
  0
DIMSTYLE
105
7DE1B343D9E0777
330
7DE1B343D9E075D
100
AcDbSymbolTableRecord
100
AcDbDimStyleTableRecord
  2
STANDARD
 70
     0
  3

  4

  5

  6

  7

 40
1.0
 41
0.125
 42
0.125
 43
0.375
 44
0.125
 45
0.0
 46
0.0
 47
0.0
 48
0.0
140
0.125
141
-0.125
142
0.0
143
25.4
144
1.0
145
0.0
146
1.0
147
0.09
 71
     0
 72
     0
 73
     1
 74
     1
 75
     0
 76
     0
 77
     0
 78
     4
170
     0
171
     2
172
     0
173
     0
174
     1
175
     0
176
     0
177
     0
178
     0
270
     2
271
     3
272
     3
273
     2
274
     2
340
7DE1B343D9E077F
275
     0
280
     0
281
     0
282
     0
283
     1
284
     4
285
     0
286
     0
287
     3
288
     0
  0
ENDTAB
  0
TABLE
  2
BLOCK_RECORD
  5
7DE1B343D9E0754
330
0
100
AcDbSymbolTable
 70
     0
  0
BLOCK_RECORD
  5
7DE1B343D9E076B
102
{ACAD_XDICTIONARY
360
7DE1B343D9E07B8
102
}
330
7DE1B343D9E0754
100
AcDbSymbolTableRecord
100
AcDbBlockTableRecord
  2
*MODEL_SPACE
  0
BLOCK_RECORD
  5
7DE1B343D9E0768
102
{ACAD_XDICTIONARY
360
7DE1B343D9E07B6
102
}
330
7DE1B343D9E0754
100
AcDbSymbolTableRecord
100
AcDbBlockTableRecord
  2
*PAPER_SPACE
  0
ENDTAB
  0
ENDSEC
  0
SECTION
  2
BLOCKS
  0
BLOCK
  5
7DE1B343D9E0775
330
7DE1B343D9E076B
100
AcDbEntity
  8
0
100
AcDbBlockBegin
  2
*MODEL_SPACE
 70
     0
 10
0.0
 20
0.0
 30
0.0
  3
*MODEL_SPACE
  1

  0
ENDBLK
  5
7DE1B343D9E0776
330
7DE1B343D9E076B
100
AcDbEntity
  8
0
100
AcDbBlockEnd
  0
BLOCK
  5
7DE1B343D9E0773
330
7DE1B343D9E0768
100
AcDbEntity
 67
     1
  8
0
100
AcDbBlockBegin
  2
*PAPER_SPACE
 70
     0
 10
0.0
 20
0.0
 30
0.0
  3
*PAPER_SPACE
  1

  0
ENDBLK
  5
7DE1B343D9E0774
330
7DE1B343D9E0768
100
AcDbEntity
 67
     1
  8
0
100
AcDbBlockEnd
  0
ENDSEC
  0
SECTION
  2
ENTITIES
  0
LWPOLYLINE
  5
7DE1B343D9DF16B
330
7DE1B343D9E076B
100
AcDbEntity
  8
0
100
AcDbPolyline
 90
       44
 70
     1
 43
0.0
 10
0.8539939036315693
 20
1.396772591828195
 10
0.9527439036315692
 20
1.396772591828195
 10
0.9996189036315692
 20
1.443647591828195
 10
1.233993903631569
 20
1.443647591828195
 10
1.233993903631569
 20
1.818647591828195
 10
1.296493903631569
 20
1.818647591828195
 10
1.296493903631569
 20
2.371147591828196
 10
1.286493903631569
 20
2.381147591828196
 10
1.296493903631569
 20
2.391147591828195
 10
1.296493903631569
 20
2.724897591828195
 42
1.0
 10
1.233993903631569
 20
2.724897591828195
 10
1.233993903631569
 20
1.881147591828195
 10
1.171493903631569
 20
1.881147591828195
 10
1.171493903631569
 20
1.506147591828195
 10
0.7964939036315693
 20
1.506147591828195
 42
0.4142135623730951
 10
0.7339939036315693
 20
1.443647591828195
 10
0.7339939036315693
 20
1.193647591828195
 42
0.4142135623730951
 10
0.7964939036315693
 20
1.131147591828195
 10
1.171493903631569
 20
1.131147591828195
 10
1.171493903631569
 20
0.7561475918281959
 42
0.4142135623730951
 10
1.233993903631569
 20
0.6936475918281959
 10
1.483993903631569
 20
0.6936475918281959
 42
0.4142135623730951
 10
1.546493903631569
 20
0.7561475918281959
 10
1.546493903631569
 20
1.131147591828195
 10
1.921493903631569
 20
1.131147591828195
 10
1.921493903631569
 20
1.193647591828195
 10
2.765243903631568
 20
1.193647591828195
 42
1.0
 10
2.765243903631568
 20
1.256147591828195
 10
2.431493903631569
 20
1.256147591828195
 10
2.421493903631569
 20
1.246147591828196
 10
2.411493903631569
 20
1.256147591828195
 10
1.858993903631569
 20
1.256147591828195
 10
1.858993903631569
 20
1.193647591828195
 10
1.483993903631569
 20
1.193647591828195
 10
1.483993903631569
 20
0.9592725918281958
 10
1.437118903631569
 20
0.9123975918281958
 10
1.437118903631569
 20
0.8136475918281959
 10
1.280868903631569
 20
0.8136475918281959
 10
1.280868903631569
 20
0.9123975918281958
 10
1.233993903631569
 20
0.9592725918281958
 10
1.233993903631569
 20
1.193647591828195
 10
0.9996189036315692
 20
1.193647591828195
 10
0.9527439036315692
 20
1.240522591828195
 10
0.8539939036315693
 20
1.240522591828195
  0
TEXT
  5
7DE1B343D9E0616
330
7DE1B343D9E076B
100
AcDbEntity
  8
TEXT
100
AcDbText
 10
1.006170154565816
 20
0.3625601704693049
 30
0.0
 40
0.125
  1
PART #120063
  7
ITALICC
 72
     1
 11
1.759146345042007
 21
0.3625601704693049
 31
0.0
100
AcDbText
  0
TEXT
  5
7DE1B343D9E0617
330
7DE1B343D9E076B
100
AcDbEntity
  8
TEXT
100
AcDbText
 10
2.172451503292327
 20
-0.0843624722030703
 30
0.0
 40
0.0522247191011236
  1
Phone  1-800-328-2495
 41
1.272321428571429
 72
     5
 11
3.501384087561991
 21
-0.0843624722030703
 31
0.0
100
AcDbText
  0
TEXT
  5
7DE1B343D9E0618
330
7DE1B343D9E076B
100
AcDbEntity
  8
TEXT
100
AcDbText
 10
2.172451503292327
 20
0.1954128086958062
 30
0.0
 40
0.0522247191011236
  1
Stylmark  Incorporated
 41
1.221428571428571
 72
     5
 11
3.501384087561991
 21
0.1954128086958062
 31
0.0
100
AcDbText
  0
TEXT
  5
7DE1B343D9E0619
330
7DE1B343D9E076B
100
AcDbEntity
  8
TEXT
100
AcDbText
 10
2.172451503292327
 20
0.1021543817295141
 30
0.0
 40
0.0522247191011236
  1
6536 Main St. N.E. * P.O. Box 32008
 41
0.8388932496075355
 72
     5
 11
3.501384087561991
 21
0.1021543817295141
 31
0.0
100
AcDbText
  0
TEXT
  5
7DE1B343D9E061A
330
7DE1B343D9E076B
100
AcDbEntity
  8
TEXT
100
AcDbText
 10
2.172451503292327
 20
0.0088959547632219
 30
0.0
 40
0.0522247191011236
  1
Minneapolis, MN 55432-0008
 41
1.11444212721585
 72
     5
 11
3.501384087561991
 21
0.0088959547632219
 31
0.0
100
AcDbText
  0
LWPOLYLINE
  5
7DE1B343D9E061B
330
7DE1B343D9E076B
100
AcDbEntity
  8
TEXT
100
AcDbPolyline
 90
        3
 70
     0
 43
0.0006660908203125
 10
0.0164978112250203
 20
0.0292822904343646
 10
0.0164978112250203
 20
-0.0839531490187631
 10
0.1297332506781426
 20
-0.0839531490187631
  0
LWPOLYLINE
  5
7DE1B343D9E0620
330
7DE1B343D9E076B
100
AcDbEntity
  8
TEXT
100
AcDbPolyline
 90
        3
 70
     0
 43
0.0006660908203125
 10
0.0431414440375178
 20
0.0292822904343646
 10
0.0431414440375178
 20
-0.057309516206262
 10
0.1297332506781426
 20
-0.057309516206262
  0
LWPOLYLINE
  5
7DE1B343D9E0625
330
7DE1B343D9E076B
100
AcDbEntity
  8
TEXT
100
AcDbPolyline
 90
        2
 70
     0
 43
0.0001332181640625
 10
0.0897678014593946
 20
0.0392736527390498
 10
0.0164978112250203
 20
0.0292822904343646
  0
LWPOLYLINE
  5
7DE1B343D9E0629
330
7DE1B343D9E076B
100
AcDbEntity
  8
TEXT
100
AcDbPolyline
 90
        2
 70
     0
 43
0.0001332181640625
 10
0.0431414440375178
 20
0.0292822904343646
 10
0.1030896178656451
 20
0.0392736527390498
  0
LWPOLYLINE
  5
7DE1B343D9E062D
330
7DE1B343D9E076B
100
AcDbEntity
  8
TEXT
100
AcDbPolyline
 90
        2
 70
     0
 43
0.0001332181640625
 10
0.0431414440375178
 20
-0.057309516206262
 10
0.1030896178656451
 20
0.0026386576218636
  0
LWPOLYLINE
  5
7DE1B343D9E0631
330
7DE1B343D9E076B
100
AcDbEntity
  8
TEXT
100
AcDbPolyline
 90
        3
 70
     0
 43
0.0006660908203125
 10
0.1297332506781426
 20
0.1824831791062402
 10
0.0164978112250203
 20
0.1824831791062402
 10
0.0164978112250203
 20
0.0692477396531126
  0
LWPOLYLINE
  5
7DE1B343D9E0636
330
7DE1B343D9E076B
100
AcDbEntity
  8
TEXT
100
AcDbPolyline
 90
        3
 70
     0
 43
0.0006660908203125
 10
0.1297332506781426
 20
0.1558395462937392
 10
0.0431414440375178
 20
0.1558395462937392
 10
0.0431414440375178
 20
0.0692477396531126
  0
LWPOLYLINE
  5
7DE1B343D9E063B
330
7DE1B343D9E076B
100
AcDbEntity
  8
TEXT
100
AcDbPolyline
 90
        2
 70
     0
 43
0.0001332181640625
 10
0.0431414440375178
 20
0.1558395462937392
 10
0.1030896178656433
 20
0.0958913724656137
  0
LWPOLYLINE
  5
7DE1B343D9E063F
330
7DE1B343D9E076B
100
AcDbEntity
  8
TEXT
100
AcDbPolyline
 90
        2
 70
     0
 43
0.0001332181640625
 10
0.0431414440375178
 20
0.0692477396531126
 10
0.1030896178656433
 20
0.0592563773484238
  0
LWPOLYLINE
  5
7DE1B343D9E0643
330
7DE1B343D9E076B
100
AcDbEntity
  8
TEXT
100
AcDbPolyline
 90
        2
 70
     0
 43
0.0001332181640625
 10
0.0164978112250203
 20
0.0692477396531126
 10
0.0897678014593946
 20
0.0592563773484238
  0
LWPOLYLINE
  5
7DE1B343D9E0647
330
7DE1B343D9E076B
100
AcDbEntity
  8
TEXT
100
AcDbPolyline
 90
        2
 70
     0
 43
0.0006660908203125
 10
0.0431414440375178
 20
0.0292822904343646
 10
0.0164978112250203
 20
0.0292822904343646
  0
LWPOLYLINE
  5
7DE1B343D9E064B
330
7DE1B343D9E076B
100
AcDbEntity
  8
TEXT
100
AcDbPolyline
 90
        2
 70
     0
 43
0.0006660908203125
 10
0.0431414440375178
 20
0.0692477396531126
 10
0.0164978112250203
 20
0.0692477396531126
  0
LINE
  5
7DE1B343D9E064F
330
7DE1B343D9E076B
100
AcDbEntity
  8
TEXT
100
AcDbLine
 10
1.531688240351517
 20
0.1182064844494712
 30
0.0
 11
1.424481966964228
 21
0.1182064844494712
 31
0.0
  0
LINE
  5
7DE1B343D9E0650
330
7DE1B343D9E076B
100
AcDbEntity
  8
TEXT
100
AcDbLine
 10
1.560719138695996
 20
0.1824831791062367
 30
0.0
 11
1.425887229478937
 21
0.1824831791062367
 31
0.0
  0
ARC
  5
7DE1B343D9E0651
330
7DE1B343D9E076B
100
AcDbEntity
  8
TEXT
100
AcDbCircle
 10
1.485201325872254
 20
0.0132459298432204
 30
0.0
 40
0.0676855811441166
100
AcDbArc
 50
90.0
 51
153.7768192527749
  0
LWPOLYLINE
  5
7DE1B343D9E0652
330
7DE1B343D9E076B
100
AcDbEntity
  8
TEXT
100
AcDbPolyline
 90
        2
 70
     0
 43
0.0
 10
1.423449471509418
 20
-0.0404989089318362
 42
0.2901071551932823
 10
1.466525404377053
 20
-0.0839898538822743
 42
5.328517124445801
  0
ARC
  5
7DE1B343D9E0656
330
7DE1B343D9E076B
100
AcDbEntity
  8
TEXT
100
AcDbCircle
 10
0.7800699482007683
 20
-0.0241974625442245
 30
0.0
 40
0.0601160179737537
100
AcDbArc
 50
180.0000000000003
 51
264.0521544866073
  0
LINE
  5
7DE1B343D9E0657
330
7DE1B343D9E076B
100
AcDbEntity
  8
TEXT
100
AcDbLine
 10
0.7835853038263161
 20
0.2168710967003748
 30
0.0
 11
0.7235426989823091
 21
0.2168710967003748
 31
0.0
  0
ARC
  5
7DE1B343D9E0658
330
7DE1B343D9E076B
100
AcDbEntity
  8
TEXT
100
AcDbCircle
 10
0.5478109460837977
 20
0.1003957196597349
 30
0.0
 40
0.0820874594465043
100
AcDbArc
 50
90.0
 51
270.0
  0
LWPOLYLINE
  5
7DE1B343D9E0659
330
7DE1B343D9E076B
100
AcDbEntity
  8
TEXT
100
AcDbPolyline
 90
        2
 70
     0
 43
0.0001332181640625
 10
0.1397246129828331
 20
0.1092131888718606
 10
0.1297332506781426
 20
0.1824831791062402
  0
LWPOLYLINE
  5
7DE1B343D9E065D
330
7DE1B343D9E076B
100
AcDbEntity
  8
TEXT
100
AcDbPolyline
 90
        2
 70
     0
 43
0.0001332181640625
 10
0.1297332506781426
 20
0.1558395462937392
 10
0.1397246129828331
 20
0.0958913724656137
  0
LWPOLYLINE
  5
7DE1B343D9E0661
330
7DE1B343D9E076B
100
AcDbEntity
  8
TEXT
100
AcDbPolyline
 90
        3
 70
     0
 43
0.0006660908203125
 10
0.28293413935002
 20
0.0692477396531126
 10
0.28293413935002
 20
0.1824831791062402
 10
0.1696986998968941
 20
0.1824831791062402
  0
LWPOLYLINE
  5
7DE1B343D9E0666
330
7DE1B343D9E076B
100
AcDbEntity
  8
TEXT
100
AcDbPolyline
 90
        3
 70
     0
 43
0.0006660908203125
 10
0.2562905065375189
 20
0.0692477396531126
 10
0.2562905065375189
 20
0.1558395462937392
 10
0.1696986998968941
 20
0.1558395462937392
  0
LWPOLYLINE
  5
7DE1B343D9E066B
330
7DE1B343D9E076B
100
AcDbEntity
  8
TEXT
100
AcDbPolyline
 90
        2
 70
     0
 43
0.0001332181640625
 10
0.2562905065375189
 20
0.1558395462937392
 10
0.1963423327093952
 20
0.0958913724656137
  0
LWPOLYLINE
  5
7DE1B343D9E066F
330
7DE1B343D9E076B
100
AcDbEntity
  8
TEXT
100
AcDbPolyline
 90
        2
 70
     0
 43
0.0001332181640625
 10
0.1696986998968941
 20
0.1558395462937392
 10
0.1597073375922053
 20
0.0958913724656137
  0
LWPOLYLINE
  5
7DE1B343D9E0673
330
7DE1B343D9E076B
100
AcDbEntity
  8
TEXT
100
AcDbPolyline
 90
        2
 70
     0
 43
0.0001332181640625
 10
0.1696986998968941
 20
0.1824831791062402
 10
0.1597073375922053
 20
0.1092131888718606
  0
LWPOLYLINE
  5
7DE1B343D9E0677
330
7DE1B343D9E076B
100
AcDbEntity
  8
TEXT
100
AcDbPolyline
 90
        2
 70
     0
 43
0.0001332181640625
 10
0.2096641491156439
 20
0.0592563773484238
 10
0.28293413935002
 20
0.0692477396531126
  0
LWPOLYLINE
  5
7DE1B343D9E067B
330
7DE1B343D9E076B
100
AcDbEntity
  8
TEXT
100
AcDbPolyline
 90
        2
 70
     0
 43
0.0001332181640625
 10
0.2562905065375189
 20
0.0692477396531126
 10
0.1963423327093952
 20
0.0592563773484238
  0
LWPOLYLINE
  5
7DE1B343D9E067F
330
7DE1B343D9E076B
100
AcDbEntity
  8
TEXT
100
AcDbPolyline
 90
        2
 70
     0
 43
0.0001332181640625
 10
0.28293413935002
 20
0.0292822904343646
 10
0.2096641491156439
 20
0.0392736527390498
  0
LWPOLYLINE
  5
7DE1B343D9E0683
330
7DE1B343D9E076B
100
AcDbEntity
  8
TEXT
100
AcDbPolyline
 90
        2
 70
     0
 43
0.0001332181640625
 10
0.2562905065375189
 20
0.0292822904343646
 10
0.1963423327093952
 20
0.0392736527390498
  0
LWPOLYLINE
  5
7DE1B343D9E0687
330
7DE1B343D9E076B
100
AcDbEntity
  8
TEXT
100
AcDbPolyline
 90
        2
 70
     0
 43
0.0001332181640625
 10
0.2562905065375189
 20
-0.057309516206262
 10
0.1963423327093952
 20
0.0026386576218636
  0
LWPOLYLINE
  5
7DE1B343D9E068B
330
7DE1B343D9E076B
100
AcDbEntity
  8
TEXT
100
AcDbPolyline
 90
        3
 70
     0
 43
0.0006660908203125
 10
0.1696986998968941
 20
-0.057309516206262
 10
0.2562905065375189
 20
-0.057309516206262
 10
0.2562905065375189
 20
0.0292822904343646
  0
LWPOLYLINE
  5
7DE1B343D9E0690
330
7DE1B343D9E076B
100
AcDbEntity
  8
TEXT
100
AcDbPolyline
 90
        3
 70
     0
 43
0.0006660908203125
 10
0.1696986998968941
 20
-0.0839531490187631
 10
0.28293413935002
 20
-0.0839531490187631
 10
0.28293413935002
 20
0.0292822904343646
  0
LWPOLYLINE
  5
7DE1B343D9E0695
330
7DE1B343D9E076B
100
AcDbEntity
  8
TEXT
100
AcDbPolyline
 90
        5
 70
     0
 43
0.0001332181640625
 10
0.1397246129828331
 20
-0.010683158784387
 10
0.1397246129828331
 20
0.0026386576218636
 10
0.1030896178656451
 20
0.0026386576218636
 10
0.1030896178656451
 20
0.0392736527390498
 10
0.0897678014593946
 20
0.0392736527390498
  0
LWPOLYLINE
  5
7DE1B343D9E069C
330
7DE1B343D9E076B
100
AcDbEntity
  8
TEXT
100
AcDbPolyline
 90
        2
 70
     0
 43
0.0006660908203125
 10
0.1297332506781426
 20
-0.057309516206262
 10
0.1297332506781426
 20
-0.0839531490187631
  0
LWPOLYLINE
  5
7DE1B343D9E06A0
330
7DE1B343D9E076B
100
AcDbEntity
  8
TEXT
100
AcDbPolyline
 90
        2
 70
     0
 43
0.0001332181640625
 10
0.1297332506781426
 20
-0.057309516206262
 10
0.1397246129828331
 20
0.0026386576218636
  0
LWPOLYLINE
  5
7DE1B343D9E06A4
330
7DE1B343D9E076B
100
AcDbEntity
  8
TEXT
100
AcDbPolyline
 90
        2
 70
     0
 43
0.0001332181640625
 10
0.1297332506781426
 20
-0.0839531490187631
 10
0.1397246129828331
 20
-0.010683158784387
  0
LWPOLYLINE
  5
7DE1B343D9E06A8
330
7DE1B343D9E076B
100
AcDbEntity
  8
TEXT
100
AcDbPolyline
 90
        5
 70
     0
 43
0.0001332181640625
 10
0.0897678014593946
 20
0.0592563773484238
 10
0.1030896178656433
 20
0.0592563773484238
 10
0.1030896178656433
 20
0.0958913724656137
 10
0.1397246129828331
 20
0.0958913724656137
 10
0.1397246129828331
 20
0.1092131888718606
  0
LWPOLYLINE
  5
7DE1B343D9E06AF
330
7DE1B343D9E076B
100
AcDbEntity
  8
TEXT
100
AcDbPolyline
 90
        5
 70
     0
 43
0.0001332181640625
 10
0.1597073375922053
 20
0.1092131888718606
 10
0.1597073375922053
 20
0.0958913724656137
 10
0.1963423327093952
 20
0.0958913724656137
 10
0.1963423327093952
 20
0.0592563773484238
 10
0.2096641491156439
 20
0.0592563773484238
  0
LWPOLYLINE
  5
7DE1B343D9E06B6
330
7DE1B343D9E076B
100
AcDbEntity
  8
TEXT
100
AcDbPolyline
 90
        2
 70
     0
 43
0.0001332181640625
 10
0.1696986998968941
 20
-0.057309516206262
 10
0.1597073375922053
 20
0.0026386576218636
  0
LWPOLYLINE
  5
7DE1B343D9E06BA
330
7DE1B343D9E076B
100
AcDbEntity
  8
TEXT
100
AcDbPolyline
 90
        2
 70
     0
 43
0.0001332181640625
 10
0.1597073375922053
 20
-0.010683158784387
 10
0.1696986998968941
 20
-0.0839531490187631
  0
LWPOLYLINE
  5
7DE1B343D9E06BE
330
7DE1B343D9E076B
100
AcDbEntity
  8
TEXT
100
AcDbPolyline
 90
        2
 70
     0
 43
0.0006660908203125
 10
0.1696986998968941
 20
-0.057309516206262
 10
0.1696986998968941
 20
-0.0839531490187631
  0
LWPOLYLINE
  5
7DE1B343D9E06C2
330
7DE1B343D9E076B
100
AcDbEntity
  8
TEXT
100
AcDbPolyline
 90
        5
 70
     0
 43
0.0001332181640625
 10
0.2096641491156439
 20
0.0392736527390498
 10
0.1963423327093952
 20
0.0392736527390498
 10
0.1963423327093952
 20
0.0026386576218636
 10
0.1597073375922053
 20
0.0026386576218636
 10
0.1597073375922053
 20
-0.010683158784387
  0
LWPOLYLINE
  5
7DE1B343D9E06C9
330
7DE1B343D9E076B
100
AcDbEntity
  8
TEXT
100
AcDbPolyline
 90
        2
 70
     0
 43
0.0006660908203125
 10
0.2562905065375189
 20
0.0692477396531126
 10
0.28293413935002
 20
0.0692477396531126
  0
LWPOLYLINE
  5
7DE1B343D9E06CD
330
7DE1B343D9E076B
100
AcDbEntity
  8
TEXT
100
AcDbPolyline
 90
        2
 70
     0
 43
0.0006660908203125
 10
0.2562905065375189
 20
0.0292822904343646
 10
0.28293413935002
 20
0.0292822904343646
  0
LINE
  5
7DE1B343D9E06D1
330
7DE1B343D9E076B
100
AcDbEntity
  8
TEXT
100
AcDbLine
 10
0.5530482761980449
 20
0.1182064844494712
 30
0.0
 11
0.7199539302270162
 21
0.1182064844494712
 31
0.0
  0
LINE
  5
7DE1B343D9E06D2
330
7DE1B343D9E076B
100
AcDbEntity
  8
TEXT
100
AcDbLine
 10
0.618648412442346
 20
0.0824017628388434
 30
0.0
 11
0.5530482761980449
 21
0.0824017628388434
 31
0.0
  0
LINE
  5
7DE1B343D9E06D3
330
7DE1B343D9E076B
100
AcDbEntity
  8
TEXT
100
AcDbLine
 10
0.4657234866372933
 20
-0.0839898538822743
 30
0.0
 11
0.618648412442346
 21
-0.0839898538822743
 31
0.0
  0
LINE
  5
7DE1B343D9E06D4
330
7DE1B343D9E076B
100
AcDbEntity
  8
TEXT
100
AcDbLine
 10
0.6235887863486256
 20
-0.015632847548835
 30
0.0
 11
0.4657234866372915
 21
-0.015632847548835
 31
0.0
  0
LINE
  5
7DE1B343D9E06D5
330
7DE1B343D9E076B
100
AcDbEntity
  8
TEXT
100
AcDbLine
 10
0.5478109460837968
 20
0.0183082602132296
 30
0.0
 11
0.6235887863486256
 21
0.0183082602132296
 31
0.0
  0
ARC
  5
7DE1B343D9E06D6
330
7DE1B343D9E076B
100
AcDbEntity
  8
TEXT
100
AcDbCircle
 10
0.5530482761980458
 20
0.1003041236441591
 30
0.0
 40
0.017902360805315
100
AcDbArc
 50
90.0
 51
270.0
  0
LINE
  5
7DE1B343D9E06D7
330
7DE1B343D9E076B
100
AcDbEntity
  8
TEXT
100
AcDbLine
 10
0.4657234866372915
 20
-0.015632847548835
 30
0.0
 11
0.4657234866372933
 21
-0.0839898538822743
 31
0.0
  0
LINE
  5
7DE1B343D9E06D8
330
7DE1B343D9E076B
100
AcDbEntity
  8
TEXT
100
AcDbLine
 10
0.7199539302270162
 20
0.1182064844494712
 30
0.0
 11
0.7199539302270162
 21
-0.0241974625442245
 31
0.0
  0
ARC
  5
7DE1B343D9E06D9
330
7DE1B343D9E076B
100
AcDbEntity
  8
TEXT
100
AcDbCircle
 10
0.6186484124423468
 20
-0.0007940455217172
 30
0.0
 40
0.0831958083605586
100
AcDbArc
 50
270.0
 51
90.0
  0
ARC
  5
7DE1B343D9E06DA
330
7DE1B343D9E076B
100
AcDbEntity
  8
TEXT
100
AcDbCircle
 10
0.6235887863486265
 20
0.0013377063321991
 30
0.0
 40
0.0169705538810321
100
AcDbArc
 50
270.0
 51
90.0
  0
LWPOLYLINE
  5
7DE1B343D9E06DB
330
7DE1B343D9E076B
100
AcDbEntity
  8
TEXT
100
AcDbPolyline
 90
        2
 70
     0
 43
0.0006660908203125
 10
0.1297332506781426
 20
0.1558395462937392
 10
0.1297332506781426
 20
0.1824831791062402
  0
LWPOLYLINE
  5
7DE1B343D9E06DF
330
7DE1B343D9E076B
100
AcDbEntity
  8
TEXT
100
AcDbPolyline
 90
        2
 70
     0
 43
0.0006660908203125
 10
0.1696986998968941
 20
0.1558395462937392
 10
0.1696986998968941
 20
0.1824831791062402
  0
LINE
  5
7DE1B343D9E06E3
330
7DE1B343D9E076B
100
AcDbEntity
  8
TEXT
100
AcDbLine
 10
0.7235426989823091
 20
0.1824831791062367
 30
0.0
 11
0.5478109460837968
 21
0.1824831791062367
 31
0.0
  0
LINE
  5
7DE1B343D9E06E4
330
7DE1B343D9E076B
100
AcDbEntity
  8
TEXT
100
AcDbLine
 10
0.7235426989823091
 20
0.2168710967003748
 30
0.0
 11
0.7235426989823091
 21
0.1824831791062367
 31
0.0
  0
LINE
  5
7DE1B343D9E06E5
330
7DE1B343D9E076B
100
AcDbEntity
  8
TEXT
100
AcDbLine
 10
0.9140145910021612
 20
0.0816111829931161
 30
0.0
 11
0.8553842699702233
 21
0.1824831791062367
 31
0.0
  0
LINE
  5
7DE1B343D9E06E6
330
7DE1B343D9E076B
100
AcDbEntity
  8
TEXT
100
AcDbLine
 10
0.9727631538080267
 20
0.1824831791062367
 30
0.0
 11
0.9140145910021612
 21
0.0816111829931161
 31
0.0
  0
LINE
  5
7DE1B343D9E06E7
330
7DE1B343D9E076B
100
AcDbEntity
  8
TEXT
100
AcDbLine
 10
1.069693779167768
 20
-0.0016020157792751
 30
0.0
 11
1.069693779167768
 21
0.2504946568450472
 31
0.0
  0
LINE
  5
7DE1B343D9E06E8
330
7DE1B343D9E076B
100
AcDbEntity
  8
TEXT
100
AcDbLine
 10
1.102005633305428
 20
0.1824831791062367
 30
0.0
 11
1.102005633305428
 21
-0.0183810276261716
 31
0.0
  0
LINE
  5
7DE1B343D9E06E9
330
7DE1B343D9E076B
100
AcDbEntity
  8
TEXT
100
AcDbLine
 10
1.102005633305428
 20
-0.0183810276261716
 30
0.0
 11
1.085011996420826
 21
-0.0183810276261716
 31
0.0
  0
LINE
  5
7DE1B343D9E06EA
330
7DE1B343D9E076B
100
AcDbEntity
  8
TEXT
100
AcDbLine
 10
1.070833352663962
 20
-0.0839898538822743
 30
0.0
 11
1.168836686363397
 21
-0.0839898538822743
 31
0.0
  0
LINE
  5
7DE1B343D9E06EB
330
7DE1B343D9E076B
100
AcDbEntity
  8
TEXT
100
AcDbLine
 10
0.9044143540052068
 20
-0.0640313477772614
 30
0.0
 11
1.001714060098651
 21
0.1003188631580067
 31
0.0
  0
ARC
  5
7DE1B343D9E06EC
330
7DE1B343D9E076B
100
AcDbEntity
  8
TEXT
100
AcDbCircle
 10
0.870370794092993
 20
-0.0444421316085786
 30
0.0
 40
0.0392772371940762
100
AcDbArc
 50
270.1604552698595
 51
330.0831797321295
  0
LINE
  5
7DE1B343D9E06ED
330
7DE1B343D9E076B
100
AcDbEntity
  8
TEXT
100
AcDbLine
 10
0.7738405377071218
 20
-0.0839898538822743
 30
0.0
 11
0.8704807887821161
 21
-0.083719214783992
 31
0.0
  0
LWPOLYLINE
  5
7DE1B343D9E06EE
330
7DE1B343D9E076B
100
AcDbEntity
  8
TEXT
100
AcDbPolyline
 90
        6
 70
     1
 43
0.0
 10
0.8163643412822715
 20
0.1182064844494712
 10
0.7860477470620633
 20
0.1182064844494712
 10
0.7860477470620633
 20
-0.0049045136054231
 42
0.407328721240804
 10
0.7975913982235397
 20
-0.0167234282818092
 10
0.8582130972682705
 20
-0.0167234282818092
 10
0.8756784376755884
 20
0.01608880076167
  0
LINE
  5
7DE1B343D9E06F6
330
7DE1B343D9E076B
100
AcDbEntity
  8
TEXT
100
AcDbLine
 10
1.001714060098651
 20
0.1003188631580067
 30
0.0
 11
1.001714060098651
 21
-0.0324385116673496
 31
0.0
  0
ARC
  5
7DE1B343D9E06F7
330
7DE1B343D9E076B
100
AcDbEntity
  8
TEXT
100
AcDbCircle
 10
1.085011996420825
 20
-0.0029992213827461
 30
0.0
 40
0.0153818062434269
100
AcDbArc
 50
174.7883570302258
 51
270.0
  0
LWPOLYLINE
  5
7DE1B343D9E06F8
330
7DE1B343D9E076B
100
AcDbEntity
  8
TEXT
100
AcDbPolyline
 90
        2
 70
     0
 43
0.0
 10
1.001714060098649
 20
-0.032438511667346
 42
0.3318488747599744
 10
1.070833352663962
 20
-0.0839898538822743
 42
-6.868794160588311
  0
LINE
  5
7DE1B343D9E06FC
330
7DE1B343D9E076B
100
AcDbEntity
  8
TEXT
100
AcDbLine
 10
1.226225755352658
 20
-0.0839898538822743
 30
0.0
 11
1.293283802134498
 21
-0.0839898538822743
 31
0.0
  0
LINE
  5
7DE1B343D9E06FD
330
7DE1B343D9E076B
100
AcDbEntity
  8
TEXT
100
AcDbLine
 10
1.226225755352658
 20
0.1106526952833613
 30
0.0
 11
1.226225755352658
 21
-0.0839898538822743
 31
0.0
  0
LINE
  5
7DE1B343D9E06FE
330
7DE1B343D9E076B
100
AcDbEntity
  8
TEXT
100
AcDbLine
 10
1.168836686363397
 20
0.1182064844494712
 30
0.0
 11
1.218671966186545
 21
0.1182064844494712
 31
0.0
  0
LINE
  5
7DE1B343D9E06FF
330
7DE1B343D9E076B
100
AcDbEntity
  8
TEXT
100
AcDbLine
 10
1.168836686363397
 20
-0.0839898538822743
 30
0.0
 11
1.168836686363397
 21
0.1182064844494712
 31
0.0
  0
LWPOLYLINE
  5
7DE1B343D9E0700
330
7DE1B343D9E076B
100
AcDbEntity
  8
TEXT
100
AcDbPolyline
 90
        2
 70
     0
 43
0.0
 10
1.218671966186543
 20
0.1182064844494712
 42
-0.4142135623731017
 10
1.226225755352656
 20
0.1106526952833613
 42
-0.9999999999999998
  0
LINE
  5
7DE1B343D9E0704
330
7DE1B343D9E076B
100
AcDbEntity
  8
TEXT
100
AcDbLine
 10
1.424481966964228
 20
0.1182064844494712
 30
0.0
 11
1.424481966964228
 21
0.0431540783752646
 31
0.0
  0
LINE
  5
7DE1B343D9E0705
330
7DE1B343D9E076B
100
AcDbEntity
  8
TEXT
100
AcDbLine
 10
1.293283802134498
 20
0.1182064844494712
 30
0.0
 11
1.347417399055448
 21
0.1182064844494712
 31
0.0
  0
LINE
  5
7DE1B343D9E0706
330
7DE1B343D9E076B
100
AcDbEntity
  8
TEXT
100
AcDbLine
 10
1.293283802134498
 20
-0.0839898538822743
 30
0.0
 11
1.293283802134498
 21
0.1182064844494712
 31
0.0
  0
LWPOLYLINE
  5
7DE1B343D9E0707
330
7DE1B343D9E076B
100
AcDbEntity
  8
TEXT
100
AcDbPolyline
 90
        2
 70
     0
 43
0.0
 10
1.347417399055446
 20
0.1182064844494712
 42
-0.4142135623731017
 10
1.35497118822156
 20
0.1106526952833613
 42
-0.9999999999999998
  0
LWPOLYLINE
  5
7DE1B343D9E070B
330
7DE1B343D9E076B
100
AcDbEntity
  8
TEXT
100
AcDbPolyline
 90
        4
 70
     0
 43
0.0
 10
1.35497118822156
 20
0.1106526952833613
 10
1.35497118822156
 20
-0.0839898538822743
 10
1.423449471509418
 20
-0.0839898538822743
 10
1.423449471509418
 20
-0.0404989089318362
 42
-1.714843617202739
  0
LINE
  5
7DE1B343D9E0711
330
7DE1B343D9E076B
100
AcDbEntity
  8
TEXT
100
AcDbLine
 10
0.7835853038263161
 20
0.1824831791062367
 30
0.0
 11
0.7835853038263161
 21
0.2168710967003748
 31
0.0
  0
LINE
  5
7DE1B343D9E0712
330
7DE1B343D9E076B
100
AcDbEntity
  8
TEXT
100
AcDbLine
 10
0.8553842699702233
 20
0.1824831791062367
 30
0.0
 11
0.7835853038263161
 21
0.1824831791062367
 31
0.0
  0
LINE
  5
7DE1B343D9E0713
330
7DE1B343D9E076B
100
AcDbEntity
  8
TEXT
100
AcDbLine
 10
1.002885066601403
 20
0.1824831791062367
 30
0.0
 11
0.9727631538080267
 21
0.1824831791062367
 31
0.0
  0
LINE
  5
7DE1B343D9E0714
330
7DE1B343D9E076B
100
AcDbEntity
  8
TEXT
100
AcDbLine
 10
1.002885066601403
 20
0.2504946568450472
 30
0.0
 11
1.002885066601403
 21
0.1824831791062367
 31
0.0
  0
LINE
  5
7DE1B343D9E0715
330
7DE1B343D9E076B
100
AcDbEntity
  8
TEXT
100
AcDbLine
 10
1.069693779167768
 20
0.2504946568450472
 30
0.0
 11
1.002885066601403
 21
0.2504946568450472
 31
0.0
  0
LWPOLYLINE
  5
7DE1B343D9E0716
330
7DE1B343D9E076B
100
AcDbEntity
  8
TEXT
100
AcDbPolyline
 90
        3
 70
     0
 43
0.0
 10
1.39010553876577
 20
0.1824831791062402
 10
1.271805379949725
 20
0.1824831791062402
 10
1.271805379949725
 20
0.1553156823453443
 42
-1.960274751411753
  0
LINE
  5
7DE1B343D9E071B
330
7DE1B343D9E076B
100
AcDbEntity
  8
TEXT
100
AcDbLine
 10
1.236023689236564
 20
0.1824831791062367
 30
0.0
 11
1.102005633305428
 21
0.1824831791062367
 31
0.0
  0
LWPOLYLINE
  5
7DE1B343D9E071C
330
7DE1B343D9E076B
100
AcDbEntity
  8
TEXT
100
AcDbPolyline
 90
        2
 70
     0
 43
0.0
 10
1.236023689236564
 20
0.1824831791062402
 42
-0.3328679258950098
 10
1.271805379949725
 20
0.1553156823453443
 42
6.772930709997214
  0
LINE
  5
7DE1B343D9E0720
330
7DE1B343D9E076B
100
AcDbEntity
  8
TEXT
100
AcDbLine
 10
1.425887229478937
 20
0.1824831791062367
 30
0.0
 11
1.425887229478937
 21
0.1541606333365928
 31
0.0
  0
LWPOLYLINE
  5
7DE1B343D9E0721
330
7DE1B343D9E076B
100
AcDbEntity
  8
TEXT
100
AcDbPolyline
 90
        2
 70
     0
 43
0.0
 10
1.39010553876577
 20
0.1824831791062402
 42
-0.3277054968067132
 10
1.425887229478935
 20
0.1541606333365963
 42
6.667889725900311
  0
LINE
  5
7DE1B343D9E0725
330
7DE1B343D9E076B
100
AcDbEntity
  8
TEXT
100
AcDbLine
 10
1.639679077571037
 20
0.0772712005528094
 30
0.0
 11
1.595928306389135
 21
0.1595214765489545
 31
0.0
  0
LINE
  5
7DE1B343D9E0726
330
7DE1B343D9E076B
100
AcDbEntity
  8
TEXT
100
AcDbLine
 10
1.639679077571037
 20
0.1824831791062367
 30
0.0
 11
1.639679077571037
 21
0.0772712005528094
 31
0.0
  0
LINE
  5
7DE1B343D9E0727
330
7DE1B343D9E076B
100
AcDbEntity
  8
TEXT
100
AcDbLine
 10
1.867362816509406
 20
0.1066178526946986
 30
0.0
 11
1.867362816509406
 21
0.2479473848738374
 31
0.0
  0
LINE
  5
7DE1B343D9E0728
330
7DE1B343D9E076B
100
AcDbEntity
  8
TEXT
100
AcDbLine
 10
1.91446097506539
 20
0.1824831791062367
 30
0.0
 11
1.867362816509406
 21
0.1066178526946986
 31
0.0
  0
LINE
  5
7DE1B343D9E0729
330
7DE1B343D9E076B
100
AcDbEntity
  8
TEXT
100
AcDbLine
 10
1.924895691829313
 20
0.0725899361652631
 30
0.0
 11
1.989452807795018
 21
0.1824831791062367
 31
0.0
  0
LINE
  5
7DE1B343D9E072A
330
7DE1B343D9E076B
100
AcDbEntity
  8
TEXT
100
AcDbLine
 10
1.803527825286633
 20
-0.0839898538822743
 30
0.0
 11
1.867906009605253
 21
-0.0839898538822743
 31
0.0
  0
LWPOLYLINE
  5
7DE1B343D9E072B
330
7DE1B343D9E076B
100
AcDbEntity
  8
TEXT
100
AcDbPolyline
 90
        2
 70
     0
 43
0.0
 10
1.643618754876075
 20
-0.0404989089318362
 42
-0.2901071551932486
 10
1.60054282200843
 20
-0.0839898538822743
 42
-5.328517124445184
  0
ARC
  5
7DE1B343D9E072F
330
7DE1B343D9E076B
100
AcDbEntity
  8
TEXT
100
AcDbCircle
 10
1.531688240351515
 20
0.089847109449474
 30
0.0
 40
0.028359375
100
AcDbArc
 50
25.78218179591245
 51
90.0
  0
LINE
  5
7DE1B343D9E0730
330
7DE1B343D9E076B
100
AcDbEntity
  8
TEXT
100
AcDbLine
 10
1.567489315655639
 20
0.080931510987339
 30
0.0
 11
1.557224555242074
 21
0.1021820505600333
 31
0.0
  0
LINE
  5
7DE1B343D9E0731
330
7DE1B343D9E076B
100
AcDbEntity
  8
TEXT
100
AcDbLine
 10
1.485201325872255
 20
0.080931510987339
 30
0.0
 11
1.567489315655639
 21
0.080931510987339
 31
0.0
  0
LWPOLYLINE
  5
7DE1B343D9E0732
330
7DE1B343D9E076B
100
AcDbEntity
  8
TEXT
100
AcDbPolyline
 90
        4
 70
     1
 43
0.0
 10
1.580420356938537
 20
0.0189741241017509
 10
1.491760038278679
 20
0.0189741241017509
 42
0.9999999999999998
 10
1.491760038278679
 20
-0.0234244164021098
 10
1.580420356938537
 20
-0.0234244164021098
 42
1.0
  0
LWPOLYLINE
  5
7DE1B343D9E0738
330
7DE1B343D9E076B
100
AcDbEntity
  8
TEXT
100
AcDbPolyline
 90
        2
 70
     0
 43
0.0
 10
1.466525404377053
 20
-0.0839898538822743
 10
1.60054282200843
 20
-0.0839898538822743
 42
0.9999999999999998
  0
LINE
  5
7DE1B343D9E073C
330
7DE1B343D9E076B
100
AcDbEntity
  8
TEXT
100
AcDbLine
 10
1.72687984399407
 20
0.1182064844494712
 30
0.0
 11
1.803527825286627
 21
0.1182064844494712
 31
0.0
  0
LINE
  5
7DE1B343D9E073D
330
7DE1B343D9E076B
100
AcDbEntity
  8
TEXT
100
AcDbLine
 10
1.803527825286627
 20
0.1182064844494712
 30
0.0
 11
1.803527825286633
 21
-0.0839898538822743
 31
0.0
  0
ARC
  5
7DE1B343D9E073E
330
7DE1B343D9E076B
100
AcDbEntity
  8
TEXT
100
AcDbCircle
 10
1.726879843994068
 20
0.0933006091668085
 30
0.0
 40
0.0249058752826653
100
AcDbArc
 50
89.99971217465335
 51
179.9999999999985
  0
LINE
  5
7DE1B343D9E073F
330
7DE1B343D9E076B
100
AcDbEntity
  8
TEXT
100
AcDbLine
 10
1.70197396871141
 20
-0.0839898538822743
 30
0.0
 11
1.701973968711405
 21
0.0933006515491941
 31
0.0
  0
LWPOLYLINE
  5
7DE1B343D9E0740
330
7DE1B343D9E076B
100
AcDbEntity
  8
TEXT
100
AcDbPolyline
 90
        2
 70
     0
 43
0.0
 10
1.643618754876075
 20
-0.0839898538822743
 10
1.701973968711409
 20
-0.0839898538822743
  0
LWPOLYLINE
  5
7DE1B343D9E0744
330
7DE1B343D9E076B
100
AcDbEntity
  8
TEXT
100
AcDbPolyline
 90
        2
 70
     0
 43
0.0
 10
1.643618754876075
 20
-0.0404989089318362
 10
1.643618754876075
 20
-0.0839898538822743
  0
LINE
  5
7DE1B343D9E0748
330
7DE1B343D9E076B
100
AcDbEntity
  8
TEXT
100
AcDbLine
 10
2.020387915192924
 20
-0.0839898538822743
 30
0.0
 11
1.924895691829313
 21
0.0725899361652631
 31
0.0
  0
LINE
  5
7DE1B343D9E0749
330
7DE1B343D9E076B
100
AcDbEntity
  8
TEXT
100
AcDbLine
 10
1.943809542816718
 20
-0.0839898538822743
 30
0.0
 11
2.020387915192924
 21
-0.0839898538822743
 31
0.0
  0
LINE
  5
7DE1B343D9E074A
330
7DE1B343D9E076B
100
AcDbEntity
  8
TEXT
100
AcDbLine
 10
1.867906009605253
 20
0.0475897145939059
 30
0.0
 11
1.943809542816718
 21
-0.0839898538822743
 31
0.0
  0
LINE
  5
7DE1B343D9E074B
330
7DE1B343D9E076B
100
AcDbEntity
  8
TEXT
100
AcDbLine
 10
1.867906009605253
 20
-0.0839898538822743
 30
0.0
 11
1.867906009605253
 21
0.0475897145939059
 31
0.0
  0
LINE
  5
7DE1B343D9E074C
330
7DE1B343D9E076B
100
AcDbEntity
  8
TEXT
100
AcDbLine
 10
1.867362816509406
 20
0.2479473848738374
 30
0.0
 11
1.799047937960132
 21
0.2479473848738374
 31
0.0
  0
ARC
  5
7DE1B343D9E074D
330
7DE1B343D9E076B
100
AcDbEntity
  8
TEXT
100
AcDbCircle
 10
1.558692198918926
 20
0.1408996119853343
 30
0.0
 40
0.0416329381542859
100
AcDbArc
 50
26.56974201007528
 51
87.20939649401342
  0
LINE
  5
7DE1B343D9E074E
330
7DE1B343D9E076B
100
AcDbEntity
  8
TEXT
100
AcDbLine
 10
1.703575983870538
 20
0.1824831791062367
 30
0.0
 11
1.639679077571037
 21
0.1824831791062367
 31
0.0
  0
LINE
  5
7DE1B343D9E074F
330
7DE1B343D9E076B
100
AcDbEntity
  8
TEXT
100
AcDbLine
 10
1.703575983870538
 20
0.154935529245362
 30
0.0
 11
1.703575983870538
 21
0.1824831791062367
 31
0.0
  0
ARC
  5
7DE1B343D9E0750
330
7DE1B343D9E076B
100
AcDbEntity
  8
TEXT
100
AcDbCircle
 10
1.734768800933645
 20
0.1512374518239719
 30
0.0
 40
0.0314112657011332
100
AcDbArc
 50
95.88484768694724
 51
173.2388340632136
  0
LINE
  5
7DE1B343D9E0751
330
7DE1B343D9E076B
100
AcDbEntity
  8
TEXT
100
AcDbLine
 10
1.799047937960127
 20
0.1824831791062367
 30
0.0
 11
1.731548220310611
 21
0.1824831791062367
 31
0.0
  0
LINE
  5
7DE1B343D9E0752
330
7DE1B343D9E076B
100
AcDbEntity
  8
TEXT
100
AcDbLine
 10
1.799047937960132
 20
0.2479473848738374
 30
0.0
 11
1.799047937960127
 21
0.1824831791062367
 31
0.0
  0
LINE
  5
7DE1B343D9E0753
330
7DE1B343D9E076B
100
AcDbEntity
  8
TEXT
100
AcDbLine
 10
1.989452807795018
 20
0.1824831791062367
 30
0.0
 11
1.914460975065392
 21
0.1824831791062367
 31
0.0
  0
ENDSEC
  0
SECTION
  2
OBJECTS
  0
DICTIONARY
  5
7DE1B343D9E075F
330
0
100
AcDbDictionary
  3
ACAD_GROUP
350
7DE1B343D9E0760
  3
ACAD_LAYOUT
350
7DE1B343D9E078B
  3
ACAD_MLINESTYLE
350
7DE1B343D9E0761
  3
ACAD_PLOTSETTINGS
350
7DE1B343D9E078C
  3
ACAD_PLOTSTYLENAME
350
7DE1B343D9E0789
  3
ACDBHEADERROUNDTRIPXREC
350
7DE1B343D9E0796
  3
ACDBVARIABLEDICTIONARY
350
7DE1B343D9E0793
  0
DICTIONARY
  5
7DE1B343D9E07B8
330
7DE1B343D9E076B
100
AcDbDictionary
280
     1
  3
ACAD_LAYOUTSELFREF
360
7DE1B343D9E07B9
  0
DICTIONARY
  5
7DE1B343D9E07B6
330
7DE1B343D9E0768
100
AcDbDictionary
280
     1
  3
ACAD_LAYOUTSELFREF
360
7DE1B343D9E07B7
  0
DICTIONARY
  5
7DE1B343D9E0760
102
{ACAD_REACTORS
330
7DE1B343D9E075F
102
}
330
7DE1B343D9E075F
100
AcDbDictionary
  0
DICTIONARY
  5
7DE1B343D9E078B
102
{ACAD_REACTORS
330
7DE1B343D9E075F
102
}
330
7DE1B343D9E075F
100
AcDbDictionary
  0
DICTIONARY
  5
7DE1B343D9E0761
102
{ACAD_REACTORS
330
7DE1B343D9E075F
102
}
330
7DE1B343D9E075F
100
AcDbDictionary
  3
STANDARD
350
7DE1B343D9E076E
  0
DICTIONARY
  5
7DE1B343D9E078C
102
{ACAD_REACTORS
330
7DE1B343D9E075F
102
}
330
7DE1B343D9E075F
100
AcDbDictionary
  0
ACDBDICTIONARYWDFLT
  5
7DE1B343D9E0789
102
{ACAD_REACTORS
330
7DE1B343D9E075F
102
}
330
7DE1B343D9E075F
100
AcDbDictionary
281
     1
  3
Normal
350
7DE1B343D9E078A
100
AcDbDictionaryWithDefault
340
7DE1B343D9E078A
  0
DICTIONARY
  5
7DE1B343D9E0796
102
{ACAD_REACTORS
330
7DE1B343D9E075F
102
}
330
7DE1B343D9E075F
100
AcDbDictionary
  3
CEPSNTYPE
350
7DE1B343D9E07A0
  3
FINGERPRINTGUID
350
7DE1B343D9E07A1
  3
HYPERLINKBASE
350
7DE1B343D9E0799
  3
INSUNITS
350
7DE1B343D9E079F
  3
LAYOUTDICT
350
7DE1B343D9E079B
  3
LWETCUNION
350
7DE1B343D9E079E
  3
PLOTSETDICT
350
7DE1B343D9E079C
  3
PLOTSTYLNAMDICT
350
7DE1B343D9E079D
  3
PSVPSCALE
350
7DE1B343D9E07A3
  3
PUCSBASE
350
7DE1B343D9E07A6
  3
PUCSORGBACK
350
7DE1B343D9E07AC
  3
PUCSORGBOTTOM
350
7DE1B343D9E07A8
  3
PUCSORGFRONT
350
7DE1B343D9E07AB
  3
PUCSORGLEFT
350
7DE1B343D9E07A9
  3
PUCSORGRIGHT
350
7DE1B343D9E07AA
  3
PUCSORGTOP
350
7DE1B343D9E07A7
  3
PUCSORTHOREF
350
7DE1B343D9E07A4
  3
PUCSORTHOVIEW
350
7DE1B343D9E07A5
  3
STYLESHEET
350
7DE1B343D9E079A
  3
TSTACKALIGN
350
7DE1B343D9E0797
  3
TSTACKSIZE
350
7DE1B343D9E0798
  3
UCSBASE
350
7DE1B343D9E07AF
  3
UCSORGBACK
350
7DE1B343D9E07B5
  3
UCSORGBOTTOM
350
7DE1B343D9E07B1
  3
UCSORGFRONT
350
7DE1B343D9E07B4
  3
UCSORGLEFT
350
7DE1B343D9E07B2
  3
UCSORGRIGHT
350
7DE1B343D9E07B3
  3
UCSORGTOP
350
7DE1B343D9E07B0
  3
UCSORTHOREF
350
7DE1B343D9E07AD
  3
UCSORTHOVIEW
350
7DE1B343D9E07AE
  3
VERSIONGUID
350
7DE1B343D9E07A2
  0
DICTIONARY
  5
7DE1B343D9E0793
102
{ACAD_REACTORS
330
7DE1B343D9E075F
102
}
330
7DE1B343D9E075F
100
AcDbDictionary
  3
DIMASSOC
350
7DE1B343D9E0794
  0
XRECORD
  5
7DE1B343D9E07B9
102
{ACAD_REACTORS
330
7DE1B343D9E07B8
102
}
330
7DE1B343D9E07B8
100
AcDbXrecord
340
7DE1B343D9E076B
  0
XRECORD
  5
7DE1B343D9E07B7
102
{ACAD_REACTORS
330
7DE1B343D9E07B6
102
}
330
7DE1B343D9E07B6
100
AcDbXrecord
340
7DE1B343D9E0768
  0
MLINESTYLE
  5
7DE1B343D9E076E
102
{ACAD_REACTORS
330
7DE1B343D9E0761
102
}
330
7DE1B343D9E0761
100
AcDbMlineStyle
  2
STANDARD
 70
     0
  3

 62
     0
 51
90.0
 52
90.0
 71
     2
 49
0.5
 62
   256
  6
BYLAYER
 49
-0.5
 62
   256
  6
BYLAYER
  0
ACDBPLACEHOLDER
  5
7DE1B343D9E078A
102
{ACAD_REACTORS
330
7DE1B343D9E0789
102
}
330
7DE1B343D9E0789
100
AcDbPlaceHolder
280
     0
  0
XRECORD
  5
7DE1B343D9E07A0
102
{ACAD_REACTORS
330
7DE1B343D9E0796
102
}
330
7DE1B343D9E0796
100
AcDbXrecord
 90
        0
  0
XRECORD
  5
7DE1B343D9E07A1
102
{ACAD_REACTORS
330
7DE1B343D9E0796
102
}
330
7DE1B343D9E0796
100
AcDbXrecord
  1
{A3038B80-8DB9-11D6-88E6-0090279574E7}
  0
XRECORD
  5
7DE1B343D9E0799
102
{ACAD_REACTORS
330
7DE1B343D9E0796
102
}
330
7DE1B343D9E0796
100
AcDbXrecord
  1

  0
XRECORD
  5
7DE1B343D9E079F
102
{ACAD_REACTORS
330
7DE1B343D9E0796
102
}
330
7DE1B343D9E0796
100
AcDbXrecord
 90
        0
  0
XRECORD
  5
7DE1B343D9E079B
102
{ACAD_REACTORS
330
7DE1B343D9E0796
102
}
330
7DE1B343D9E0796
100
AcDbXrecord
340
7DE1B343D9E078B
  0
XRECORD
  5
7DE1B343D9E079E
102
{ACAD_REACTORS
330
7DE1B343D9E0796
102
}
330
7DE1B343D9E0796
100
AcDbXrecord
 90
    14877
  0
XRECORD
  5
7DE1B343D9E079C
102
{ACAD_REACTORS
330
7DE1B343D9E0796
102
}
330
7DE1B343D9E0796
100
AcDbXrecord
340
7DE1B343D9E078C
  0
XRECORD
  5
7DE1B343D9E079D
102
{ACAD_REACTORS
330
7DE1B343D9E0796
102
}
330
7DE1B343D9E0796
100
AcDbXrecord
340
7DE1B343D9E0789
  0
XRECORD
  5
7DE1B343D9E07A3
102
{ACAD_REACTORS
330
7DE1B343D9E0796
102
}
330
7DE1B343D9E0796
100
AcDbXrecord
 40
0.0
  0
XRECORD
  5
7DE1B343D9E07A6
102
{ACAD_REACTORS
330
7DE1B343D9E0796
102
}
330
7DE1B343D9E0796
100
AcDbXrecord
340
0
  0
XRECORD
  5
7DE1B343D9E07AC
102
{ACAD_REACTORS
330
7DE1B343D9E0796
102
}
330
7DE1B343D9E0796
100
AcDbXrecord
 10
0.0
 20
0.0
 30
0.0
  0
XRECORD
  5
7DE1B343D9E07A8
102
{ACAD_REACTORS
330
7DE1B343D9E0796
102
}
330
7DE1B343D9E0796
100
AcDbXrecord
 10
0.0
 20
0.0
 30
0.0
  0
XRECORD
  5
7DE1B343D9E07AB
102
{ACAD_REACTORS
330
7DE1B343D9E0796
102
}
330
7DE1B343D9E0796
100
AcDbXrecord
 10
0.0
 20
0.0
 30
0.0
  0
XRECORD
  5
7DE1B343D9E07A9
102
{ACAD_REACTORS
330
7DE1B343D9E0796
102
}
330
7DE1B343D9E0796
100
AcDbXrecord
 10
0.0
 20
0.0
 30
0.0
  0
XRECORD
  5
7DE1B343D9E07AA
102
{ACAD_REACTORS
330
7DE1B343D9E0796
102
}
330
7DE1B343D9E0796
100
AcDbXrecord
 10
0.0
 20
0.0
 30
0.0
  0
XRECORD
  5
7DE1B343D9E07A7
102
{ACAD_REACTORS
330
7DE1B343D9E0796
102
}
330
7DE1B343D9E0796
100
AcDbXrecord
 10
0.0
 20
0.0
 30
0.0
  0
XRECORD
  5
7DE1B343D9E07A4
102
{ACAD_REACTORS
330
7DE1B343D9E0796
102
}
330
7DE1B343D9E0796
100
AcDbXrecord
340
0
  0
XRECORD
  5
7DE1B343D9E07A5
102
{ACAD_REACTORS
330
7DE1B343D9E0796
102
}
330
7DE1B343D9E0796
100
AcDbXrecord
 70
     0
  0
XRECORD
  5
7DE1B343D9E079A
102
{ACAD_REACTORS
330
7DE1B343D9E0796
102
}
330
7DE1B343D9E0796
100
AcDbXrecord
  1

  0
XRECORD
  5
7DE1B343D9E0797
102
{ACAD_REACTORS
330
7DE1B343D9E0796
102
}
330
7DE1B343D9E0796
100
AcDbXrecord
 90
        1
  0
XRECORD
  5
7DE1B343D9E0798
102
{ACAD_REACTORS
330
7DE1B343D9E0796
102
}
330
7DE1B343D9E0796
100
AcDbXrecord
 90
       70
  0
XRECORD
  5
7DE1B343D9E07AF
102
{ACAD_REACTORS
330
7DE1B343D9E0796
102
}
330
7DE1B343D9E0796
100
AcDbXrecord
340
0
  0
XRECORD
  5
7DE1B343D9E07B5
102
{ACAD_REACTORS
330
7DE1B343D9E0796
102
}
330
7DE1B343D9E0796
100
AcDbXrecord
 10
0.0
 20
0.0
 30
0.0
  0
XRECORD
  5
7DE1B343D9E07B1
102
{ACAD_REACTORS
330
7DE1B343D9E0796
102
}
330
7DE1B343D9E0796
100
AcDbXrecord
 10
0.0
 20
0.0
 30
0.0
  0
XRECORD
  5
7DE1B343D9E07B4
102
{ACAD_REACTORS
330
7DE1B343D9E0796
102
}
330
7DE1B343D9E0796
100
AcDbXrecord
 10
0.0
 20
0.0
 30
0.0
  0
XRECORD
  5
7DE1B343D9E07B2
102
{ACAD_REACTORS
330
7DE1B343D9E0796
102
}
330
7DE1B343D9E0796
100
AcDbXrecord
 10
0.0
 20
0.0
 30
0.0
  0
XRECORD
  5
7DE1B343D9E07B3
102
{ACAD_REACTORS
330
7DE1B343D9E0796
102
}
330
7DE1B343D9E0796
100
AcDbXrecord
 10
0.0
 20
0.0
 30
0.0
  0
XRECORD
  5
7DE1B343D9E07B0
102
{ACAD_REACTORS
330
7DE1B343D9E0796
102
}
330
7DE1B343D9E0796
100
AcDbXrecord
 10
0.0
 20
0.0
 30
0.0
  0
XRECORD
  5
7DE1B343D9E07AD
102
{ACAD_REACTORS
330
7DE1B343D9E0796
102
}
330
7DE1B343D9E0796
100
AcDbXrecord
340
0
  0
XRECORD
  5
7DE1B343D9E07AE
102
{ACAD_REACTORS
330
7DE1B343D9E0796
102
}
330
7DE1B343D9E0796
100
AcDbXrecord
 70
     0
  0
XRECORD
  5
7DE1B343D9E07A2
102
{ACAD_REACTORS
330
7DE1B343D9E0796
102
}
330
7DE1B343D9E0796
100
AcDbXrecord
  1
{A3038B82-8DB9-11D6-88E6-0090279574E7}
  0
DICTIONARYVAR
  5
7DE1B343D9E0794
102
{ACAD_REACTORS
330
7DE1B343D9E0793
102
}
330
7DE1B343D9E0793
100
DictionaryVariables
280
     0
  1
1
  0
ENDSEC
  0
EOF
