  0
SECTION
  2
HEADER
  9
$ACADVER
  1
AC1014
  9
$ACADMAINTVER
 70
     9
  9
$DWGCODEPAGE
  3
ANSI_1252
  9
$INSBASE
 10
1.950076217643869
 20
1.296453451077476
 30
0.0
  9
$EXTMIN
 10
-0.0509084158124707
 20
0.4956060560146476
 30
0.0
  9
$EXTMAX
 10
3.434310905934657
 20
1.716298102406989
 30
0.0
  9
$LIMMIN
 10
0.0
 20
0.0
  9
$LIMMAX
 10
18.0
 20
12.0
  9
$ORTHOMODE
 70
     1
  9
$REGENMODE
 70
     1
  9
$FILLMODE
 70
     1
  9
$QTEXTMODE
 70
     0
  9
$MIRRTEXT
 70
     0
  9
$DRAGMODE
 70
     2
  9
$LTSCALE
 40
1.0
  9
$OSMODE
 70
    39
  9
$ATTMODE
 70
     1
  9
$TEXTSIZE
 40
0.125
  9
$TRACEWID
 40
0.05
  9
$TEXTSTYLE
  7
ROMANS
  9
$CLAYER
  8
0
  9
$CELTYPE
  6
BYLAYER
  9
$CECOLOR
 62
   256
  9
$CELTSCALE
 40
1.0
  9
$DELOBJ
 70
     1
  9
$DISPSILH
 70
     1
  9
$DIMSCALE
 40
1.0
  9
$DIMASZ
 40
0.125
  9
$DIMEXO
 40
0.125
  9
$DIMDLI
 40
0.375
  9
$DIMRND
 40
0.0
  9
$DIMDLE
 40
0.0
  9
$DIMEXE
 40
0.125
  9
$DIMTP
 40
0.0
  9
$DIMTM
 40
0.0
  9
$DIMTXT
 40
0.125
  9
$DIMCEN
 40
-0.125
  9
$DIMTSZ
 40
0.0
  9
$DIMTOL
 70
     0
  9
$DIMLIM
 70
     0
  9
$DIMTIH
 70
     1
  9
$DIMTOH
 70
     1
  9
$DIMSE1
 70
     0
  9
$DIMSE2
 70
     0
  9
$DIMTAD
 70
     0
  9
$DIMZIN
 70
     4
  9
$DIMBLK
  1

  9
$DIMASO
 70
     1
  9
$DIMSHO
 70
     1
  9
$DIMPOST
  1

  9
$DIMAPOST
  1

  9
$DIMALT
 70
     0
  9
$DIMALTD
 70
     2
  9
$DIMALTF
 40
25.4
  9
$DIMLFAC
 40
1.0
  9
$DIMTOFL
 70
     0
  9
$DIMTVP
 40
0.0
  9
$DIMTIX
 70
     1
  9
$DIMSOXD
 70
     0
  9
$DIMSAH
 70
     0
  9
$DIMBLK1
  1

  9
$DIMBLK2
  1

  9
$DIMSTYLE
  2
STANDARD
  9
$DIMCLRD
 70
     0
  9
$DIMCLRE
 70
     0
  9
$DIMCLRT
 70
     0
  9
$DIMTFAC
 40
1.0
  9
$DIMGAP
 40
0.09
  9
$DIMJUST
 70
     0
  9
$DIMSD1
 70
     0
  9
$DIMSD2
 70
     0
  9
$DIMTOLJ
 70
     1
  9
$DIMTZIN
 70
     4
  9
$DIMALTZ
 70
     0
  9
$DIMALTTZ
 70
     0
  9
$DIMFIT
 70
     3
  9
$DIMUPT
 70
     0
  9
$DIMUNIT
 70
     2
  9
$DIMDEC
 70
     3
  9
$DIMTDEC
 70
     3
  9
$DIMALTU
 70
     2
  9
$DIMALTTD
 70
     2
  9
$DIMTXSTY
  7
ROMANS
  9
$DIMAUNIT
 70
     0
  9
$LUNITS
 70
     2
  9
$LUPREC
 70
     3
  9
$SKETCHINC
 40
0.1
  9
$FILLETRAD
 40
0.03125
  9
$AUNITS
 70
     0
  9
$AUPREC
 70
     0
  9
$MENU
  1
ACAD
  9
$ELEVATION
 40
0.0
  9
$PELEVATION
 40
0.0
  9
$THICKNESS
 40
0.0
  9
$LIMCHECK
 70
     0
  9
$BLIPMODE
 70
     0
  9
$CHAMFERA
 40
0.0
  9
$CHAMFERB
 40
0.0
  9
$CHAMFERC
 40
0.0
  9
$CHAMFERD
 40
0.0
  9
$SKPOLY
 70
     0
  9
$TDCREATE
 40
2448994.691091666
  9
$TDUPDATE
 40
2452458.323439942
  9
$TDINDWG
 40
0.0005102894
  9
$TDUSRTIMER
 40
0.0005102894
  9
$USRTIMER
 70
     1
  9
$ANGBASE
 50
0.0
  9
$ANGDIR
 70
     0
  9
$PDMODE
 70
     0
  9
$PDSIZE
 40
0.0
  9
$PLINEWID
 40
0.0
  9
$COORDS
 70
     2
  9
$SPLFRAME
 70
     0
  9
$SPLINETYPE
 70
     6
  9
$SPLINESEGS
 70
     8
  9
$ATTDIA
 70
     0
  9
$ATTREQ
 70
     1
  9
$HANDLING
 70
 22529
  9
$HANDSEED
  5
7DE1B343D9E030B
  9
$SURFTAB1
 70
     6
  9
$SURFTAB2
 70
     6
  9
$SURFTYPE
 70
     6
  9
$SURFU
 70
     6
  9
$SURFV
 70
     6
  9
$UCSNAME
  2

  9
$UCSORG
 10
0.0
 20
0.0
 30
0.0
  9
$UCSXDIR
 10
1.0
 20
0.0
 30
0.0
  9
$UCSYDIR
 10
0.0
 20
1.0
 30
0.0
  9
$PUCSNAME
  2

  9
$PUCSORG
 10
0.0
 20
0.0
 30
0.0
  9
$PUCSXDIR
 10
1.0
 20
0.0
 30
0.0
  9
$PUCSYDIR
 10
0.0
 20
1.0
 30
0.0
  9
$USERI1
 70
     0
  9
$USERI2
 70
     0
  9
$USERI3
 70
     0
  9
$USERI4
 70
     0
  9
$USERI5
 70
     0
  9
$USERR1
 40
0.0
  9
$USERR2
 40
0.0
  9
$USERR3
 40
0.0
  9
$USERR4
 40
0.0
  9
$USERR5
 40
0.0
  9
$WORLDVIEW
 70
     1
  9
$SHADEDGE
 70
     3
  9
$SHADEDIF
 70
    70
  9
$TILEMODE
 70
     1
  9
$MAXACTVP
 70
    16
  9
$PINSBASE
 10
0.0
 20
0.0
 30
0.0
  9
$PLIMCHECK
 70
     0
  9
$PEXTMIN
 10
1.000000000000000E+20
 20
1.000000000000000E+20
 30
1.000000000000000E+20
  9
$PEXTMAX
 10
-1.000000000000000E+20
 20
-1.000000000000000E+20
 30
-1.000000000000000E+20
  9
$PLIMMIN
 10
0.0
 20
0.0
  9
$PLIMMAX
 10
12.0
 20
9.0
  9
$UNITMODE
 70
     0
  9
$VISRETAIN
 70
     0
  9
$PLINEGEN
 70
     1
  9
$PSLTSCALE
 70
     0
  9
$TREEDEPTH
 70
  3020
  9
$PICKSTYLE
 70
     1
  9
$CMLSTYLE
  2
STANDARD
  9
$CMLJUST
 70
     0
  9
$CMLSCALE
 40
1.0
  9
$PROXYGRAPHICS
 70
     1
  9
$MEASUREMENT
 70
     0
  0
ENDSEC
  0
SECTION
  2
CLASSES
  0
CLASS
  1
LWPOLYLINE
  2
AcDbPolyline
  3
AutoCAD 2000
 90
        0
280
     0
281
     1
  0
CLASS
  1
ACDBDICTIONARYWDFLT
  2
AcDbDictionaryWithDefault
  3
AutoCAD 2000
 90
        0
280
     0
281
     0
  0
CLASS
  1
ACDBPLACEHOLDER
  2
AcDbPlaceHolder
  3
AutoCAD 2000
 90
        0
280
     0
281
     0
  0
CLASS
  1
LAYOUT
  2
AcDbLayout
  3
AutoCAD 2000
 90
        0
280
     0
281
     0
  0
CLASS
  1
DICTIONARYVAR
  2
AcDbDictionaryVar
  3
AutoCAD 2000
 90
        0
280
     0
281
     0
  0
CLASS
  1
LONG_TRANSACTION
  2
AcDbLongTransaction
  3
AutoCAD 2000
 90
        0
280
     0
281
     0
  0
CLASS
  1
LWPOLYLINE
  2
AcDbPolyline
  3
AutoCAD 2000
 90
        0
280
     0
281
     1
  0
CLASS
  1
HATCH
  2
AcDbHatch
  3
AutoCAD 2000
 90
        0
280
     0
281
     1
  0
CLASS
  1
XRECORD
  2
AcDbXrecord
  3
AutoCAD 2000
 90
        0
280
     0
281
     0
  0
ENDSEC
  0
SECTION
  2
TABLES
  0
TABLE
  2
VPORT
  5
7DE1B343D9E02B2
330
0
100
AcDbSymbolTable
 70
     2
  0
VPORT
  5
7DE1B343D9E02E6
330
7DE1B343D9E02B2
100
AcDbSymbolTableRecord
100
AcDbViewportTableRecord
  2
*ACTIVE
 70
     0
 10
0.0
 20
0.0
 11
1.0
 21
1.0
 12
4.668569480605446
 22
1.106048606226742
 13
0.0
 23
0.0
 14
0.015625
 24
0.015625
 15
0.0
 25
0.0
 16
0.0
 26
0.0
 36
1.0
 17
0.0
 27
0.0
 37
0.0
 40
2.282792064908447
 41
4.320930232558139
 42
50.0
 43
0.0
 44
0.0
 50
0.0
 51
0.0
 71
     0
 72
  2000
 73
     1
 74
     0
 75
     0
 76
     0
 77
     0
 78
     0
  0
ENDTAB
  0
TABLE
  2
LTYPE
  5
7DE1B343D9E02AF
330
0
100
AcDbSymbolTable
 70
     1
  0
LTYPE
  5
7DE1B343D9E02BC
330
7DE1B343D9E02AF
100
AcDbSymbolTableRecord
100
AcDbLinetypeTableRecord
  2
BYBLOCK
 70
     0
  3

 72
    65
 73
     0
 40
0.0
  0
LTYPE
  5
7DE1B343D9E02BD
330
7DE1B343D9E02AF
100
AcDbSymbolTableRecord
100
AcDbLinetypeTableRecord
  2
BYLAYER
 70
     0
  3

 72
    65
 73
     0
 40
0.0
  0
LTYPE
  5
7DE1B343D9E02BE
330
7DE1B343D9E02AF
100
AcDbSymbolTableRecord
100
AcDbLinetypeTableRecord
  2
CONTINUOUS
 70
     0
  3
Solid line
 72
    65
 73
     0
 40
0.0
  0
ENDTAB
  0
TABLE
  2
LAYER
  5
7DE1B343D9E02AC
330
0
100
AcDbSymbolTable
 70
     2
  0
LAYER
  5
7DE1B343D9E02B9
330
7DE1B343D9E02AC
100
AcDbSymbolTableRecord
100
AcDbLayerTableRecord
  2
0
 70
     0
 62
     7
  6
CONTINUOUS
  0
LAYER
  5
7DE1B343D9E02C9
330
7DE1B343D9E02AC
100
AcDbSymbolTableRecord
100
AcDbLayerTableRecord
  2
TEXT
 70
     0
 62
     3
  6
CONTINUOUS
  0
ENDTAB
  0
TABLE
  2
STYLE
  5
7DE1B343D9E02AD
330
0
100
AcDbSymbolTable
 70
     3
  0
STYLE
  5
7DE1B343D9E02BA
330
7DE1B343D9E02AD
100
AcDbSymbolTableRecord
100
AcDbTextStyleTableRecord
  2
STANDARD
 70
     0
 40
0.0
 41
1.0
 50
0.0
 71
     0
 42
0.3125
  3
txt
  4

  0
STYLE
  5
7DE1B343D9E02C6
330
7DE1B343D9E02AD
100
AcDbSymbolTableRecord
100
AcDbTextStyleTableRecord
  2
ITALICC
 70
     0
 40
0.0
 41
1.0
 50
0.0
 71
     0
 42
0.125
  3
italicc
  4

  0
STYLE
  5
7DE1B343D9E02D6
330
7DE1B343D9E02AD
100
AcDbSymbolTableRecord
100
AcDbTextStyleTableRecord
  2
ROMANS
 70
     0
 40
0.0
 41
1.0
 50
0.0
 71
     0
 42
0.125
  3
romans.shx
  4

  0
ENDTAB
  0
TABLE
  2
VIEW
  5
7DE1B343D9E02B0
330
0
100
AcDbSymbolTable
 70
     0
  0
ENDTAB
  0
TABLE
  2
UCS
  5
7DE1B343D9E02B1
330
0
100
AcDbSymbolTable
 70
     0
  0
ENDTAB
  0
TABLE
  2
APPID
  5
7DE1B343D9E02B3
330
0
100
AcDbSymbolTable
 70
     1
  0
APPID
  5
7DE1B343D9E02BB
330
7DE1B343D9E02B3
100
AcDbSymbolTableRecord
100
AcDbRegAppTableRecord
  2
ACAD
 70
     0
  0
ENDTAB
  0
TABLE
  2
DIMSTYLE
  5
7DE1B343D9E02B4
330
0
100
AcDbSymbolTable
 70
     1
  0
DIMSTYLE
105
7DE1B343D9E02CE
330
7DE1B343D9E02B4
100
AcDbSymbolTableRecord
100
AcDbDimStyleTableRecord
  2
STANDARD
 70
     0
  3

  4

  5

  6

  7

 40
1.0
 41
0.125
 42
0.125
 43
0.375
 44
0.125
 45
0.0
 46
0.0
 47
0.0
 48
0.0
140
0.125
141
-0.125
142
0.0
143
25.4
144
1.0
145
0.0
146
1.0
147
0.09
 71
     0
 72
     0
 73
     1
 74
     1
 75
     0
 76
     0
 77
     0
 78
     4
170
     0
171
     2
172
     0
173
     0
174
     1
175
     0
176
     0
177
     0
178
     0
270
     2
271
     3
272
     3
273
     2
274
     2
340
7DE1B343D9E02D6
275
     0
280
     0
281
     0
282
     0
283
     1
284
     4
285
     0
286
     0
287
     3
288
     0
  0
ENDTAB
  0
TABLE
  2
BLOCK_RECORD
  5
7DE1B343D9E02AB
330
0
100
AcDbSymbolTable
 70
     0
  0
BLOCK_RECORD
  5
7DE1B343D9E02C2
102
{ACAD_XDICTIONARY
360
7DE1B343D9E0309
102
}
330
7DE1B343D9E02AB
100
AcDbSymbolTableRecord
100
AcDbBlockTableRecord
  2
*MODEL_SPACE
  0
BLOCK_RECORD
  5
7DE1B343D9E02BF
102
{ACAD_XDICTIONARY
360
7DE1B343D9E0307
102
}
330
7DE1B343D9E02AB
100
AcDbSymbolTableRecord
100
AcDbBlockTableRecord
  2
*PAPER_SPACE
  0
ENDTAB
  0
ENDSEC
  0
SECTION
  2
BLOCKS
  0
BLOCK
  5
7DE1B343D9E02CC
330
7DE1B343D9E02C2
100
AcDbEntity
  8
0
100
AcDbBlockBegin
  2
*MODEL_SPACE
 70
     0
 10
0.0
 20
0.0
 30
0.0
  3
*MODEL_SPACE
  1

  0
ENDBLK
  5
7DE1B343D9E02CD
330
7DE1B343D9E02C2
100
AcDbEntity
  8
0
100
AcDbBlockEnd
  0
BLOCK
  5
7DE1B343D9E02CA
330
7DE1B343D9E02BF
100
AcDbEntity
 67
     1
  8
0
100
AcDbBlockBegin
  2
*PAPER_SPACE
 70
     0
 10
0.0
 20
0.0
 30
0.0
  3
*PAPER_SPACE
  1

  0
ENDBLK
  5
7DE1B343D9E02CB
330
7DE1B343D9E02BF
100
AcDbEntity
 67
     1
  8
0
100
AcDbBlockEnd
  0
ENDSEC
  0
SECTION
  2
ENTITIES
  0
LWPOLYLINE
  5
7DE1B343D9DED54
330
7DE1B343D9E02C2
100
AcDbEntity
  8
0
100
AcDbPolyline
 90
        8
 70
     1
 43
0.0
 10
1.106326217643869
 20
1.296453451077476
 42
-0.4142135623730951
 10
1.075076217643869
 20
1.327703451077476
 10
1.075076217643869
 20
1.390203451077476
 42
-0.4142135623730951
 10
1.106326217643869
 20
1.421453451077476
 10
1.986687869995551
 20
1.421453451077476
 10
2.259435434412984
 20
1.694201015494909
 42
-0.9999999999999998
 10
2.303629608237142
 20
1.65000684167075
 10
1.950076217643869
 20
1.296453451077476
  0
TEXT
  5
7DE1B343D9E016D
330
7DE1B343D9E02C2
100
AcDbEntity
  8
TEXT
100
AcDbText
 10
0.9390969729384819
 20
0.953624660097229
 30
0.0
 40
0.125
  1
PART #120062
  7
ITALICC
 72
     1
 11
1.692073163414672
 21
0.953624660097229
 31
0.0
100
AcDbText
  0
TEXT
  5
7DE1B343D9E016E
330
7DE1B343D9E02C2
100
AcDbEntity
  8
TEXT
100
AcDbText
 10
2.105378321664993
 20
0.5067020174248541
 30
0.0
 40
0.0522247191011236
  1
Phone  1-800-328-2495
 41
1.272321428571429
 72
     5
 11
3.434310905934657
 21
0.5067020174248541
 31
0.0
100
AcDbText
  0
TEXT
  5
7DE1B343D9E016F
330
7DE1B343D9E02C2
100
AcDbEntity
  8
TEXT
100
AcDbText
 10
2.105378321664993
 20
0.7864772983237306
 30
0.0
 40
0.0522247191011236
  1
Stylmark  Incorporated
 41
1.221428571428573
 72
     5
 11
3.434310905934657
 21
0.7864772983237306
 31
0.0
100
AcDbText
  0
TEXT
  5
7DE1B343D9E0170
330
7DE1B343D9E02C2
100
AcDbEntity
  8
TEXT
100
AcDbText
 10
2.105378321664993
 20
0.6932188713574384
 30
0.0
 40
0.0522247191011236
  1
6536 Main St. N.E. * P.O. Box 32008
 41
0.8388932496075366
 72
     5
 11
3.434310905934657
 21
0.6932188713574384
 31
0.0
100
AcDbText
  0
TEXT
  5
7DE1B343D9E0171
330
7DE1B343D9E02C2
100
AcDbEntity
  8
TEXT
100
AcDbText
 10
2.105378321664993
 20
0.5999604443911462
 30
0.0
 40
0.0522247191011236
  1
Minneapolis, MN 55432-0008
 41
1.11444212721585
 72
     5
 11
3.434310905934657
 21
0.5999604443911462
 31
0.0
100
AcDbText
  0
LWPOLYLINE
  5
7DE1B343D9E0172
330
7DE1B343D9E02C2
100
AcDbEntity
  8
TEXT
100
AcDbPolyline
 90
        3
 70
     0
 43
0.0006660908203125
 10
-0.0505753704023144
 20
0.6203467800622889
 10
-0.0505753704023144
 20
0.5071113406091613
 10
0.0626600690508079
 20
0.5071113406091613
  0
LWPOLYLINE
  5
7DE1B343D9E0177
330
7DE1B343D9E02C2
100
AcDbEntity
  8
TEXT
100
AcDbPolyline
 90
        3
 70
     0
 43
0.0006660908203125
 10
-0.0239317375898169
 20
0.6203467800622889
 10
-0.0239317375898169
 20
0.5337549734216623
 10
0.0626600690508079
 20
0.5337549734216623
  0
LWPOLYLINE
  5
7DE1B343D9E017C
330
7DE1B343D9E02C2
100
AcDbEntity
  8
TEXT
100
AcDbPolyline
 90
        2
 70
     0
 43
0.0001332181640625
 10
0.0226946198320599
 20
0.6303381423669741
 10
-0.0505753704023144
 20
0.6203467800622889
  0
LWPOLYLINE
  5
7DE1B343D9E0180
330
7DE1B343D9E02C2
100
AcDbEntity
  8
TEXT
100
AcDbPolyline
 90
        2
 70
     0
 43
0.0001332181640625
 10
-0.0239317375898169
 20
0.6203467800622889
 10
0.0360164362383104
 20
0.6303381423669741
  0
LWPOLYLINE
  5
7DE1B343D9E0184
330
7DE1B343D9E02C2
100
AcDbEntity
  8
TEXT
100
AcDbPolyline
 90
        2
 70
     0
 43
0.0001332181640625
 10
-0.0239317375898169
 20
0.5337549734216623
 10
0.0360164362383104
 20
0.5937031472497879
  0
LWPOLYLINE
  5
7DE1B343D9E0188
330
7DE1B343D9E02C2
100
AcDbEntity
  8
TEXT
100
AcDbPolyline
 90
        3
 70
     0
 43
0.0006660908203125
 10
0.0626600690508079
 20
0.7735476687341646
 10
-0.0505753704023144
 20
0.7735476687341646
 10
-0.0505753704023144
 20
0.6603122292810369
  0
LWPOLYLINE
  5
7DE1B343D9E018D
330
7DE1B343D9E02C2
100
AcDbEntity
  8
TEXT
100
AcDbPolyline
 90
        3
 70
     0
 43
0.0006660908203125
 10
0.0626600690508079
 20
0.7469040359216635
 10
-0.0239317375898169
 20
0.7469040359216635
 10
-0.0239317375898169
 20
0.6603122292810369
  0
LWPOLYLINE
  5
7DE1B343D9E0192
330
7DE1B343D9E02C2
100
AcDbEntity
  8
TEXT
100
AcDbPolyline
 90
        2
 70
     0
 43
0.0001332181640625
 10
-0.0239317375898169
 20
0.7469040359216635
 10
0.0360164362383086
 20
0.686955862093538
  0
LWPOLYLINE
  5
7DE1B343D9E0196
330
7DE1B343D9E02C2
100
AcDbEntity
  8
TEXT
100
AcDbPolyline
 90
        2
 70
     0
 43
0.0001332181640625
 10
-0.0239317375898169
 20
0.6603122292810369
 10
0.0360164362383086
 20
0.6503208669763481
  0
LWPOLYLINE
  5
7DE1B343D9E019A
330
7DE1B343D9E02C2
100
AcDbEntity
  8
TEXT
100
AcDbPolyline
 90
        2
 70
     0
 43
0.0001332181640625
 10
-0.0505753704023144
 20
0.6603122292810369
 10
0.0226946198320599
 20
0.6503208669763481
  0
LWPOLYLINE
  5
7DE1B343D9E019E
330
7DE1B343D9E02C2
100
AcDbEntity
  8
TEXT
100
AcDbPolyline
 90
        2
 70
     0
 43
0.0006660908203125
 10
-0.0239317375898169
 20
0.6203467800622889
 10
-0.0505753704023144
 20
0.6203467800622889
  0
LWPOLYLINE
  5
7DE1B343D9E01A2
330
7DE1B343D9E02C2
100
AcDbEntity
  8
TEXT
100
AcDbPolyline
 90
        2
 70
     0
 43
0.0006660908203125
 10
-0.0239317375898169
 20
0.6603122292810369
 10
-0.0505753704023144
 20
0.6603122292810369
  0
LINE
  5
7DE1B343D9E01A6
330
7DE1B343D9E02C2
100
AcDbEntity
  8
TEXT
100
AcDbLine
 10
1.464615058724183
 20
0.7092709740773956
 30
0.0
 11
1.357408785336893
 21
0.7092709740773956
 31
0.0
  0
LINE
  5
7DE1B343D9E01A7
330
7DE1B343D9E02C2
100
AcDbEntity
  8
TEXT
100
AcDbLine
 10
1.493645957068661
 20
0.773547668734161
 30
0.0
 11
1.358814047851602
 21
0.773547668734161
 31
0.0
  0
ARC
  5
7DE1B343D9E01A8
330
7DE1B343D9E02C2
100
AcDbEntity
  8
TEXT
100
AcDbCircle
 10
1.418128144244919
 20
0.6043104194711447
 30
0.0
 40
0.0676855811441166
100
AcDbArc
 50
90.0
 51
153.7768192527749
  0
LWPOLYLINE
  5
7DE1B343D9E01A9
330
7DE1B343D9E02C2
100
AcDbEntity
  8
TEXT
100
AcDbPolyline
 90
        2
 70
     0
 43
0.0
 10
1.356376289882083
 20
0.5505655806960882
 42
0.2901071551932823
 10
1.399452222749719
 20
0.50707463574565
 42
5.328517124445801
  0
ARC
  5
7DE1B343D9E01AD
330
7DE1B343D9E02C2
100
AcDbEntity
  8
TEXT
100
AcDbCircle
 10
0.7129967665734336
 20
0.5668670270836998
 30
0.0
 40
0.0601160179737537
100
AcDbArc
 50
180.0000000000003
 51
264.0521544866073
  0
LINE
  5
7DE1B343D9E01AE
330
7DE1B343D9E02C2
100
AcDbEntity
  8
TEXT
100
AcDbLine
 10
0.7165121221989815
 20
0.8079355863282991
 30
0.0
 11
0.6564695173549744
 21
0.8079355863282991
 31
0.0
  0
ARC
  5
7DE1B343D9E01AF
330
7DE1B343D9E02C2
100
AcDbEntity
  8
TEXT
100
AcDbCircle
 10
0.480737764456463
 20
0.6914602092876592
 30
0.0
 40
0.0820874594465043
100
AcDbArc
 50
90.0
 51
270.0
  0
LWPOLYLINE
  5
7DE1B343D9E01B0
330
7DE1B343D9E02C2
100
AcDbEntity
  8
TEXT
100
AcDbPolyline
 90
        2
 70
     0
 43
0.0001332181640625
 10
0.0726514313554985
 20
0.7002776784997849
 10
0.0626600690508079
 20
0.7735476687341646
  0
LWPOLYLINE
  5
7DE1B343D9E01B4
330
7DE1B343D9E02C2
100
AcDbEntity
  8
TEXT
100
AcDbPolyline
 90
        2
 70
     0
 43
0.0001332181640625
 10
0.0626600690508079
 20
0.7469040359216635
 10
0.0726514313554985
 20
0.686955862093538
  0
LWPOLYLINE
  5
7DE1B343D9E01B8
330
7DE1B343D9E02C2
100
AcDbEntity
  8
TEXT
100
AcDbPolyline
 90
        3
 70
     0
 43
0.0006660908203125
 10
0.2158609577226853
 20
0.6603122292810369
 10
0.2158609577226853
 20
0.7735476687341646
 10
0.1026255182695595
 20
0.7735476687341646
  0
LWPOLYLINE
  5
7DE1B343D9E01BD
330
7DE1B343D9E02C2
100
AcDbEntity
  8
TEXT
100
AcDbPolyline
 90
        3
 70
     0
 43
0.0006660908203125
 10
0.1892173249101843
 20
0.6603122292810369
 10
0.1892173249101843
 20
0.7469040359216635
 10
0.1026255182695595
 20
0.7469040359216635
  0
LWPOLYLINE
  5
7DE1B343D9E01C2
330
7DE1B343D9E02C2
100
AcDbEntity
  8
TEXT
100
AcDbPolyline
 90
        2
 70
     0
 43
0.0001332181640625
 10
0.1892173249101843
 20
0.7469040359216635
 10
0.1292691510820605
 20
0.686955862093538
  0
LWPOLYLINE
  5
7DE1B343D9E01C6
330
7DE1B343D9E02C2
100
AcDbEntity
  8
TEXT
100
AcDbPolyline
 90
        2
 70
     0
 43
0.0001332181640625
 10
0.1026255182695595
 20
0.7469040359216635
 10
0.0926341559648707
 20
0.686955862093538
  0
LWPOLYLINE
  5
7DE1B343D9E01CA
330
7DE1B343D9E02C2
100
AcDbEntity
  8
TEXT
100
AcDbPolyline
 90
        2
 70
     0
 43
0.0001332181640625
 10
0.1026255182695595
 20
0.7735476687341646
 10
0.0926341559648707
 20
0.7002776784997849
  0
LWPOLYLINE
  5
7DE1B343D9E01CE
330
7DE1B343D9E02C2
100
AcDbEntity
  8
TEXT
100
AcDbPolyline
 90
        2
 70
     0
 43
0.0001332181640625
 10
0.1425909674883092
 20
0.6503208669763481
 10
0.2158609577226853
 20
0.6603122292810369
  0
LWPOLYLINE
  5
7DE1B343D9E01D2
330
7DE1B343D9E02C2
100
AcDbEntity
  8
TEXT
100
AcDbPolyline
 90
        2
 70
     0
 43
0.0001332181640625
 10
0.1892173249101843
 20
0.6603122292810369
 10
0.1292691510820605
 20
0.6503208669763481
  0
LWPOLYLINE
  5
7DE1B343D9E01D6
330
7DE1B343D9E02C2
100
AcDbEntity
  8
TEXT
100
AcDbPolyline
 90
        2
 70
     0
 43
0.0001332181640625
 10
0.2158609577226853
 20
0.6203467800622889
 10
0.1425909674883092
 20
0.6303381423669741
  0
LWPOLYLINE
  5
7DE1B343D9E01DA
330
7DE1B343D9E02C2
100
AcDbEntity
  8
TEXT
100
AcDbPolyline
 90
        2
 70
     0
 43
0.0001332181640625
 10
0.1892173249101843
 20
0.6203467800622889
 10
0.1292691510820605
 20
0.6303381423669741
  0
LWPOLYLINE
  5
7DE1B343D9E01DE
330
7DE1B343D9E02C2
100
AcDbEntity
  8
TEXT
100
AcDbPolyline
 90
        2
 70
     0
 43
0.0001332181640625
 10
0.1892173249101843
 20
0.5337549734216623
 10
0.1292691510820605
 20
0.5937031472497879
  0
LWPOLYLINE
  5
7DE1B343D9E01E2
330
7DE1B343D9E02C2
100
AcDbEntity
  8
TEXT
100
AcDbPolyline
 90
        3
 70
     0
 43
0.0006660908203125
 10
0.1026255182695595
 20
0.5337549734216623
 10
0.1892173249101843
 20
0.5337549734216623
 10
0.1892173249101843
 20
0.6203467800622889
  0
LWPOLYLINE
  5
7DE1B343D9E01E7
330
7DE1B343D9E02C2
100
AcDbEntity
  8
TEXT
100
AcDbPolyline
 90
        3
 70
     0
 43
0.0006660908203125
 10
0.1026255182695595
 20
0.5071113406091613
 10
0.2158609577226853
 20
0.5071113406091613
 10
0.2158609577226853
 20
0.6203467800622889
  0
LWPOLYLINE
  5
7DE1B343D9E01EC
330
7DE1B343D9E02C2
100
AcDbEntity
  8
TEXT
100
AcDbPolyline
 90
        5
 70
     0
 43
0.0001332181640625
 10
0.0726514313554985
 20
0.5803813308435374
 10
0.0726514313554985
 20
0.5937031472497879
 10
0.0360164362383104
 20
0.5937031472497879
 10
0.0360164362383104
 20
0.6303381423669741
 10
0.0226946198320599
 20
0.6303381423669741
  0
LWPOLYLINE
  5
7DE1B343D9E01F3
330
7DE1B343D9E02C2
100
AcDbEntity
  8
TEXT
100
AcDbPolyline
 90
        2
 70
     0
 43
0.0006660908203125
 10
0.0626600690508079
 20
0.5337549734216623
 10
0.0626600690508079
 20
0.5071113406091613
  0
LWPOLYLINE
  5
7DE1B343D9E01F7
330
7DE1B343D9E02C2
100
AcDbEntity
  8
TEXT
100
AcDbPolyline
 90
        2
 70
     0
 43
0.0001332181640625
 10
0.0626600690508079
 20
0.5337549734216623
 10
0.0726514313554985
 20
0.5937031472497879
  0
LWPOLYLINE
  5
7DE1B343D9E01FB
330
7DE1B343D9E02C2
100
AcDbEntity
  8
TEXT
100
AcDbPolyline
 90
        2
 70
     0
 43
0.0001332181640625
 10
0.0626600690508079
 20
0.5071113406091613
 10
0.0726514313554985
 20
0.5803813308435374
  0
LWPOLYLINE
  5
7DE1B343D9E01FF
330
7DE1B343D9E02C2
100
AcDbEntity
  8
TEXT
100
AcDbPolyline
 90
        5
 70
     0
 43
0.0001332181640625
 10
0.0226946198320599
 20
0.6503208669763481
 10
0.0360164362383086
 20
0.6503208669763481
 10
0.0360164362383086
 20
0.686955862093538
 10
0.0726514313554985
 20
0.686955862093538
 10
0.0726514313554985
 20
0.7002776784997849
  0
LWPOLYLINE
  5
7DE1B343D9E0206
330
7DE1B343D9E02C2
100
AcDbEntity
  8
TEXT
100
AcDbPolyline
 90
        5
 70
     0
 43
0.0001332181640625
 10
0.0926341559648707
 20
0.7002776784997849
 10
0.0926341559648707
 20
0.686955862093538
 10
0.1292691510820605
 20
0.686955862093538
 10
0.1292691510820605
 20
0.6503208669763481
 10
0.1425909674883092
 20
0.6503208669763481
  0
LWPOLYLINE
  5
7DE1B343D9E020D
330
7DE1B343D9E02C2
100
AcDbEntity
  8
TEXT
100
AcDbPolyline
 90
        2
 70
     0
 43
0.0001332181640625
 10
0.1026255182695595
 20
0.5337549734216623
 10
0.0926341559648707
 20
0.5937031472497879
  0
LWPOLYLINE
  5
7DE1B343D9E0211
330
7DE1B343D9E02C2
100
AcDbEntity
  8
TEXT
100
AcDbPolyline
 90
        2
 70
     0
 43
0.0001332181640625
 10
0.0926341559648707
 20
0.5803813308435374
 10
0.1026255182695595
 20
0.5071113406091613
  0
LWPOLYLINE
  5
7DE1B343D9E0215
330
7DE1B343D9E02C2
100
AcDbEntity
  8
TEXT
100
AcDbPolyline
 90
        2
 70
     0
 43
0.0006660908203125
 10
0.1026255182695595
 20
0.5337549734216623
 10
0.1026255182695595
 20
0.5071113406091613
  0
LWPOLYLINE
  5
7DE1B343D9E0219
330
7DE1B343D9E02C2
100
AcDbEntity
  8
TEXT
100
AcDbPolyline
 90
        5
 70
     0
 43
0.0001332181640625
 10
0.1425909674883092
 20
0.6303381423669741
 10
0.1292691510820605
 20
0.6303381423669741
 10
0.1292691510820605
 20
0.5937031472497879
 10
0.0926341559648707
 20
0.5937031472497879
 10
0.0926341559648707
 20
0.5803813308435374
  0
LWPOLYLINE
  5
7DE1B343D9E0220
330
7DE1B343D9E02C2
100
AcDbEntity
  8
TEXT
100
AcDbPolyline
 90
        2
 70
     0
 43
0.0006660908203125
 10
0.1892173249101843
 20
0.6603122292810369
 10
0.2158609577226853
 20
0.6603122292810369
  0
LWPOLYLINE
  5
7DE1B343D9E0224
330
7DE1B343D9E02C2
100
AcDbEntity
  8
TEXT
100
AcDbPolyline
 90
        2
 70
     0
 43
0.0006660908203125
 10
0.1892173249101843
 20
0.6203467800622889
 10
0.2158609577226853
 20
0.6203467800622889
  0
LINE
  5
7DE1B343D9E0228
330
7DE1B343D9E02C2
100
AcDbEntity
  8
TEXT
100
AcDbLine
 10
0.4859750945707102
 20
0.7092709740773956
 30
0.0
 11
0.6528807485996815
 21
0.7092709740773956
 31
0.0
  0
LINE
  5
7DE1B343D9E0229
330
7DE1B343D9E02C2
100
AcDbEntity
  8
TEXT
100
AcDbLine
 10
0.5515752308150113
 20
0.6734662524667677
 30
0.0
 11
0.4859750945707102
 21
0.6734662524667677
 31
0.0
  0
LINE
  5
7DE1B343D9E022A
330
7DE1B343D9E02C2
100
AcDbEntity
  8
TEXT
100
AcDbLine
 10
0.3986503050099586
 20
0.50707463574565
 30
0.0
 11
0.5515752308150113
 21
0.50707463574565
 31
0.0
  0
LINE
  5
7DE1B343D9E022B
330
7DE1B343D9E02C2
100
AcDbEntity
  8
TEXT
100
AcDbLine
 10
0.556515604721291
 20
0.5754316420790893
 30
0.0
 11
0.3986503050099568
 21
0.5754316420790893
 31
0.0
  0
LINE
  5
7DE1B343D9E022C
330
7DE1B343D9E02C2
100
AcDbEntity
  8
TEXT
100
AcDbLine
 10
0.4807377644564621
 20
0.6093727498411539
 30
0.0
 11
0.556515604721291
 21
0.6093727498411539
 31
0.0
  0
ARC
  5
7DE1B343D9E022D
330
7DE1B343D9E02C2
100
AcDbEntity
  8
TEXT
100
AcDbCircle
 10
0.4859750945707111
 20
0.6913686132720834
 30
0.0
 40
0.017902360805315
100
AcDbArc
 50
90.0
 51
270.0
  0
LINE
  5
7DE1B343D9E022E
330
7DE1B343D9E02C2
100
AcDbEntity
  8
TEXT
100
AcDbLine
 10
0.3986503050099568
 20
0.5754316420790893
 30
0.0
 11
0.3986503050099586
 21
0.50707463574565
 31
0.0
  0
LINE
  5
7DE1B343D9E022F
330
7DE1B343D9E02C2
100
AcDbEntity
  8
TEXT
100
AcDbLine
 10
0.6528807485996815
 20
0.7092709740773956
 30
0.0
 11
0.6528807485996815
 21
0.5668670270836998
 31
0.0
  0
ARC
  5
7DE1B343D9E0230
330
7DE1B343D9E02C2
100
AcDbEntity
  8
TEXT
100
AcDbCircle
 10
0.5515752308150122
 20
0.5902704441062071
 30
0.0
 40
0.0831958083605586
100
AcDbArc
 50
270.0
 51
90.0
  0
ARC
  5
7DE1B343D9E0231
330
7DE1B343D9E02C2
100
AcDbEntity
  8
TEXT
100
AcDbCircle
 10
0.5565156047212918
 20
0.5924021959601234
 30
0.0
 40
0.0169705538810321
100
AcDbArc
 50
270.0
 51
90.0
  0
LWPOLYLINE
  5
7DE1B343D9E0232
330
7DE1B343D9E02C2
100
AcDbEntity
  8
TEXT
100
AcDbPolyline
 90
        2
 70
     0
 43
0.0006660908203125
 10
0.0626600690508079
 20
0.7469040359216635
 10
0.0626600690508079
 20
0.7735476687341646
  0
LWPOLYLINE
  5
7DE1B343D9E0236
330
7DE1B343D9E02C2
100
AcDbEntity
  8
TEXT
100
AcDbPolyline
 90
        2
 70
     0
 43
0.0006660908203125
 10
0.1026255182695595
 20
0.7469040359216635
 10
0.1026255182695595
 20
0.7735476687341646
  0
LINE
  5
7DE1B343D9E023A
330
7DE1B343D9E02C2
100
AcDbEntity
  8
TEXT
100
AcDbLine
 10
0.6564695173549744
 20
0.773547668734161
 30
0.0
 11
0.4807377644564621
 21
0.773547668734161
 31
0.0
  0
LINE
  5
7DE1B343D9E023B
330
7DE1B343D9E02C2
100
AcDbEntity
  8
TEXT
100
AcDbLine
 10
0.6564695173549744
 20
0.8079355863282991
 30
0.0
 11
0.6564695173549744
 21
0.773547668734161
 31
0.0
  0
LINE
  5
7DE1B343D9E023C
330
7DE1B343D9E02C2
100
AcDbEntity
  8
TEXT
100
AcDbLine
 10
0.8469414093748266
 20
0.6726756726210404
 30
0.0
 11
0.7883110883428888
 21
0.773547668734161
 31
0.0
  0
LINE
  5
7DE1B343D9E023D
330
7DE1B343D9E02C2
100
AcDbEntity
  8
TEXT
100
AcDbLine
 10
0.9056899721806921
 20
0.773547668734161
 30
0.0
 11
0.8469414093748266
 21
0.6726756726210404
 31
0.0
  0
LINE
  5
7DE1B343D9E023E
330
7DE1B343D9E02C2
100
AcDbEntity
  8
TEXT
100
AcDbLine
 10
1.002620597540433
 20
0.5894624738486492
 30
0.0
 11
1.002620597540433
 21
0.8415591464729715
 31
0.0
  0
LINE
  5
7DE1B343D9E023F
330
7DE1B343D9E02C2
100
AcDbEntity
  8
TEXT
100
AcDbLine
 10
1.034932451678093
 20
0.773547668734161
 30
0.0
 11
1.034932451678093
 21
0.5726834620017528
 31
0.0
  0
LINE
  5
7DE1B343D9E0240
330
7DE1B343D9E02C2
100
AcDbEntity
  8
TEXT
100
AcDbLine
 10
1.034932451678093
 20
0.5726834620017528
 30
0.0
 11
1.017938814793492
 21
0.5726834620017528
 31
0.0
  0
LINE
  5
7DE1B343D9E0241
330
7DE1B343D9E02C2
100
AcDbEntity
  8
TEXT
100
AcDbLine
 10
1.003760171036628
 20
0.50707463574565
 30
0.0
 11
1.101763504736062
 21
0.50707463574565
 31
0.0
  0
LINE
  5
7DE1B343D9E0242
330
7DE1B343D9E02C2
100
AcDbEntity
  8
TEXT
100
AcDbLine
 10
0.8373411723778723
 20
0.5270331418506629
 30
0.0
 11
0.9346408784713169
 21
0.6913833527859311
 31
0.0
  0
ARC
  5
7DE1B343D9E0243
330
7DE1B343D9E02C2
100
AcDbEntity
  8
TEXT
100
AcDbCircle
 10
0.8032976124656583
 20
0.5466223580193457
 30
0.0
 40
0.0392772371940762
100
AcDbArc
 50
270.1604552698595
 51
330.0831797321295
  0
LINE
  5
7DE1B343D9E0244
330
7DE1B343D9E02C2
100
AcDbEntity
  8
TEXT
100
AcDbLine
 10
0.7067673560797872
 20
0.50707463574565
 30
0.0
 11
0.8034076071547815
 21
0.5073452748439323
 31
0.0
  0
LWPOLYLINE
  5
7DE1B343D9E0245
330
7DE1B343D9E02C2
100
AcDbEntity
  8
TEXT
100
AcDbPolyline
 90
        6
 70
     1
 43
0.0
 10
0.7492911596549368
 20
0.7092709740773956
 10
0.7189745654347286
 20
0.7092709740773956
 10
0.7189745654347286
 20
0.5861599760225012
 42
0.407328721240804
 10
0.730518216596205
 20
0.5743410613461152
 10
0.7911399156409358
 20
0.5743410613461152
 10
0.8086052560482537
 20
0.6071532903895943
  0
LINE
  5
7DE1B343D9E024D
330
7DE1B343D9E02C2
100
AcDbEntity
  8
TEXT
100
AcDbLine
 10
0.9346408784713169
 20
0.6913833527859311
 30
0.0
 11
0.9346408784713169
 21
0.5586259779605748
 31
0.0
  0
ARC
  5
7DE1B343D9E024E
330
7DE1B343D9E02C2
100
AcDbEntity
  8
TEXT
100
AcDbCircle
 10
1.01793881479349
 20
0.5880652682451782
 30
0.0
 40
0.0153818062434269
100
AcDbArc
 50
174.7883570302258
 51
270.0
  0
LWPOLYLINE
  5
7DE1B343D9E024F
330
7DE1B343D9E02C2
100
AcDbEntity
  8
TEXT
100
AcDbPolyline
 90
        2
 70
     0
 43
0.0
 10
0.9346408784713151
 20
0.5586259779605783
 42
0.3318488747599744
 10
1.003760171036628
 20
0.50707463574565
 42
-6.868794160588311
  0
LINE
  5
7DE1B343D9E0253
330
7DE1B343D9E02C2
100
AcDbEntity
  8
TEXT
100
AcDbLine
 10
1.159152573725323
 20
0.50707463574565
 30
0.0
 11
1.226210620507163
 21
0.50707463574565
 31
0.0
  0
LINE
  5
7DE1B343D9E0254
330
7DE1B343D9E02C2
100
AcDbEntity
  8
TEXT
100
AcDbLine
 10
1.159152573725323
 20
0.7017171849112856
 30
0.0
 11
1.159152573725323
 21
0.50707463574565
 31
0.0
  0
LINE
  5
7DE1B343D9E0255
330
7DE1B343D9E02C2
100
AcDbEntity
  8
TEXT
100
AcDbLine
 10
1.101763504736062
 20
0.7092709740773956
 30
0.0
 11
1.15159878455921
 21
0.7092709740773956
 31
0.0
  0
LINE
  5
7DE1B343D9E0256
330
7DE1B343D9E02C2
100
AcDbEntity
  8
TEXT
100
AcDbLine
 10
1.101763504736062
 20
0.50707463574565
 30
0.0
 11
1.101763504736062
 21
0.7092709740773956
 31
0.0
  0
LWPOLYLINE
  5
7DE1B343D9E0257
330
7DE1B343D9E02C2
100
AcDbEntity
  8
TEXT
100
AcDbPolyline
 90
        2
 70
     0
 43
0.0
 10
1.151598784559208
 20
0.7092709740773956
 42
-0.4142135623731017
 10
1.159152573725322
 20
0.7017171849112856
 42
-0.9999999999999998
  0
LINE
  5
7DE1B343D9E025B
330
7DE1B343D9E02C2
100
AcDbEntity
  8
TEXT
100
AcDbLine
 10
1.357408785336893
 20
0.7092709740773956
 30
0.0
 11
1.357408785336893
 21
0.634218568003189
 31
0.0
  0
LINE
  5
7DE1B343D9E025C
330
7DE1B343D9E02C2
100
AcDbEntity
  8
TEXT
100
AcDbLine
 10
1.226210620507163
 20
0.7092709740773956
 30
0.0
 11
1.280344217428114
 21
0.7092709740773956
 31
0.0
  0
LINE
  5
7DE1B343D9E025D
330
7DE1B343D9E02C2
100
AcDbEntity
  8
TEXT
100
AcDbLine
 10
1.226210620507163
 20
0.50707463574565
 30
0.0
 11
1.226210620507163
 21
0.7092709740773956
 31
0.0
  0
LWPOLYLINE
  5
7DE1B343D9E025E
330
7DE1B343D9E02C2
100
AcDbEntity
  8
TEXT
100
AcDbPolyline
 90
        2
 70
     0
 43
0.0
 10
1.280344217428112
 20
0.7092709740773956
 42
-0.4142135623731017
 10
1.287898006594225
 20
0.7017171849112856
 42
-0.9999999999999998
  0
LWPOLYLINE
  5
7DE1B343D9E0262
330
7DE1B343D9E02C2
100
AcDbEntity
  8
TEXT
100
AcDbPolyline
 90
        4
 70
     0
 43
0.0
 10
1.287898006594225
 20
0.7017171849112856
 10
1.287898006594225
 20
0.50707463574565
 10
1.356376289882083
 20
0.50707463574565
 10
1.356376289882083
 20
0.5505655806960882
 42
-1.714843617202739
  0
LINE
  5
7DE1B343D9E0268
330
7DE1B343D9E02C2
100
AcDbEntity
  8
TEXT
100
AcDbLine
 10
0.7165121221989815
 20
0.773547668734161
 30
0.0
 11
0.7165121221989815
 21
0.8079355863282991
 31
0.0
  0
LINE
  5
7DE1B343D9E0269
330
7DE1B343D9E02C2
100
AcDbEntity
  8
TEXT
100
AcDbLine
 10
0.7883110883428888
 20
0.773547668734161
 30
0.0
 11
0.7165121221989815
 21
0.773547668734161
 31
0.0
  0
LINE
  5
7DE1B343D9E026A
330
7DE1B343D9E02C2
100
AcDbEntity
  8
TEXT
100
AcDbLine
 10
0.9358118849740684
 20
0.773547668734161
 30
0.0
 11
0.9056899721806921
 21
0.773547668734161
 31
0.0
  0
LINE
  5
7DE1B343D9E026B
330
7DE1B343D9E02C2
100
AcDbEntity
  8
TEXT
100
AcDbLine
 10
0.9358118849740684
 20
0.8415591464729715
 30
0.0
 11
0.9358118849740684
 21
0.773547668734161
 31
0.0
  0
LINE
  5
7DE1B343D9E026C
330
7DE1B343D9E02C2
100
AcDbEntity
  8
TEXT
100
AcDbLine
 10
1.002620597540433
 20
0.8415591464729715
 30
0.0
 11
0.9358118849740684
 21
0.8415591464729715
 31
0.0
  0
LWPOLYLINE
  5
7DE1B343D9E026D
330
7DE1B343D9E02C2
100
AcDbEntity
  8
TEXT
100
AcDbPolyline
 90
        3
 70
     0
 43
0.0
 10
1.323032357138435
 20
0.7735476687341646
 10
1.204732198322391
 20
0.7735476687341646
 10
1.204732198322391
 20
0.7463801719732686
 42
-1.960274751411753
  0
LINE
  5
7DE1B343D9E0272
330
7DE1B343D9E02C2
100
AcDbEntity
  8
TEXT
100
AcDbLine
 10
1.168950507609229
 20
0.773547668734161
 30
0.0
 11
1.034932451678093
 21
0.773547668734161
 31
0.0
  0
LWPOLYLINE
  5
7DE1B343D9E0273
330
7DE1B343D9E02C2
100
AcDbEntity
  8
TEXT
100
AcDbPolyline
 90
        2
 70
     0
 43
0.0
 10
1.168950507609229
 20
0.7735476687341646
 42
-0.3328679258950098
 10
1.204732198322391
 20
0.7463801719732686
 42
6.772930709997214
  0
LINE
  5
7DE1B343D9E0277
330
7DE1B343D9E02C2
100
AcDbEntity
  8
TEXT
100
AcDbLine
 10
1.358814047851602
 20
0.773547668734161
 30
0.0
 11
1.358814047851602
 21
0.7452251229645171
 31
0.0
  0
LWPOLYLINE
  5
7DE1B343D9E0278
330
7DE1B343D9E02C2
100
AcDbEntity
  8
TEXT
100
AcDbPolyline
 90
        2
 70
     0
 43
0.0
 10
1.323032357138435
 20
0.7735476687341646
 42
-0.3277054968067132
 10
1.3588140478516
 20
0.7452251229645207
 42
6.667889725900311
  0
LINE
  5
7DE1B343D9E027C
330
7DE1B343D9E02C2
100
AcDbEntity
  8
TEXT
100
AcDbLine
 10
1.572605895943702
 20
0.6683356901807337
 30
0.0
 11
1.5288551247618
 21
0.7505859661768789
 31
0.0
  0
LINE
  5
7DE1B343D9E027D
330
7DE1B343D9E02C2
100
AcDbEntity
  8
TEXT
100
AcDbLine
 10
1.572605895943702
 20
0.773547668734161
 30
0.0
 11
1.572605895943702
 21
0.6683356901807337
 31
0.0
  0
LINE
  5
7DE1B343D9E027E
330
7DE1B343D9E02C2
100
AcDbEntity
  8
TEXT
100
AcDbLine
 10
1.800289634882071
 20
0.6976823423226229
 30
0.0
 11
1.800289634882071
 21
0.8390118745017616
 31
0.0
  0
LINE
  5
7DE1B343D9E027F
330
7DE1B343D9E02C2
100
AcDbEntity
  8
TEXT
100
AcDbLine
 10
1.847387793438056
 20
0.773547668734161
 30
0.0
 11
1.800289634882071
 21
0.6976823423226229
 31
0.0
  0
LINE
  5
7DE1B343D9E0280
330
7DE1B343D9E02C2
100
AcDbEntity
  8
TEXT
100
AcDbLine
 10
1.857822510201978
 20
0.6636544257931874
 30
0.0
 11
1.922379626167684
 21
0.773547668734161
 31
0.0
  0
LINE
  5
7DE1B343D9E0281
330
7DE1B343D9E02C2
100
AcDbEntity
  8
TEXT
100
AcDbLine
 10
1.736454643659298
 20
0.50707463574565
 30
0.0
 11
1.800832827977918
 21
0.50707463574565
 31
0.0
  0
LWPOLYLINE
  5
7DE1B343D9E0282
330
7DE1B343D9E02C2
100
AcDbEntity
  8
TEXT
100
AcDbPolyline
 90
        2
 70
     0
 43
0.0
 10
1.57654557324874
 20
0.5505655806960882
 42
-0.2901071551932486
 10
1.533469640381095
 20
0.50707463574565
 42
-5.328517124445184
  0
ARC
  5
7DE1B343D9E0286
330
7DE1B343D9E02C2
100
AcDbEntity
  8
TEXT
100
AcDbCircle
 10
1.464615058724181
 20
0.6809115990773983
 30
0.0
 40
0.028359375
100
AcDbArc
 50
25.78218179591245
 51
90.0
  0
LINE
  5
7DE1B343D9E0287
330
7DE1B343D9E02C2
100
AcDbEntity
  8
TEXT
100
AcDbLine
 10
1.500416134028304
 20
0.6719960006152633
 30
0.0
 11
1.49015137361474
 21
0.6932465401879576
 31
0.0
  0
LINE
  5
7DE1B343D9E0288
330
7DE1B343D9E02C2
100
AcDbEntity
  8
TEXT
100
AcDbLine
 10
1.418128144244921
 20
0.6719960006152633
 30
0.0
 11
1.500416134028304
 21
0.6719960006152633
 31
0.0
  0
LWPOLYLINE
  5
7DE1B343D9E0289
330
7DE1B343D9E02C2
100
AcDbEntity
  8
TEXT
100
AcDbPolyline
 90
        4
 70
     1
 43
0.0
 10
1.513347175311203
 20
0.6100386137296752
 10
1.424686856651344
 20
0.6100386137296752
 42
0.9999999999999998
 10
1.424686856651344
 20
0.5676400732258145
 10
1.513347175311203
 20
0.5676400732258145
 42
1.0
  0
LWPOLYLINE
  5
7DE1B343D9E028F
330
7DE1B343D9E02C2
100
AcDbEntity
  8
TEXT
100
AcDbPolyline
 90
        2
 70
     0
 43
0.0
 10
1.399452222749719
 20
0.50707463574565
 10
1.533469640381095
 20
0.50707463574565
 42
0.9999999999999998
  0
LINE
  5
7DE1B343D9E0293
330
7DE1B343D9E02C2
100
AcDbEntity
  8
TEXT
100
AcDbLine
 10
1.659806662366735
 20
0.7092709740773956
 30
0.0
 11
1.736454643659293
 21
0.7092709740773956
 31
0.0
  0
LINE
  5
7DE1B343D9E0294
330
7DE1B343D9E02C2
100
AcDbEntity
  8
TEXT
100
AcDbLine
 10
1.736454643659293
 20
0.7092709740773956
 30
0.0
 11
1.736454643659298
 21
0.50707463574565
 31
0.0
  0
ARC
  5
7DE1B343D9E0295
330
7DE1B343D9E02C2
100
AcDbEntity
  8
TEXT
100
AcDbCircle
 10
1.659806662366733
 20
0.6843650987947328
 30
0.0
 40
0.0249058752826653
100
AcDbArc
 50
89.99971217465335
 51
179.9999999999985
  0
LINE
  5
7DE1B343D9E0296
330
7DE1B343D9E02C2
100
AcDbEntity
  8
TEXT
100
AcDbLine
 10
1.634900787084076
 20
0.50707463574565
 30
0.0
 11
1.63490078708407
 21
0.6843651411771184
 31
0.0
  0
LWPOLYLINE
  5
7DE1B343D9E0297
330
7DE1B343D9E02C2
100
AcDbEntity
  8
TEXT
100
AcDbPolyline
 90
        2
 70
     0
 43
0.0
 10
1.57654557324874
 20
0.50707463574565
 10
1.634900787084074
 20
0.50707463574565
  0
LWPOLYLINE
  5
7DE1B343D9E029B
330
7DE1B343D9E02C2
100
AcDbEntity
  8
TEXT
100
AcDbPolyline
 90
        2
 70
     0
 43
0.0
 10
1.57654557324874
 20
0.5505655806960882
 10
1.57654557324874
 20
0.50707463574565
  0
LINE
  5
7DE1B343D9E029F
330
7DE1B343D9E02C2
100
AcDbEntity
  8
TEXT
100
AcDbLine
 10
1.953314733565589
 20
0.50707463574565
 30
0.0
 11
1.857822510201978
 21
0.6636544257931874
 31
0.0
  0
LINE
  5
7DE1B343D9E02A0
330
7DE1B343D9E02C2
100
AcDbEntity
  8
TEXT
100
AcDbLine
 10
1.876736361189383
 20
0.50707463574565
 30
0.0
 11
1.953314733565589
 21
0.50707463574565
 31
0.0
  0
LINE
  5
7DE1B343D9E02A1
330
7DE1B343D9E02C2
100
AcDbEntity
  8
TEXT
100
AcDbLine
 10
1.800832827977918
 20
0.6386542042218303
 30
0.0
 11
1.876736361189383
 21
0.50707463574565
 31
0.0
  0
LINE
  5
7DE1B343D9E02A2
330
7DE1B343D9E02C2
100
AcDbEntity
  8
TEXT
100
AcDbLine
 10
1.800832827977918
 20
0.50707463574565
 30
0.0
 11
1.800832827977918
 21
0.6386542042218303
 31
0.0
  0
LINE
  5
7DE1B343D9E02A3
330
7DE1B343D9E02C2
100
AcDbEntity
  8
TEXT
100
AcDbLine
 10
1.800289634882071
 20
0.8390118745017616
 30
0.0
 11
1.731974756332798
 21
0.8390118745017616
 31
0.0
  0
ARC
  5
7DE1B343D9E02A4
330
7DE1B343D9E02C2
100
AcDbEntity
  8
TEXT
100
AcDbCircle
 10
1.491619017291592
 20
0.7319641016132586
 30
0.0
 40
0.0416329381542859
100
AcDbArc
 50
26.56974201007528
 51
87.20939649401342
  0
LINE
  5
7DE1B343D9E02A5
330
7DE1B343D9E02C2
100
AcDbEntity
  8
TEXT
100
AcDbLine
 10
1.636502802243203
 20
0.773547668734161
 30
0.0
 11
1.572605895943702
 21
0.773547668734161
 31
0.0
  0
LINE
  5
7DE1B343D9E02A6
330
7DE1B343D9E02C2
100
AcDbEntity
  8
TEXT
100
AcDbLine
 10
1.636502802243203
 20
0.7460000188732863
 30
0.0
 11
1.636502802243203
 21
0.773547668734161
 31
0.0
  0
ARC
  5
7DE1B343D9E02A7
330
7DE1B343D9E02C2
100
AcDbEntity
  8
TEXT
100
AcDbCircle
 10
1.667695619306311
 20
0.7423019414518962
 30
0.0
 40
0.0314112657011332
100
AcDbArc
 50
95.88484768694724
 51
173.2388340632136
  0
LINE
  5
7DE1B343D9E02A8
330
7DE1B343D9E02C2
100
AcDbEntity
  8
TEXT
100
AcDbLine
 10
1.731974756332792
 20
0.773547668734161
 30
0.0
 11
1.664475038683276
 21
0.773547668734161
 31
0.0
  0
LINE
  5
7DE1B343D9E02A9
330
7DE1B343D9E02C2
100
AcDbEntity
  8
TEXT
100
AcDbLine
 10
1.731974756332798
 20
0.8390118745017616
 30
0.0
 11
1.731974756332792
 21
0.773547668734161
 31
0.0
  0
LINE
  5
7DE1B343D9E02AA
330
7DE1B343D9E02C2
100
AcDbEntity
  8
TEXT
100
AcDbLine
 10
1.922379626167684
 20
0.773547668734161
 30
0.0
 11
1.847387793438057
 21
0.773547668734161
 31
0.0
  0
ENDSEC
  0
SECTION
  2
OBJECTS
  0
DICTIONARY
  5
7DE1B343D9E02B6
330
0
100
AcDbDictionary
  3
ACAD_GROUP
350
7DE1B343D9E02B7
  3
ACAD_LAYOUT
350
7DE1B343D9E02DC
  3
ACAD_MLINESTYLE
350
7DE1B343D9E02B8
  3
ACAD_PLOTSETTINGS
350
7DE1B343D9E02DD
  3
ACAD_PLOTSTYLENAME
350
7DE1B343D9E02DA
  3
ACDBHEADERROUNDTRIPXREC
350
7DE1B343D9E02E7
  3
ACDBVARIABLEDICTIONARY
350
7DE1B343D9E02E4
  0
DICTIONARY
  5
7DE1B343D9E0309
330
7DE1B343D9E02C2
100
AcDbDictionary
280
     1
  3
ACAD_LAYOUTSELFREF
360
7DE1B343D9E030A
  0
DICTIONARY
  5
7DE1B343D9E0307
330
7DE1B343D9E02BF
100
AcDbDictionary
280
     1
  3
ACAD_LAYOUTSELFREF
360
7DE1B343D9E0308
  0
DICTIONARY
  5
7DE1B343D9E02B7
102
{ACAD_REACTORS
330
7DE1B343D9E02B6
102
}
330
7DE1B343D9E02B6
100
AcDbDictionary
  0
DICTIONARY
  5
7DE1B343D9E02DC
102
{ACAD_REACTORS
330
7DE1B343D9E02B6
102
}
330
7DE1B343D9E02B6
100
AcDbDictionary
  0
DICTIONARY
  5
7DE1B343D9E02B8
102
{ACAD_REACTORS
330
7DE1B343D9E02B6
102
}
330
7DE1B343D9E02B6
100
AcDbDictionary
  3
STANDARD
350
7DE1B343D9E02C5
  0
DICTIONARY
  5
7DE1B343D9E02DD
102
{ACAD_REACTORS
330
7DE1B343D9E02B6
102
}
330
7DE1B343D9E02B6
100
AcDbDictionary
  0
ACDBDICTIONARYWDFLT
  5
7DE1B343D9E02DA
102
{ACAD_REACTORS
330
7DE1B343D9E02B6
102
}
330
7DE1B343D9E02B6
100
AcDbDictionary
281
     1
  3
Normal
350
7DE1B343D9E02DB
100
AcDbDictionaryWithDefault
340
7DE1B343D9E02DB
  0
DICTIONARY
  5
7DE1B343D9E02E7
102
{ACAD_REACTORS
330
7DE1B343D9E02B6
102
}
330
7DE1B343D9E02B6
100
AcDbDictionary
  3
CEPSNTYPE
350
7DE1B343D9E02F1
  3
FINGERPRINTGUID
350
7DE1B343D9E02F2
  3
HYPERLINKBASE
350
7DE1B343D9E02EA
  3
INSUNITS
350
7DE1B343D9E02F0
  3
LAYOUTDICT
350
7DE1B343D9E02EC
  3
LWETCUNION
350
7DE1B343D9E02EF
  3
PLOTSETDICT
350
7DE1B343D9E02ED
  3
PLOTSTYLNAMDICT
350
7DE1B343D9E02EE
  3
PSVPSCALE
350
7DE1B343D9E02F4
  3
PUCSBASE
350
7DE1B343D9E02F7
  3
PUCSORGBACK
350
7DE1B343D9E02FD
  3
PUCSORGBOTTOM
350
7DE1B343D9E02F9
  3
PUCSORGFRONT
350
7DE1B343D9E02FC
  3
PUCSORGLEFT
350
7DE1B343D9E02FA
  3
PUCSORGRIGHT
350
7DE1B343D9E02FB
  3
PUCSORGTOP
350
7DE1B343D9E02F8
  3
PUCSORTHOREF
350
7DE1B343D9E02F5
  3
PUCSORTHOVIEW
350
7DE1B343D9E02F6
  3
STYLESHEET
350
7DE1B343D9E02EB
  3
TSTACKALIGN
350
7DE1B343D9E02E8
  3
TSTACKSIZE
350
7DE1B343D9E02E9
  3
UCSBASE
350
7DE1B343D9E0300
  3
UCSORGBACK
350
7DE1B343D9E0306
  3
UCSORGBOTTOM
350
7DE1B343D9E0302
  3
UCSORGFRONT
350
7DE1B343D9E0305
  3
UCSORGLEFT
350
7DE1B343D9E0303
  3
UCSORGRIGHT
350
7DE1B343D9E0304
  3
UCSORGTOP
350
7DE1B343D9E0301
  3
UCSORTHOREF
350
7DE1B343D9E02FE
  3
UCSORTHOVIEW
350
7DE1B343D9E02FF
  3
VERSIONGUID
350
7DE1B343D9E02F3
  0
DICTIONARY
  5
7DE1B343D9E02E4
102
{ACAD_REACTORS
330
7DE1B343D9E02B6
102
}
330
7DE1B343D9E02B6
100
AcDbDictionary
  3
DIMASSOC
350
7DE1B343D9E02E5
  0
XRECORD
  5
7DE1B343D9E030A
102
{ACAD_REACTORS
330
7DE1B343D9E0309
102
}
330
7DE1B343D9E0309
100
AcDbXrecord
340
7DE1B343D9E02C2
  0
XRECORD
  5
7DE1B343D9E0308
102
{ACAD_REACTORS
330
7DE1B343D9E0307
102
}
330
7DE1B343D9E0307
100
AcDbXrecord
340
7DE1B343D9E02BF
  0
MLINESTYLE
  5
7DE1B343D9E02C5
102
{ACAD_REACTORS
330
7DE1B343D9E02B8
102
}
330
7DE1B343D9E02B8
100
AcDbMlineStyle
  2
STANDARD
 70
     0
  3

 62
     0
 51
90.0
 52
90.0
 71
     2
 49
0.5
 62
   256
  6
BYLAYER
 49
-0.5
 62
   256
  6
BYLAYER
  0
ACDBPLACEHOLDER
  5
7DE1B343D9E02DB
102
{ACAD_REACTORS
330
7DE1B343D9E02DA
102
}
330
7DE1B343D9E02DA
100
AcDbPlaceHolder
280
     0
  0
XRECORD
  5
7DE1B343D9E02F1
102
{ACAD_REACTORS
330
7DE1B343D9E02E7
102
}
330
7DE1B343D9E02E7
100
AcDbXrecord
 90
        0
  0
XRECORD
  5
7DE1B343D9E02F2
102
{ACAD_REACTORS
330
7DE1B343D9E02E7
102
}
330
7DE1B343D9E02E7
100
AcDbXrecord
  1
{9E973D90-8DB9-11D6-88E6-0090279574E7}
  0
XRECORD
  5
7DE1B343D9E02EA
102
{ACAD_REACTORS
330
7DE1B343D9E02E7
102
}
330
7DE1B343D9E02E7
100
AcDbXrecord
  1

  0
XRECORD
  5
7DE1B343D9E02F0
102
{ACAD_REACTORS
330
7DE1B343D9E02E7
102
}
330
7DE1B343D9E02E7
100
AcDbXrecord
 90
        0
  0
XRECORD
  5
7DE1B343D9E02EC
102
{ACAD_REACTORS
330
7DE1B343D9E02E7
102
}
330
7DE1B343D9E02E7
100
AcDbXrecord
340
7DE1B343D9E02DC
  0
XRECORD
  5
7DE1B343D9E02EF
102
{ACAD_REACTORS
330
7DE1B343D9E02E7
102
}
330
7DE1B343D9E02E7
100
AcDbXrecord
 90
    14877
  0
XRECORD
  5
7DE1B343D9E02ED
102
{ACAD_REACTORS
330
7DE1B343D9E02E7
102
}
330
7DE1B343D9E02E7
100
AcDbXrecord
340
7DE1B343D9E02DD
  0
XRECORD
  5
7DE1B343D9E02EE
102
{ACAD_REACTORS
330
7DE1B343D9E02E7
102
}
330
7DE1B343D9E02E7
100
AcDbXrecord
340
7DE1B343D9E02DA
  0
XRECORD
  5
7DE1B343D9E02F4
102
{ACAD_REACTORS
330
7DE1B343D9E02E7
102
}
330
7DE1B343D9E02E7
100
AcDbXrecord
 40
0.0
  0
XRECORD
  5
7DE1B343D9E02F7
102
{ACAD_REACTORS
330
7DE1B343D9E02E7
102
}
330
7DE1B343D9E02E7
100
AcDbXrecord
340
0
  0
XRECORD
  5
7DE1B343D9E02FD
102
{ACAD_REACTORS
330
7DE1B343D9E02E7
102
}
330
7DE1B343D9E02E7
100
AcDbXrecord
 10
0.0
 20
0.0
 30
0.0
  0
XRECORD
  5
7DE1B343D9E02F9
102
{ACAD_REACTORS
330
7DE1B343D9E02E7
102
}
330
7DE1B343D9E02E7
100
AcDbXrecord
 10
0.0
 20
0.0
 30
0.0
  0
XRECORD
  5
7DE1B343D9E02FC
102
{ACAD_REACTORS
330
7DE1B343D9E02E7
102
}
330
7DE1B343D9E02E7
100
AcDbXrecord
 10
0.0
 20
0.0
 30
0.0
  0
XRECORD
  5
7DE1B343D9E02FA
102
{ACAD_REACTORS
330
7DE1B343D9E02E7
102
}
330
7DE1B343D9E02E7
100
AcDbXrecord
 10
0.0
 20
0.0
 30
0.0
  0
XRECORD
  5
7DE1B343D9E02FB
102
{ACAD_REACTORS
330
7DE1B343D9E02E7
102
}
330
7DE1B343D9E02E7
100
AcDbXrecord
 10
0.0
 20
0.0
 30
0.0
  0
XRECORD
  5
7DE1B343D9E02F8
102
{ACAD_REACTORS
330
7DE1B343D9E02E7
102
}
330
7DE1B343D9E02E7
100
AcDbXrecord
 10
0.0
 20
0.0
 30
0.0
  0
XRECORD
  5
7DE1B343D9E02F5
102
{ACAD_REACTORS
330
7DE1B343D9E02E7
102
}
330
7DE1B343D9E02E7
100
AcDbXrecord
340
0
  0
XRECORD
  5
7DE1B343D9E02F6
102
{ACAD_REACTORS
330
7DE1B343D9E02E7
102
}
330
7DE1B343D9E02E7
100
AcDbXrecord
 70
     0
  0
XRECORD
  5
7DE1B343D9E02EB
102
{ACAD_REACTORS
330
7DE1B343D9E02E7
102
}
330
7DE1B343D9E02E7
100
AcDbXrecord
  1

  0
XRECORD
  5
7DE1B343D9E02E8
102
{ACAD_REACTORS
330
7DE1B343D9E02E7
102
}
330
7DE1B343D9E02E7
100
AcDbXrecord
 90
        1
  0
XRECORD
  5
7DE1B343D9E02E9
102
{ACAD_REACTORS
330
7DE1B343D9E02E7
102
}
330
7DE1B343D9E02E7
100
AcDbXrecord
 90
       70
  0
XRECORD
  5
7DE1B343D9E0300
102
{ACAD_REACTORS
330
7DE1B343D9E02E7
102
}
330
7DE1B343D9E02E7
100
AcDbXrecord
340
0
  0
XRECORD
  5
7DE1B343D9E0306
102
{ACAD_REACTORS
330
7DE1B343D9E02E7
102
}
330
7DE1B343D9E02E7
100
AcDbXrecord
 10
0.0
 20
0.0
 30
0.0
  0
XRECORD
  5
7DE1B343D9E0302
102
{ACAD_REACTORS
330
7DE1B343D9E02E7
102
}
330
7DE1B343D9E02E7
100
AcDbXrecord
 10
0.0
 20
0.0
 30
0.0
  0
XRECORD
  5
7DE1B343D9E0305
102
{ACAD_REACTORS
330
7DE1B343D9E02E7
102
}
330
7DE1B343D9E02E7
100
AcDbXrecord
 10
0.0
 20
0.0
 30
0.0
  0
XRECORD
  5
7DE1B343D9E0303
102
{ACAD_REACTORS
330
7DE1B343D9E02E7
102
}
330
7DE1B343D9E02E7
100
AcDbXrecord
 10
0.0
 20
0.0
 30
0.0
  0
XRECORD
  5
7DE1B343D9E0304
102
{ACAD_REACTORS
330
7DE1B343D9E02E7
102
}
330
7DE1B343D9E02E7
100
AcDbXrecord
 10
0.0
 20
0.0
 30
0.0
  0
XRECORD
  5
7DE1B343D9E0301
102
{ACAD_REACTORS
330
7DE1B343D9E02E7
102
}
330
7DE1B343D9E02E7
100
AcDbXrecord
 10
0.0
 20
0.0
 30
0.0
  0
XRECORD
  5
7DE1B343D9E02FE
102
{ACAD_REACTORS
330
7DE1B343D9E02E7
102
}
330
7DE1B343D9E02E7
100
AcDbXrecord
340
0
  0
XRECORD
  5
7DE1B343D9E02FF
102
{ACAD_REACTORS
330
7DE1B343D9E02E7
102
}
330
7DE1B343D9E02E7
100
AcDbXrecord
 70
     0
  0
XRECORD
  5
7DE1B343D9E02F3
102
{ACAD_REACTORS
330
7DE1B343D9E02E7
102
}
330
7DE1B343D9E02E7
100
AcDbXrecord
  1
{9E973D92-8DB9-11D6-88E6-0090279574E7}
  0
DICTIONARYVAR
  5
7DE1B343D9E02E5
102
{ACAD_REACTORS
330
7DE1B343D9E02E4
102
}
330
7DE1B343D9E02E4
100
DictionaryVariables
280
     0
  1
1
  0
ENDSEC
  0
EOF
