  0
SECTION
  2
HEADER
  9
$ACADVER
  1
AC1014
  9
$ACADMAINTVER
 70
     9
  9
$DWGCODEPAGE
  3
ANSI_1252
  9
$INSBASE
 10
1.75
 20
0.9719893173588122
 30
0.0
  9
$EXTMIN
 10
0.0070184207728574
 20
-0.2597951626718995
 30
0.0
  9
$EXTMAX
 10
3.492237742519985
 20
0.9719893173588122
 30
0.0
  9
$LIMMIN
 10
0.0
 20
0.0
  9
$LIMMAX
 10
18.0
 20
12.0
  9
$ORTHOMODE
 70
     1
  9
$REGENMODE
 70
     1
  9
$FILLMODE
 70
     1
  9
$QTEXTMODE
 70
     0
  9
$MIRRTEXT
 70
     0
  9
$DRAGMODE
 70
     2
  9
$LTSCALE
 40
1.0
  9
$OSMODE
 70
    39
  9
$ATTMODE
 70
     1
  9
$TEXTSIZE
 40
0.125
  9
$TRACEWID
 40
0.05
  9
$TEXTSTYLE
  7
ROMANS
  9
$CLAYER
  8
0
  9
$CELTYPE
  6
BYLAYER
  9
$CECOLOR
 62
   256
  9
$CELTSCALE
 40
1.0
  9
$DELOBJ
 70
     1
  9
$DISPSILH
 70
     1
  9
$DIMSCALE
 40
1.0
  9
$DIMASZ
 40
0.125
  9
$DIMEXO
 40
0.125
  9
$DIMDLI
 40
0.375
  9
$DIMRND
 40
0.0
  9
$DIMDLE
 40
0.0
  9
$DIMEXE
 40
0.125
  9
$DIMTP
 40
0.0
  9
$DIMTM
 40
0.0
  9
$DIMTXT
 40
0.125
  9
$DIMCEN
 40
-0.125
  9
$DIMTSZ
 40
0.0
  9
$DIMTOL
 70
     0
  9
$DIMLIM
 70
     0
  9
$DIMTIH
 70
     1
  9
$DIMTOH
 70
     1
  9
$DIMSE1
 70
     0
  9
$DIMSE2
 70
     0
  9
$DIMTAD
 70
     0
  9
$DIMZIN
 70
     4
  9
$DIMBLK
  1

  9
$DIMASO
 70
     1
  9
$DIMSHO
 70
     1
  9
$DIMPOST
  1

  9
$DIMAPOST
  1

  9
$DIMALT
 70
     0
  9
$DIMALTD
 70
     2
  9
$DIMALTF
 40
25.4
  9
$DIMLFAC
 40
1.0
  9
$DIMTOFL
 70
     0
  9
$DIMTVP
 40
0.0
  9
$DIMTIX
 70
     1
  9
$DIMSOXD
 70
     0
  9
$DIMSAH
 70
     0
  9
$DIMBLK1
  1

  9
$DIMBLK2
  1

  9
$DIMSTYLE
  2
STANDARD
  9
$DIMCLRD
 70
     0
  9
$DIMCLRE
 70
     0
  9
$DIMCLRT
 70
     0
  9
$DIMTFAC
 40
1.0
  9
$DIMGAP
 40
0.09
  9
$DIMJUST
 70
     0
  9
$DIMSD1
 70
     0
  9
$DIMSD2
 70
     0
  9
$DIMTOLJ
 70
     1
  9
$DIMTZIN
 70
     4
  9
$DIMALTZ
 70
     0
  9
$DIMALTTZ
 70
     0
  9
$DIMFIT
 70
     3
  9
$DIMUPT
 70
     0
  9
$DIMUNIT
 70
     2
  9
$DIMDEC
 70
     3
  9
$DIMTDEC
 70
     3
  9
$DIMALTU
 70
     2
  9
$DIMALTTD
 70
     2
  9
$DIMTXSTY
  7
ROMANS
  9
$DIMAUNIT
 70
     0
  9
$LUNITS
 70
     2
  9
$LUPREC
 70
     3
  9
$SKETCHINC
 40
0.1
  9
$FILLETRAD
 40
0.03125
  9
$AUNITS
 70
     0
  9
$AUPREC
 70
     0
  9
$MENU
  1
ACAD
  9
$ELEVATION
 40
0.0
  9
$PELEVATION
 40
0.0
  9
$THICKNESS
 40
0.0
  9
$LIMCHECK
 70
     0
  9
$BLIPMODE
 70
     0
  9
$CHAMFERA
 40
0.0
  9
$CHAMFERB
 40
0.0
  9
$CHAMFERC
 40
0.0
  9
$CHAMFERD
 40
0.0
  9
$SKPOLY
 70
     0
  9
$TDCREATE
 40
2448994.690206134
  9
$TDUPDATE
 40
2452458.323334004
  9
$TDINDWG
 40
0.0004756713
  9
$TDUSRTIMER
 40
0.0004756713
  9
$USRTIMER
 70
     1
  9
$ANGBASE
 50
0.0
  9
$ANGDIR
 70
     0
  9
$PDMODE
 70
     0
  9
$PDSIZE
 40
0.0
  9
$PLINEWID
 40
0.0
  9
$COORDS
 70
     2
  9
$SPLFRAME
 70
     0
  9
$SPLINETYPE
 70
     6
  9
$SPLINESEGS
 70
     8
  9
$ATTDIA
 70
     0
  9
$ATTREQ
 70
     1
  9
$HANDLING
 70
 22529
  9
$HANDSEED
  5
7DE1B343D9DFF86
  9
$SURFTAB1
 70
     6
  9
$SURFTAB2
 70
     6
  9
$SURFTYPE
 70
     6
  9
$SURFU
 70
     6
  9
$SURFV
 70
     6
  9
$UCSNAME
  2

  9
$UCSORG
 10
0.0
 20
0.0
 30
0.0
  9
$UCSXDIR
 10
1.0
 20
0.0
 30
0.0
  9
$UCSYDIR
 10
0.0
 20
1.0
 30
0.0
  9
$PUCSNAME
  2

  9
$PUCSORG
 10
0.0
 20
0.0
 30
0.0
  9
$PUCSXDIR
 10
1.0
 20
0.0
 30
0.0
  9
$PUCSYDIR
 10
0.0
 20
1.0
 30
0.0
  9
$USERI1
 70
     0
  9
$USERI2
 70
     0
  9
$USERI3
 70
     0
  9
$USERI4
 70
     0
  9
$USERI5
 70
     0
  9
$USERR1
 40
0.0
  9
$USERR2
 40
0.0
  9
$USERR3
 40
0.0
  9
$USERR4
 40
0.0
  9
$USERR5
 40
0.0
  9
$WORLDVIEW
 70
     1
  9
$SHADEDGE
 70
     3
  9
$SHADEDIF
 70
    70
  9
$TILEMODE
 70
     1
  9
$MAXACTVP
 70
    16
  9
$PINSBASE
 10
1.069400179758462
 20
50.00000000000001
 30
2.253048783787187
  9
$PLIMCHECK
 70
     0
  9
$PEXTMIN
 10
1.000000000000000E+20
 20
1.000000000000000E+20
 30
1.000000000000000E+20
  9
$PEXTMAX
 10
-1.000000000000000E+20
 20
-1.000000000000000E+20
 30
-1.000000000000000E+20
  9
$PLIMMIN
 10
0.0
 20
0.0
  9
$PLIMMAX
 10
12.0
 20
9.0
  9
$UNITMODE
 70
     0
  9
$VISRETAIN
 70
     0
  9
$PLINEGEN
 70
     1
  9
$PSLTSCALE
 70
     0
  9
$TREEDEPTH
 70
  3020
  9
$PICKSTYLE
 70
     1
  9
$CMLSTYLE
  2
STANDARD
  9
$CMLJUST
 70
     0
  9
$CMLSCALE
 40
1.0
  9
$PROXYGRAPHICS
 70
     1
  9
$MEASUREMENT
 70
     0
  0
ENDSEC
  0
SECTION
  2
CLASSES
  0
CLASS
  1
LWPOLYLINE
  2
AcDbPolyline
  3
AutoCAD 2000
 90
        0
280
     0
281
     1
  0
CLASS
  1
ACDBDICTIONARYWDFLT
  2
AcDbDictionaryWithDefault
  3
AutoCAD 2000
 90
        0
280
     0
281
     0
  0
CLASS
  1
ACDBPLACEHOLDER
  2
AcDbPlaceHolder
  3
AutoCAD 2000
 90
        0
280
     0
281
     0
  0
CLASS
  1
LAYOUT
  2
AcDbLayout
  3
AutoCAD 2000
 90
        0
280
     0
281
     0
  0
CLASS
  1
DICTIONARYVAR
  2
AcDbDictionaryVar
  3
AutoCAD 2000
 90
        0
280
     0
281
     0
  0
CLASS
  1
LONG_TRANSACTION
  2
AcDbLongTransaction
  3
AutoCAD 2000
 90
        0
280
     0
281
     0
  0
CLASS
  1
LWPOLYLINE
  2
AcDbPolyline
  3
AutoCAD 2000
 90
        0
280
     0
281
     1
  0
CLASS
  1
HATCH
  2
AcDbHatch
  3
AutoCAD 2000
 90
        0
280
     0
281
     1
  0
CLASS
  1
XRECORD
  2
AcDbXrecord
  3
AutoCAD 2000
 90
        0
280
     0
281
     0
  0
ENDSEC
  0
SECTION
  2
TABLES
  0
TABLE
  2
VPORT
  5
7DE1B343D9DFF2D
330
0
100
AcDbSymbolTable
 70
     2
  0
VPORT
  5
7DE1B343D9DFF61
330
7DE1B343D9DFF2D
100
AcDbSymbolTableRecord
100
AcDbViewportTableRecord
  2
*ACTIVE
 70
     0
 10
0.0
 20
0.0
 11
1.0
 21
1.0
 12
4.726046405515486
 22
0.3562251455663095
 13
0.0
 23
0.0
 14
0.015625
 24
0.015625
 15
0.0
 25
0.0
 16
0.0
 26
0.0
 36
1.0
 17
0.0
 27
0.0
 37
0.0
 40
2.282647215150728
 41
4.320930232558139
 42
50.0
 43
0.0
 44
0.0
 50
0.0
 51
0.0
 71
     0
 72
  2000
 73
     1
 74
     0
 75
     0
 76
     0
 77
     0
 78
     0
  0
ENDTAB
  0
TABLE
  2
LTYPE
  5
7DE1B343D9DFF2A
330
0
100
AcDbSymbolTable
 70
     1
  0
LTYPE
  5
7DE1B343D9DFF37
330
7DE1B343D9DFF2A
100
AcDbSymbolTableRecord
100
AcDbLinetypeTableRecord
  2
BYBLOCK
 70
     0
  3

 72
    65
 73
     0
 40
0.0
  0
LTYPE
  5
7DE1B343D9DFF38
330
7DE1B343D9DFF2A
100
AcDbSymbolTableRecord
100
AcDbLinetypeTableRecord
  2
BYLAYER
 70
     0
  3

 72
    65
 73
     0
 40
0.0
  0
LTYPE
  5
7DE1B343D9DFF39
330
7DE1B343D9DFF2A
100
AcDbSymbolTableRecord
100
AcDbLinetypeTableRecord
  2
CONTINUOUS
 70
     0
  3
Solid line
 72
    65
 73
     0
 40
0.0
  0
ENDTAB
  0
TABLE
  2
LAYER
  5
7DE1B343D9DFF27
330
0
100
AcDbSymbolTable
 70
     2
  0
LAYER
  5
7DE1B343D9DFF34
330
7DE1B343D9DFF27
100
AcDbSymbolTableRecord
100
AcDbLayerTableRecord
  2
0
 70
     0
 62
     7
  6
CONTINUOUS
  0
LAYER
  5
7DE1B343D9DFF44
330
7DE1B343D9DFF27
100
AcDbSymbolTableRecord
100
AcDbLayerTableRecord
  2
TEXT
 70
     0
 62
     3
  6
CONTINUOUS
  0
ENDTAB
  0
TABLE
  2
STYLE
  5
7DE1B343D9DFF28
330
0
100
AcDbSymbolTable
 70
     3
  0
STYLE
  5
7DE1B343D9DFF35
330
7DE1B343D9DFF28
100
AcDbSymbolTableRecord
100
AcDbTextStyleTableRecord
  2
STANDARD
 70
     0
 40
0.0
 41
1.0
 50
0.0
 71
     0
 42
0.3125
  3
txt
  4

  0
STYLE
  5
7DE1B343D9DFF41
330
7DE1B343D9DFF28
100
AcDbSymbolTableRecord
100
AcDbTextStyleTableRecord
  2
ITALICC
 70
     0
 40
0.0
 41
1.0
 50
0.0
 71
     0
 42
0.125
  3
italicc
  4

  0
STYLE
  5
7DE1B343D9DFF51
330
7DE1B343D9DFF28
100
AcDbSymbolTableRecord
100
AcDbTextStyleTableRecord
  2
ROMANS
 70
     0
 40
0.0
 41
1.0
 50
0.0
 71
     0
 42
0.125
  3
romans.shx
  4

  0
ENDTAB
  0
TABLE
  2
VIEW
  5
7DE1B343D9DFF2B
330
0
100
AcDbSymbolTable
 70
     0
  0
ENDTAB
  0
TABLE
  2
UCS
  5
7DE1B343D9DFF2C
330
0
100
AcDbSymbolTable
 70
     0
  0
ENDTAB
  0
TABLE
  2
APPID
  5
7DE1B343D9DFF2E
330
0
100
AcDbSymbolTable
 70
     1
  0
APPID
  5
7DE1B343D9DFF36
330
7DE1B343D9DFF2E
100
AcDbSymbolTableRecord
100
AcDbRegAppTableRecord
  2
ACAD
 70
     0
  0
ENDTAB
  0
TABLE
  2
DIMSTYLE
  5
7DE1B343D9DFF2F
330
0
100
AcDbSymbolTable
 70
     1
  0
DIMSTYLE
105
7DE1B343D9DFF49
330
7DE1B343D9DFF2F
100
AcDbSymbolTableRecord
100
AcDbDimStyleTableRecord
  2
STANDARD
 70
     0
  3

  4

  5

  6

  7

 40
1.0
 41
0.125
 42
0.125
 43
0.375
 44
0.125
 45
0.0
 46
0.0
 47
0.0
 48
0.0
140
0.125
141
-0.125
142
0.0
143
25.4
144
1.0
145
0.0
146
1.0
147
0.09
 71
     0
 72
     0
 73
     1
 74
     1
 75
     0
 76
     0
 77
     0
 78
     4
170
     0
171
     2
172
     0
173
     0
174
     1
175
     0
176
     0
177
     0
178
     0
270
     2
271
     3
272
     3
273
     2
274
     2
340
7DE1B343D9DFF51
275
     0
280
     0
281
     0
282
     0
283
     1
284
     4
285
     0
286
     0
287
     3
288
     0
  0
ENDTAB
  0
TABLE
  2
BLOCK_RECORD
  5
7DE1B343D9DFF26
330
0
100
AcDbSymbolTable
 70
     0
  0
BLOCK_RECORD
  5
7DE1B343D9DFF3D
102
{ACAD_XDICTIONARY
360
7DE1B343D9DFF84
102
}
330
7DE1B343D9DFF26
100
AcDbSymbolTableRecord
100
AcDbBlockTableRecord
  2
*MODEL_SPACE
  0
BLOCK_RECORD
  5
7DE1B343D9DFF3A
102
{ACAD_XDICTIONARY
360
7DE1B343D9DFF82
102
}
330
7DE1B343D9DFF26
100
AcDbSymbolTableRecord
100
AcDbBlockTableRecord
  2
*PAPER_SPACE
  0
ENDTAB
  0
ENDSEC
  0
SECTION
  2
BLOCKS
  0
BLOCK
  5
7DE1B343D9DFF47
330
7DE1B343D9DFF3D
100
AcDbEntity
  8
0
100
AcDbBlockBegin
  2
*MODEL_SPACE
 70
     0
 10
0.0
 20
0.0
 30
0.0
  3
*MODEL_SPACE
  1

  0
ENDBLK
  5
7DE1B343D9DFF48
330
7DE1B343D9DFF3D
100
AcDbEntity
  8
0
100
AcDbBlockEnd
  0
BLOCK
  5
7DE1B343D9DFF45
330
7DE1B343D9DFF3A
100
AcDbEntity
 67
     1
  8
0
100
AcDbBlockBegin
  2
*PAPER_SPACE
 70
     0
 10
0.0
 20
0.0
 30
0.0
  3
*PAPER_SPACE
  1

  0
ENDBLK
  5
7DE1B343D9DFF46
330
7DE1B343D9DFF3A
100
AcDbEntity
 67
     1
  8
0
100
AcDbBlockEnd
  0
ENDSEC
  0
SECTION
  2
ENTITIES
  0
LWPOLYLINE
  5
7DE1B343D9DEB4B
330
7DE1B343D9DFF3D
100
AcDbEntity
  8
0
100
AcDbPolyline
 90
       26
 70
     1
 43
0.0
 10
1.551045042974183
 20
0.8680677142154682
 42
0.5289339574311047
 10
1.593749999999996
 20
0.8971425565974449
 10
1.59375
 20
0.9094893173588122
 10
1.71875
 20
0.9094893173588122
 10
1.71875
 20
0.5658925565974452
 10
1.492673158503158
 20
0.5658925565974452
 42
0.9654230123424246
 10
1.490991234362244
 20
0.5181054368985512
 42
0.0351961815550628
 10
2.009008765637756
 20
0.5181054368985512
 42
0.9654230123424229
 10
2.00732684149684
 20
0.5658925565974452
 10
1.78125
 20
0.5658925565974452
 10
1.781249999999999
 20
0.9094893173588122
 10
1.906249999999999
 20
0.9094893173588122
 10
1.906249999999999
 20
0.8971425565974453
 42
0.5289339574311047
 10
1.948954957025811
 20
0.8680677142154682
 10
2.093749999999999
 20
0.9251143173588122
 10
2.33375
 20
0.9251143173588122
 10
2.343749999999999
 20
0.9351143173588113
 10
2.353749999999998
 20
0.9251143173588115
 10
2.6328125
 20
0.9251143173588122
 42
1.0
 10
2.6328125
 20
0.9719893173588122
 10
0.8671875
 20
0.9719893173588122
 42
1.0
 10
0.8671875
 20
0.9251143173588122
 10
1.14625
 20
0.9251143173588115
 10
1.15625
 20
0.9351143173588113
 10
1.166249999999999
 20
0.9251143173588122
 10
1.40625
 20
0.9251143173588122
  0
TEXT
  5
7DE1B343D9DFDE8
330
7DE1B343D9DFF3D
100
AcDbEntity
  8
TEXT
100
AcDbText
 10
1.008928571428571
 20
0.198223441410682
 30
0.0
 40
0.125
  1
PART #120061
  7
ITALICC
 72
     1
 11
1.75
 21
0.198223441410682
 31
0.0
100
AcDbText
  0
TEXT
  5
7DE1B343D9DFDE9
330
7DE1B343D9DFF3D
100
AcDbEntity
  8
TEXT
100
AcDbText
 10
2.163305158250321
 20
-0.2486992012616931
 30
0.0
 40
0.0522247191011236
  1
Phone  1-800-328-2495
 41
1.272321428571429
 72
     5
 11
3.492237742519985
 21
-0.2486992012616931
 31
0.0
100
AcDbText
  0
TEXT
  5
7DE1B343D9DFDEA
330
7DE1B343D9DFF3D
100
AcDbEntity
  8
TEXT
100
AcDbText
 10
2.163305158250321
 20
0.0310760796371834
 30
0.0
 40
0.0522247191011236
  1
Stylmark  Incorporated
 41
1.221428571428573
 72
     5
 11
3.492237742519985
 21
0.0310760796371834
 31
0.0
100
AcDbText
  0
TEXT
  5
7DE1B343D9DFDEB
330
7DE1B343D9DFF3D
100
AcDbEntity
  8
TEXT
100
AcDbText
 10
2.163305158250321
 20
-0.0621823473291088
 30
0.0
 40
0.0522247191011236
  1
6536 Main St. N.E. * P.O. Box 32008
 41
0.8388932496075366
 72
     5
 11
3.492237742519985
 21
-0.0621823473291088
 31
0.0
100
AcDbText
  0
TEXT
  5
7DE1B343D9DFDEC
330
7DE1B343D9DFF3D
100
AcDbEntity
  8
TEXT
100
AcDbText
 10
2.163305158250321
 20
-0.1554407742954009
 30
0.0
 40
0.0522247191011236
  1
Minneapolis, MN 55432-0008
 41
1.11444212721585
 72
     5
 11
3.492237742519985
 21
-0.1554407742954009
 31
0.0
100
AcDbText
  0
LWPOLYLINE
  5
7DE1B343D9DFDED
330
7DE1B343D9DFF3D
100
AcDbEntity
  8
TEXT
100
AcDbPolyline
 90
        3
 70
     0
 43
0.0006660908203125
 10
0.0073514661830136
 20
-0.1350544386242582
 10
0.0073514661830136
 20
-0.2482898780773859
 10
0.1205869056361359
 20
-0.2482898780773859
  0
LWPOLYLINE
  5
7DE1B343D9DFDF2
330
7DE1B343D9DFF3D
100
AcDbEntity
  8
TEXT
100
AcDbPolyline
 90
        3
 70
     0
 43
0.0006660908203125
 10
0.0339950989955111
 20
-0.1350544386242582
 10
0.0339950989955111
 20
-0.2216462452648849
 10
0.1205869056361359
 20
-0.2216462452648849
  0
LWPOLYLINE
  5
7DE1B343D9DFDF7
330
7DE1B343D9DFF3D
100
AcDbEntity
  8
TEXT
100
AcDbPolyline
 90
        2
 70
     0
 43
0.0001332181640625
 10
0.080621456417388
 20
-0.125063076319573
 10
0.0073514661830136
 20
-0.1350544386242582
  0
LWPOLYLINE
  5
7DE1B343D9DFDFB
330
7DE1B343D9DFF3D
100
AcDbEntity
  8
TEXT
100
AcDbPolyline
 90
        2
 70
     0
 43
0.0001332181640625
 10
0.0339950989955111
 20
-0.1350544386242582
 10
0.0939432728236385
 20
-0.125063076319573
  0
LWPOLYLINE
  5
7DE1B343D9DFDFF
330
7DE1B343D9DFF3D
100
AcDbEntity
  8
TEXT
100
AcDbPolyline
 90
        2
 70
     0
 43
0.0001332181640625
 10
0.0339950989955111
 20
-0.2216462452648849
 10
0.0939432728236385
 20
-0.1616980714367593
  0
LWPOLYLINE
  5
7DE1B343D9DFE03
330
7DE1B343D9DFF3D
100
AcDbEntity
  8
TEXT
100
AcDbPolyline
 90
        3
 70
     0
 43
0.0006660908203125
 10
0.1205869056361359
 20
0.0181464500476174
 10
0.0073514661830136
 20
0.0181464500476174
 10
0.0073514661830136
 20
-0.0950889894055103
  0
LWPOLYLINE
  5
7DE1B343D9DFE08
330
7DE1B343D9DFF3D
100
AcDbEntity
  8
TEXT
100
AcDbPolyline
 90
        3
 70
     0
 43
0.0006660908203125
 10
0.1205869056361359
 20
-0.0084971827648836
 10
0.0339950989955111
 20
-0.0084971827648836
 10
0.0339950989955111
 20
-0.0950889894055103
  0
LWPOLYLINE
  5
7DE1B343D9DFE0D
330
7DE1B343D9DFF3D
100
AcDbEntity
  8
TEXT
100
AcDbPolyline
 90
        2
 70
     0
 43
0.0001332181640625
 10
0.0339950989955111
 20
-0.0084971827648836
 10
0.0939432728236367
 20
-0.0684453565930092
  0
LWPOLYLINE
  5
7DE1B343D9DFE11
330
7DE1B343D9DFF3D
100
AcDbEntity
  8
TEXT
100
AcDbPolyline
 90
        2
 70
     0
 43
0.0001332181640625
 10
0.0339950989955111
 20
-0.0950889894055103
 10
0.0939432728236367
 20
-0.105080351710199
  0
LWPOLYLINE
  5
7DE1B343D9DFE15
330
7DE1B343D9DFF3D
100
AcDbEntity
  8
TEXT
100
AcDbPolyline
 90
        2
 70
     0
 43
0.0001332181640625
 10
0.0073514661830136
 20
-0.0950889894055103
 10
0.080621456417388
 20
-0.105080351710199
  0
LWPOLYLINE
  5
7DE1B343D9DFE19
330
7DE1B343D9DFF3D
100
AcDbEntity
  8
TEXT
100
AcDbPolyline
 90
        2
 70
     0
 43
0.0006660908203125
 10
0.0339950989955111
 20
-0.1350544386242582
 10
0.0073514661830136
 20
-0.1350544386242582
  0
LWPOLYLINE
  5
7DE1B343D9DFE1D
330
7DE1B343D9DFF3D
100
AcDbEntity
  8
TEXT
100
AcDbPolyline
 90
        2
 70
     0
 43
0.0006660908203125
 10
0.0339950989955111
 20
-0.0950889894055103
 10
0.0073514661830136
 20
-0.0950889894055103
  0
LINE
  5
7DE1B343D9DFE21
330
7DE1B343D9DFF3D
100
AcDbEntity
  8
TEXT
100
AcDbLine
 10
1.522541895309511
 20
-0.0461302446091516
 30
0.0
 11
1.415335621922221
 21
-0.0461302446091516
 31
0.0
  0
LINE
  5
7DE1B343D9DFE22
330
7DE1B343D9DFF3D
100
AcDbEntity
  8
TEXT
100
AcDbLine
 10
1.551572793653989
 20
0.0181464500476139
 30
0.0
 11
1.41674088443693
 21
0.0181464500476139
 31
0.0
  0
ARC
  5
7DE1B343D9DFE23
330
7DE1B343D9DFF3D
100
AcDbEntity
  8
TEXT
100
AcDbCircle
 10
1.476054980830247
 20
-0.1510907992154025
 30
0.0
 40
0.0676855811441166
100
AcDbArc
 50
90.0
 51
153.7768192527749
  0
LWPOLYLINE
  5
7DE1B343D9DFE24
330
7DE1B343D9DFF3D
100
AcDbEntity
  8
TEXT
100
AcDbPolyline
 90
        2
 70
     0
 43
0.0
 10
1.414303126467411
 20
-0.204835637990459
 42
0.2901071551932823
 10
1.457379059335047
 20
-0.2483265829408972
 42
5.328517124445801
  0
ARC
  5
7DE1B343D9DFE28
330
7DE1B343D9DFF3D
100
AcDbEntity
  8
TEXT
100
AcDbCircle
 10
0.7709236031587617
 20
-0.1885341916028473
 30
0.0
 40
0.0601160179737537
100
AcDbArc
 50
180.0000000000003
 51
264.0521544866073
  0
LINE
  5
7DE1B343D9DFE29
330
7DE1B343D9DFF3D
100
AcDbEntity
  8
TEXT
100
AcDbLine
 10
0.7744389587843095
 20
0.052534367641752
 30
0.0
 11
0.7143963539403025
 21
0.052534367641752
 31
0.0
  0
ARC
  5
7DE1B343D9DFE2A
330
7DE1B343D9DFF3D
100
AcDbEntity
  8
TEXT
100
AcDbCircle
 10
0.5386646010417911
 20
-0.0639410093988879
 30
0.0
 40
0.0820874594465043
100
AcDbArc
 50
90.0
 51
270.0
  0
LWPOLYLINE
  5
7DE1B343D9DFE2B
330
7DE1B343D9DFF3D
100
AcDbEntity
  8
TEXT
100
AcDbPolyline
 90
        2
 70
     0
 43
0.0001332181640625
 10
0.1305782679408265
 20
-0.0551235401867623
 10
0.1205869056361359
 20
0.0181464500476174
  0
LWPOLYLINE
  5
7DE1B343D9DFE2F
330
7DE1B343D9DFF3D
100
AcDbEntity
  8
TEXT
100
AcDbPolyline
 90
        2
 70
     0
 43
0.0001332181640625
 10
0.1205869056361359
 20
-0.0084971827648836
 10
0.1305782679408265
 20
-0.0684453565930092
  0
LWPOLYLINE
  5
7DE1B343D9DFE33
330
7DE1B343D9DFF3D
100
AcDbEntity
  8
TEXT
100
AcDbPolyline
 90
        3
 70
     0
 43
0.0006660908203125
 10
0.2737877943080134
 20
-0.0950889894055103
 10
0.2737877943080134
 20
0.0181464500476174
 10
0.1605523548548875
 20
0.0181464500476174
  0
LWPOLYLINE
  5
7DE1B343D9DFE38
330
7DE1B343D9DFF3D
100
AcDbEntity
  8
TEXT
100
AcDbPolyline
 90
        3
 70
     0
 43
0.0006660908203125
 10
0.2471441614955123
 20
-0.0950889894055103
 10
0.2471441614955123
 20
-0.0084971827648836
 10
0.1605523548548875
 20
-0.0084971827648836
  0
LWPOLYLINE
  5
7DE1B343D9DFE3D
330
7DE1B343D9DFF3D
100
AcDbEntity
  8
TEXT
100
AcDbPolyline
 90
        2
 70
     0
 43
0.0001332181640625
 10
0.2471441614955123
 20
-0.0084971827648836
 10
0.1871959876673885
 20
-0.0684453565930092
  0
LWPOLYLINE
  5
7DE1B343D9DFE41
330
7DE1B343D9DFF3D
100
AcDbEntity
  8
TEXT
100
AcDbPolyline
 90
        2
 70
     0
 43
0.0001332181640625
 10
0.1605523548548875
 20
-0.0084971827648836
 10
0.1505609925501987
 20
-0.0684453565930092
  0
LWPOLYLINE
  5
7DE1B343D9DFE45
330
7DE1B343D9DFF3D
100
AcDbEntity
  8
TEXT
100
AcDbPolyline
 90
        2
 70
     0
 43
0.0001332181640625
 10
0.1605523548548875
 20
0.0181464500476174
 10
0.1505609925501987
 20
-0.0551235401867623
  0
LWPOLYLINE
  5
7DE1B343D9DFE49
330
7DE1B343D9DFF3D
100
AcDbEntity
  8
TEXT
100
AcDbPolyline
 90
        2
 70
     0
 43
0.0001332181640625
 10
0.2005178040736373
 20
-0.105080351710199
 10
0.2737877943080134
 20
-0.0950889894055103
  0
LWPOLYLINE
  5
7DE1B343D9DFE4D
330
7DE1B343D9DFF3D
100
AcDbEntity
  8
TEXT
100
AcDbPolyline
 90
        2
 70
     0
 43
0.0001332181640625
 10
0.2471441614955123
 20
-0.0950889894055103
 10
0.1871959876673885
 20
-0.105080351710199
  0
LWPOLYLINE
  5
7DE1B343D9DFE51
330
7DE1B343D9DFF3D
100
AcDbEntity
  8
TEXT
100
AcDbPolyline
 90
        2
 70
     0
 43
0.0001332181640625
 10
0.2737877943080134
 20
-0.1350544386242582
 10
0.2005178040736373
 20
-0.125063076319573
  0
LWPOLYLINE
  5
7DE1B343D9DFE55
330
7DE1B343D9DFF3D
100
AcDbEntity
  8
TEXT
100
AcDbPolyline
 90
        2
 70
     0
 43
0.0001332181640625
 10
0.2471441614955123
 20
-0.1350544386242582
 10
0.1871959876673885
 20
-0.125063076319573
  0
LWPOLYLINE
  5
7DE1B343D9DFE59
330
7DE1B343D9DFF3D
100
AcDbEntity
  8
TEXT
100
AcDbPolyline
 90
        2
 70
     0
 43
0.0001332181640625
 10
0.2471441614955123
 20
-0.2216462452648849
 10
0.1871959876673885
 20
-0.1616980714367593
  0
LWPOLYLINE
  5
7DE1B343D9DFE5D
330
7DE1B343D9DFF3D
100
AcDbEntity
  8
TEXT
100
AcDbPolyline
 90
        3
 70
     0
 43
0.0006660908203125
 10
0.1605523548548875
 20
-0.2216462452648849
 10
0.2471441614955123
 20
-0.2216462452648849
 10
0.2471441614955123
 20
-0.1350544386242582
  0
LWPOLYLINE
  5
7DE1B343D9DFE62
330
7DE1B343D9DFF3D
100
AcDbEntity
  8
TEXT
100
AcDbPolyline
 90
        3
 70
     0
 43
0.0006660908203125
 10
0.1605523548548875
 20
-0.2482898780773859
 10
0.2737877943080134
 20
-0.2482898780773859
 10
0.2737877943080134
 20
-0.1350544386242582
  0
LWPOLYLINE
  5
7DE1B343D9DFE67
330
7DE1B343D9DFF3D
100
AcDbEntity
  8
TEXT
100
AcDbPolyline
 90
        5
 70
     0
 43
0.0001332181640625
 10
0.1305782679408265
 20
-0.1750198878430098
 10
0.1305782679408265
 20
-0.1616980714367593
 10
0.0939432728236385
 20
-0.1616980714367593
 10
0.0939432728236385
 20
-0.125063076319573
 10
0.080621456417388
 20
-0.125063076319573
  0
LWPOLYLINE
  5
7DE1B343D9DFE6E
330
7DE1B343D9DFF3D
100
AcDbEntity
  8
TEXT
100
AcDbPolyline
 90
        2
 70
     0
 43
0.0006660908203125
 10
0.1205869056361359
 20
-0.2216462452648849
 10
0.1205869056361359
 20
-0.2482898780773859
  0
LWPOLYLINE
  5
7DE1B343D9DFE72
330
7DE1B343D9DFF3D
100
AcDbEntity
  8
TEXT
100
AcDbPolyline
 90
        2
 70
     0
 43
0.0001332181640625
 10
0.1205869056361359
 20
-0.2216462452648849
 10
0.1305782679408265
 20
-0.1616980714367593
  0
LWPOLYLINE
  5
7DE1B343D9DFE76
330
7DE1B343D9DFF3D
100
AcDbEntity
  8
TEXT
100
AcDbPolyline
 90
        2
 70
     0
 43
0.0001332181640625
 10
0.1205869056361359
 20
-0.2482898780773859
 10
0.1305782679408265
 20
-0.1750198878430098
  0
LWPOLYLINE
  5
7DE1B343D9DFE7A
330
7DE1B343D9DFF3D
100
AcDbEntity
  8
TEXT
100
AcDbPolyline
 90
        5
 70
     0
 43
0.0001332181640625
 10
0.080621456417388
 20
-0.105080351710199
 10
0.0939432728236367
 20
-0.105080351710199
 10
0.0939432728236367
 20
-0.0684453565930092
 10
0.1305782679408265
 20
-0.0684453565930092
 10
0.1305782679408265
 20
-0.0551235401867623
  0
LWPOLYLINE
  5
7DE1B343D9DFE81
330
7DE1B343D9DFF3D
100
AcDbEntity
  8
TEXT
100
AcDbPolyline
 90
        5
 70
     0
 43
0.0001332181640625
 10
0.1505609925501987
 20
-0.0551235401867623
 10
0.1505609925501987
 20
-0.0684453565930092
 10
0.1871959876673885
 20
-0.0684453565930092
 10
0.1871959876673885
 20
-0.105080351710199
 10
0.2005178040736373
 20
-0.105080351710199
  0
LWPOLYLINE
  5
7DE1B343D9DFE88
330
7DE1B343D9DFF3D
100
AcDbEntity
  8
TEXT
100
AcDbPolyline
 90
        2
 70
     0
 43
0.0001332181640625
 10
0.1605523548548875
 20
-0.2216462452648849
 10
0.1505609925501987
 20
-0.1616980714367593
  0
LWPOLYLINE
  5
7DE1B343D9DFE8C
330
7DE1B343D9DFF3D
100
AcDbEntity
  8
TEXT
100
AcDbPolyline
 90
        2
 70
     0
 43
0.0001332181640625
 10
0.1505609925501987
 20
-0.1750198878430098
 10
0.1605523548548875
 20
-0.2482898780773859
  0
LWPOLYLINE
  5
7DE1B343D9DFE90
330
7DE1B343D9DFF3D
100
AcDbEntity
  8
TEXT
100
AcDbPolyline
 90
        2
 70
     0
 43
0.0006660908203125
 10
0.1605523548548875
 20
-0.2216462452648849
 10
0.1605523548548875
 20
-0.2482898780773859
  0
LWPOLYLINE
  5
7DE1B343D9DFE94
330
7DE1B343D9DFF3D
100
AcDbEntity
  8
TEXT
100
AcDbPolyline
 90
        5
 70
     0
 43
0.0001332181640625
 10
0.2005178040736373
 20
-0.125063076319573
 10
0.1871959876673885
 20
-0.125063076319573
 10
0.1871959876673885
 20
-0.1616980714367593
 10
0.1505609925501987
 20
-0.1616980714367593
 10
0.1505609925501987
 20
-0.1750198878430098
  0
LWPOLYLINE
  5
7DE1B343D9DFE9B
330
7DE1B343D9DFF3D
100
AcDbEntity
  8
TEXT
100
AcDbPolyline
 90
        2
 70
     0
 43
0.0006660908203125
 10
0.2471441614955123
 20
-0.0950889894055103
 10
0.2737877943080134
 20
-0.0950889894055103
  0
LWPOLYLINE
  5
7DE1B343D9DFE9F
330
7DE1B343D9DFF3D
100
AcDbEntity
  8
TEXT
100
AcDbPolyline
 90
        2
 70
     0
 43
0.0006660908203125
 10
0.2471441614955123
 20
-0.1350544386242582
 10
0.2737877943080134
 20
-0.1350544386242582
  0
LINE
  5
7DE1B343D9DFEA3
330
7DE1B343D9DFF3D
100
AcDbEntity
  8
TEXT
100
AcDbLine
 10
0.5439019311560383
 20
-0.0461302446091516
 30
0.0
 11
0.7108075851850096
 21
-0.0461302446091516
 31
0.0
  0
LINE
  5
7DE1B343D9DFEA4
330
7DE1B343D9DFF3D
100
AcDbEntity
  8
TEXT
100
AcDbLine
 10
0.6095020674003394
 20
-0.0819349662197795
 30
0.0
 11
0.5439019311560383
 21
-0.0819349662197795
 31
0.0
  0
LINE
  5
7DE1B343D9DFEA5
330
7DE1B343D9DFF3D
100
AcDbEntity
  8
TEXT
100
AcDbLine
 10
0.4565771415952867
 20
-0.2483265829408972
 30
0.0
 11
0.6095020674003394
 21
-0.2483265829408972
 31
0.0
  0
LINE
  5
7DE1B343D9DFEA6
330
7DE1B343D9DFF3D
100
AcDbEntity
  8
TEXT
100
AcDbLine
 10
0.614442441306619
 20
-0.1799695766074578
 30
0.0
 11
0.4565771415952849
 21
-0.1799695766074578
 31
0.0
  0
LINE
  5
7DE1B343D9DFEA7
330
7DE1B343D9DFF3D
100
AcDbEntity
  8
TEXT
100
AcDbLine
 10
0.5386646010417902
 20
-0.1460284688453932
 30
0.0
 11
0.614442441306619
 21
-0.1460284688453932
 31
0.0
  0
ARC
  5
7DE1B343D9DFEA8
330
7DE1B343D9DFF3D
100
AcDbEntity
  8
TEXT
100
AcDbCircle
 10
0.5439019311560392
 20
-0.0640326054144638
 30
0.0
 40
0.017902360805315
100
AcDbArc
 50
90.0
 51
270.0
  0
LINE
  5
7DE1B343D9DFEA9
330
7DE1B343D9DFF3D
100
AcDbEntity
  8
TEXT
100
AcDbLine
 10
0.4565771415952849
 20
-0.1799695766074578
 30
0.0
 11
0.4565771415952867
 21
-0.2483265829408972
 31
0.0
  0
LINE
  5
7DE1B343D9DFEAA
330
7DE1B343D9DFF3D
100
AcDbEntity
  8
TEXT
100
AcDbLine
 10
0.7108075851850096
 20
-0.0461302446091516
 30
0.0
 11
0.7108075851850096
 21
-0.1885341916028473
 31
0.0
  0
ARC
  5
7DE1B343D9DFEAB
330
7DE1B343D9DFF3D
100
AcDbEntity
  8
TEXT
100
AcDbCircle
 10
0.6095020674003403
 20
-0.1651307745803401
 30
0.0
 40
0.0831958083605586
100
AcDbArc
 50
270.0
 51
90.0
  0
ARC
  5
7DE1B343D9DFEAC
330
7DE1B343D9DFF3D
100
AcDbEntity
  8
TEXT
100
AcDbCircle
 10
0.6144424413066199
 20
-0.1629990227264237
 30
0.0
 40
0.0169705538810321
100
AcDbArc
 50
270.0
 51
90.0
  0
LWPOLYLINE
  5
7DE1B343D9DFEAD
330
7DE1B343D9DFF3D
100
AcDbEntity
  8
TEXT
100
AcDbPolyline
 90
        2
 70
     0
 43
0.0006660908203125
 10
0.1205869056361359
 20
-0.0084971827648836
 10
0.1205869056361359
 20
0.0181464500476174
  0
LWPOLYLINE
  5
7DE1B343D9DFEB1
330
7DE1B343D9DFF3D
100
AcDbEntity
  8
TEXT
100
AcDbPolyline
 90
        2
 70
     0
 43
0.0006660908203125
 10
0.1605523548548875
 20
-0.0084971827648836
 10
0.1605523548548875
 20
0.0181464500476174
  0
LINE
  5
7DE1B343D9DFEB5
330
7DE1B343D9DFF3D
100
AcDbEntity
  8
TEXT
100
AcDbLine
 10
0.7143963539403025
 20
0.0181464500476139
 30
0.0
 11
0.5386646010417902
 21
0.0181464500476139
 31
0.0
  0
LINE
  5
7DE1B343D9DFEB6
330
7DE1B343D9DFF3D
100
AcDbEntity
  8
TEXT
100
AcDbLine
 10
0.7143963539403025
 20
0.052534367641752
 30
0.0
 11
0.7143963539403025
 21
0.0181464500476139
 31
0.0
  0
LINE
  5
7DE1B343D9DFEB7
330
7DE1B343D9DFF3D
100
AcDbEntity
  8
TEXT
100
AcDbLine
 10
0.9048682459601547
 20
-0.0827255460655068
 30
0.0
 11
0.8462379249282168
 21
0.0181464500476139
 31
0.0
  0
LINE
  5
7DE1B343D9DFEB8
330
7DE1B343D9DFF3D
100
AcDbEntity
  8
TEXT
100
AcDbLine
 10
0.9636168087660202
 20
0.0181464500476139
 30
0.0
 11
0.9048682459601547
 21
-0.0827255460655068
 31
0.0
  0
LINE
  5
7DE1B343D9DFEB9
330
7DE1B343D9DFF3D
100
AcDbEntity
  8
TEXT
100
AcDbLine
 10
1.060547434125761
 20
-0.1659387448378979
 30
0.0
 11
1.060547434125761
 21
0.0861579277864244
 31
0.0
  0
LINE
  5
7DE1B343D9DFEBA
330
7DE1B343D9DFF3D
100
AcDbEntity
  8
TEXT
100
AcDbLine
 10
1.092859288263421
 20
0.0181464500476139
 30
0.0
 11
1.092859288263421
 21
-0.1827177566847944
 31
0.0
  0
LINE
  5
7DE1B343D9DFEBB
330
7DE1B343D9DFF3D
100
AcDbEntity
  8
TEXT
100
AcDbLine
 10
1.092859288263421
 20
-0.1827177566847944
 30
0.0
 11
1.07586565137882
 21
-0.1827177566847944
 31
0.0
  0
LINE
  5
7DE1B343D9DFEBC
330
7DE1B343D9DFF3D
100
AcDbEntity
  8
TEXT
100
AcDbLine
 10
1.061687007621956
 20
-0.2483265829408972
 30
0.0
 11
1.15969034132139
 21
-0.2483265829408972
 31
0.0
  0
LINE
  5
7DE1B343D9DFEBD
330
7DE1B343D9DFF3D
100
AcDbEntity
  8
TEXT
100
AcDbLine
 10
0.8952680089632004
 20
-0.2283680768358842
 30
0.0
 11
0.992567715056645
 21
-0.0640178659006161
 31
0.0
  0
ARC
  5
7DE1B343D9DFEBE
330
7DE1B343D9DFF3D
100
AcDbEntity
  8
TEXT
100
AcDbCircle
 10
0.8612244490509864
 20
-0.2087788606672014
 30
0.0
 40
0.0392772371940762
100
AcDbArc
 50
270.1604552698595
 51
330.0831797321295
  0
LINE
  5
7DE1B343D9DFEBF
330
7DE1B343D9DFF3D
100
AcDbEntity
  8
TEXT
100
AcDbLine
 10
0.7646941926651153
 20
-0.2483265829408972
 30
0.0
 11
0.8613344437401096
 21
-0.2480559438426149
 31
0.0
  0
LWPOLYLINE
  5
7DE1B343D9DFEC0
330
7DE1B343D9DFF3D
100
AcDbEntity
  8
TEXT
100
AcDbPolyline
 90
        6
 70
     1
 43
0.0
 10
0.8072179962402648
 20
-0.0461302446091516
 10
0.7769014020200567
 20
-0.0461302446091516
 10
0.7769014020200567
 20
-0.1692412426640459
 42
0.407328721240804
 10
0.7884450531815331
 20
-0.181060157340432
 10
0.8490667522262638
 20
-0.181060157340432
 10
0.8665320926335818
 20
-0.1482479282969529
  0
LINE
  5
7DE1B343D9DFEC8
330
7DE1B343D9DFF3D
100
AcDbEntity
  8
TEXT
100
AcDbLine
 10
0.992567715056645
 20
-0.0640178659006161
 30
0.0
 11
0.992567715056645
 21
-0.1967752407259724
 31
0.0
  0
ARC
  5
7DE1B343D9DFEC9
330
7DE1B343D9DFF3D
100
AcDbEntity
  8
TEXT
100
AcDbCircle
 10
1.075865651378818
 20
-0.1673359504413689
 30
0.0
 40
0.0153818062434269
100
AcDbArc
 50
174.7883570302258
 51
270.0
  0
LWPOLYLINE
  5
7DE1B343D9DFECA
330
7DE1B343D9DFF3D
100
AcDbEntity
  8
TEXT
100
AcDbPolyline
 90
        2
 70
     0
 43
0.0
 10
0.9925677150566432
 20
-0.1967752407259689
 42
0.3318488747599744
 10
1.061687007621956
 20
-0.2483265829408972
 42
-6.868794160588311
  0
LINE
  5
7DE1B343D9DFECE
330
7DE1B343D9DFF3D
100
AcDbEntity
  8
TEXT
100
AcDbLine
 10
1.217079410310651
 20
-0.2483265829408972
 30
0.0
 11
1.284137457092491
 21
-0.2483265829408972
 31
0.0
  0
LINE
  5
7DE1B343D9DFECF
330
7DE1B343D9DFF3D
100
AcDbEntity
  8
TEXT
100
AcDbLine
 10
1.217079410310651
 20
-0.0536840337752616
 30
0.0
 11
1.217079410310651
 21
-0.2483265829408972
 31
0.0
  0
LINE
  5
7DE1B343D9DFED0
330
7DE1B343D9DFF3D
100
AcDbEntity
  8
TEXT
100
AcDbLine
 10
1.15969034132139
 20
-0.0461302446091516
 30
0.0
 11
1.209525621144538
 21
-0.0461302446091516
 31
0.0
  0
LINE
  5
7DE1B343D9DFED1
330
7DE1B343D9DFF3D
100
AcDbEntity
  8
TEXT
100
AcDbLine
 10
1.15969034132139
 20
-0.2483265829408972
 30
0.0
 11
1.15969034132139
 21
-0.0461302446091516
 31
0.0
  0
LWPOLYLINE
  5
7DE1B343D9DFED2
330
7DE1B343D9DFF3D
100
AcDbEntity
  8
TEXT
100
AcDbPolyline
 90
        2
 70
     0
 43
0.0
 10
1.209525621144536
 20
-0.0461302446091516
 42
-0.4142135623731017
 10
1.21707941031065
 20
-0.0536840337752616
 42
-0.9999999999999998
  0
LINE
  5
7DE1B343D9DFED6
330
7DE1B343D9DFF3D
100
AcDbEntity
  8
TEXT
100
AcDbLine
 10
1.415335621922221
 20
-0.0461302446091516
 30
0.0
 11
1.415335621922221
 21
-0.1211826506833582
 31
0.0
  0
LINE
  5
7DE1B343D9DFED7
330
7DE1B343D9DFF3D
100
AcDbEntity
  8
TEXT
100
AcDbLine
 10
1.284137457092491
 20
-0.0461302446091516
 30
0.0
 11
1.338271054013442
 21
-0.0461302446091516
 31
0.0
  0
LINE
  5
7DE1B343D9DFED8
330
7DE1B343D9DFF3D
100
AcDbEntity
  8
TEXT
100
AcDbLine
 10
1.284137457092491
 20
-0.2483265829408972
 30
0.0
 11
1.284137457092491
 21
-0.0461302446091516
 31
0.0
  0
LWPOLYLINE
  5
7DE1B343D9DFED9
330
7DE1B343D9DFF3D
100
AcDbEntity
  8
TEXT
100
AcDbPolyline
 90
        2
 70
     0
 43
0.0
 10
1.33827105401344
 20
-0.0461302446091516
 42
-0.4142135623731017
 10
1.345824843179553
 20
-0.0536840337752616
 42
-0.9999999999999998
  0
LWPOLYLINE
  5
7DE1B343D9DFEDD
330
7DE1B343D9DFF3D
100
AcDbEntity
  8
TEXT
100
AcDbPolyline
 90
        4
 70
     0
 43
0.0
 10
1.345824843179553
 20
-0.0536840337752616
 10
1.345824843179553
 20
-0.2483265829408972
 10
1.414303126467411
 20
-0.2483265829408972
 10
1.414303126467411
 20
-0.204835637990459
 42
-1.714843617202739
  0
LINE
  5
7DE1B343D9DFEE3
330
7DE1B343D9DFF3D
100
AcDbEntity
  8
TEXT
100
AcDbLine
 10
0.7744389587843095
 20
0.0181464500476139
 30
0.0
 11
0.7744389587843095
 21
0.052534367641752
 31
0.0
  0
LINE
  5
7DE1B343D9DFEE4
330
7DE1B343D9DFF3D
100
AcDbEntity
  8
TEXT
100
AcDbLine
 10
0.8462379249282168
 20
0.0181464500476139
 30
0.0
 11
0.7744389587843095
 21
0.0181464500476139
 31
0.0
  0
LINE
  5
7DE1B343D9DFEE5
330
7DE1B343D9DFF3D
100
AcDbEntity
  8
TEXT
100
AcDbLine
 10
0.9937387215593965
 20
0.0181464500476139
 30
0.0
 11
0.9636168087660202
 21
0.0181464500476139
 31
0.0
  0
LINE
  5
7DE1B343D9DFEE6
330
7DE1B343D9DFF3D
100
AcDbEntity
  8
TEXT
100
AcDbLine
 10
0.9937387215593965
 20
0.0861579277864244
 30
0.0
 11
0.9937387215593965
 21
0.0181464500476139
 31
0.0
  0
LINE
  5
7DE1B343D9DFEE7
330
7DE1B343D9DFF3D
100
AcDbEntity
  8
TEXT
100
AcDbLine
 10
1.060547434125761
 20
0.0861579277864244
 30
0.0
 11
0.9937387215593965
 21
0.0861579277864244
 31
0.0
  0
LWPOLYLINE
  5
7DE1B343D9DFEE8
330
7DE1B343D9DFF3D
100
AcDbEntity
  8
TEXT
100
AcDbPolyline
 90
        3
 70
     0
 43
0.0
 10
1.380959193723763
 20
0.0181464500476174
 10
1.262659034907719
 20
0.0181464500476174
 10
1.262659034907719
 20
-0.0090210467132785
 42
-1.960274751411753
  0
LINE
  5
7DE1B343D9DFEED
330
7DE1B343D9DFF3D
100
AcDbEntity
  8
TEXT
100
AcDbLine
 10
1.226877344194557
 20
0.0181464500476139
 30
0.0
 11
1.092859288263421
 21
0.0181464500476139
 31
0.0
  0
LWPOLYLINE
  5
7DE1B343D9DFEEE
330
7DE1B343D9DFF3D
100
AcDbEntity
  8
TEXT
100
AcDbPolyline
 90
        2
 70
     0
 43
0.0
 10
1.226877344194557
 20
0.0181464500476174
 42
-0.3328679258950098
 10
1.262659034907719
 20
-0.0090210467132785
 42
6.772930709997214
  0
LINE
  5
7DE1B343D9DFEF2
330
7DE1B343D9DFF3D
100
AcDbEntity
  8
TEXT
100
AcDbLine
 10
1.41674088443693
 20
0.0181464500476139
 30
0.0
 11
1.41674088443693
 21
-0.0101760957220301
 31
0.0
  0
LWPOLYLINE
  5
7DE1B343D9DFEF3
330
7DE1B343D9DFF3D
100
AcDbEntity
  8
TEXT
100
AcDbPolyline
 90
        2
 70
     0
 43
0.0
 10
1.380959193723763
 20
0.0181464500476174
 42
-0.3277054968067132
 10
1.416740884436928
 20
-0.0101760957220265
 42
6.667889725900311
  0
LINE
  5
7DE1B343D9DFEF7
330
7DE1B343D9DFF3D
100
AcDbEntity
  8
TEXT
100
AcDbLine
 10
1.63053273252903
 20
-0.0870655285058135
 30
0.0
 11
1.586781961347129
 21
-0.0048152525096683
 31
0.0
  0
LINE
  5
7DE1B343D9DFEF8
330
7DE1B343D9DFF3D
100
AcDbEntity
  8
TEXT
100
AcDbLine
 10
1.63053273252903
 20
0.0181464500476139
 30
0.0
 11
1.63053273252903
 21
-0.0870655285058135
 31
0.0
  0
LINE
  5
7DE1B343D9DFEF9
330
7DE1B343D9DFF3D
100
AcDbEntity
  8
TEXT
100
AcDbLine
 10
1.858216471467399
 20
-0.0577188763639243
 30
0.0
 11
1.858216471467399
 21
0.0836106558152146
 31
0.0
  0
LINE
  5
7DE1B343D9DFEFA
330
7DE1B343D9DFF3D
100
AcDbEntity
  8
TEXT
100
AcDbLine
 10
1.905314630023384
 20
0.0181464500476139
 30
0.0
 11
1.858216471467399
 21
-0.0577188763639243
 31
0.0
  0
LINE
  5
7DE1B343D9DFEFB
330
7DE1B343D9DFF3D
100
AcDbEntity
  8
TEXT
100
AcDbLine
 10
1.915749346787307
 20
-0.0917467928933598
 30
0.0
 11
1.980306462753012
 21
0.0181464500476139
 31
0.0
  0
LINE
  5
7DE1B343D9DFEFC
330
7DE1B343D9DFF3D
100
AcDbEntity
  8
TEXT
100
AcDbLine
 10
1.794381480244626
 20
-0.2483265829408972
 30
0.0
 11
1.858759664563246
 21
-0.2483265829408972
 31
0.0
  0
LWPOLYLINE
  5
7DE1B343D9DFEFD
330
7DE1B343D9DFF3D
100
AcDbEntity
  8
TEXT
100
AcDbPolyline
 90
        2
 70
     0
 43
0.0
 10
1.634472409834068
 20
-0.204835637990459
 42
-0.2901071551932486
 10
1.591396476966423
 20
-0.2483265829408972
 42
-5.328517124445184
  0
ARC
  5
7DE1B343D9DFF01
330
7DE1B343D9DFF3D
100
AcDbEntity
  8
TEXT
100
AcDbCircle
 10
1.522541895309509
 20
-0.0744896196091489
 30
0.0
 40
0.028359375
100
AcDbArc
 50
25.78218179591245
 51
90.0
  0
LINE
  5
7DE1B343D9DFF02
330
7DE1B343D9DFF3D
100
AcDbEntity
  8
TEXT
100
AcDbLine
 10
1.558342970613632
 20
-0.0834052180712839
 30
0.0
 11
1.548078210200068
 21
-0.0621546784985896
 31
0.0
  0
LINE
  5
7DE1B343D9DFF03
330
7DE1B343D9DFF3D
100
AcDbEntity
  8
TEXT
100
AcDbLine
 10
1.476054980830249
 20
-0.0834052180712839
 30
0.0
 11
1.558342970613632
 21
-0.0834052180712839
 31
0.0
  0
LWPOLYLINE
  5
7DE1B343D9DFF04
330
7DE1B343D9DFF3D
100
AcDbEntity
  8
TEXT
100
AcDbPolyline
 90
        4
 70
     1
 43
0.0
 10
1.571274011896531
 20
-0.1453626049568719
 10
1.482613693236672
 20
-0.1453626049568719
 42
0.9999999999999998
 10
1.482613693236672
 20
-0.1877611454607326
 10
1.571274011896531
 20
-0.1877611454607326
 42
1.0
  0
LWPOLYLINE
  5
7DE1B343D9DFF0A
330
7DE1B343D9DFF3D
100
AcDbEntity
  8
TEXT
100
AcDbPolyline
 90
        2
 70
     0
 43
0.0
 10
1.457379059335047
 20
-0.2483265829408972
 10
1.591396476966423
 20
-0.2483265829408972
 42
0.9999999999999998
  0
LINE
  5
7DE1B343D9DFF0E
330
7DE1B343D9DFF3D
100
AcDbEntity
  8
TEXT
100
AcDbLine
 10
1.717733498952063
 20
-0.0461302446091516
 30
0.0
 11
1.794381480244621
 21
-0.0461302446091516
 31
0.0
  0
LINE
  5
7DE1B343D9DFF0F
330
7DE1B343D9DFF3D
100
AcDbEntity
  8
TEXT
100
AcDbLine
 10
1.794381480244621
 20
-0.0461302446091516
 30
0.0
 11
1.794381480244626
 21
-0.2483265829408972
 31
0.0
  0
ARC
  5
7DE1B343D9DFF10
330
7DE1B343D9DFF3D
100
AcDbEntity
  8
TEXT
100
AcDbCircle
 10
1.717733498952061
 20
-0.0710361198918144
 30
0.0
 40
0.0249058752826653
100
AcDbArc
 50
89.99971217465335
 51
179.9999999999985
  0
LINE
  5
7DE1B343D9DFF11
330
7DE1B343D9DFF3D
100
AcDbEntity
  8
TEXT
100
AcDbLine
 10
1.692827623669404
 20
-0.2483265829408972
 30
0.0
 11
1.692827623669398
 21
-0.0710360775094288
 31
0.0
  0
LWPOLYLINE
  5
7DE1B343D9DFF12
330
7DE1B343D9DFF3D
100
AcDbEntity
  8
TEXT
100
AcDbPolyline
 90
        2
 70
     0
 43
0.0
 10
1.634472409834068
 20
-0.2483265829408972
 10
1.692827623669402
 20
-0.2483265829408972
  0
LWPOLYLINE
  5
7DE1B343D9DFF16
330
7DE1B343D9DFF3D
100
AcDbEntity
  8
TEXT
100
AcDbPolyline
 90
        2
 70
     0
 43
0.0
 10
1.634472409834068
 20
-0.204835637990459
 10
1.634472409834068
 20
-0.2483265829408972
  0
LINE
  5
7DE1B343D9DFF1A
330
7DE1B343D9DFF3D
100
AcDbEntity
  8
TEXT
100
AcDbLine
 10
2.011241570150917
 20
-0.2483265829408972
 30
0.0
 11
1.915749346787307
 21
-0.0917467928933598
 31
0.0
  0
LINE
  5
7DE1B343D9DFF1B
330
7DE1B343D9DFF3D
100
AcDbEntity
  8
TEXT
100
AcDbLine
 10
1.934663197774711
 20
-0.2483265829408972
 30
0.0
 11
2.011241570150917
 21
-0.2483265829408972
 31
0.0
  0
LINE
  5
7DE1B343D9DFF1C
330
7DE1B343D9DFF3D
100
AcDbEntity
  8
TEXT
100
AcDbLine
 10
1.858759664563246
 20
-0.1167470144647169
 30
0.0
 11
1.934663197774711
 21
-0.2483265829408972
 31
0.0
  0
LINE
  5
7DE1B343D9DFF1D
330
7DE1B343D9DFF3D
100
AcDbEntity
  8
TEXT
100
AcDbLine
 10
1.858759664563246
 20
-0.2483265829408972
 30
0.0
 11
1.858759664563246
 21
-0.1167470144647169
 31
0.0
  0
LINE
  5
7DE1B343D9DFF1E
330
7DE1B343D9DFF3D
100
AcDbEntity
  8
TEXT
100
AcDbLine
 10
1.858216471467399
 20
0.0836106558152146
 30
0.0
 11
1.789901592918126
 21
0.0836106558152146
 31
0.0
  0
ARC
  5
7DE1B343D9DFF1F
330
7DE1B343D9DFF3D
100
AcDbEntity
  8
TEXT
100
AcDbCircle
 10
1.54954585387692
 20
-0.0234371170732886
 30
0.0
 40
0.0416329381542859
100
AcDbArc
 50
26.56974201007528
 51
87.20939649401342
  0
LINE
  5
7DE1B343D9DFF20
330
7DE1B343D9DFF3D
100
AcDbEntity
  8
TEXT
100
AcDbLine
 10
1.694429638828531
 20
0.0181464500476139
 30
0.0
 11
1.63053273252903
 21
0.0181464500476139
 31
0.0
  0
LINE
  5
7DE1B343D9DFF21
330
7DE1B343D9DFF3D
100
AcDbEntity
  8
TEXT
100
AcDbLine
 10
1.694429638828531
 20
-0.0094011998132608
 30
0.0
 11
1.694429638828531
 21
0.0181464500476139
 31
0.0
  0
ARC
  5
7DE1B343D9DFF22
330
7DE1B343D9DFF3D
100
AcDbEntity
  8
TEXT
100
AcDbCircle
 10
1.725622455891639
 20
-0.013099277234651
 30
0.0
 40
0.0314112657011332
100
AcDbArc
 50
95.88484768694724
 51
173.2388340632136
  0
LINE
  5
7DE1B343D9DFF23
330
7DE1B343D9DFF3D
100
AcDbEntity
  8
TEXT
100
AcDbLine
 10
1.789901592918121
 20
0.0181464500476139
 30
0.0
 11
1.722401875268604
 21
0.0181464500476139
 31
0.0
  0
LINE
  5
7DE1B343D9DFF24
330
7DE1B343D9DFF3D
100
AcDbEntity
  8
TEXT
100
AcDbLine
 10
1.789901592918126
 20
0.0836106558152146
 30
0.0
 11
1.789901592918121
 21
0.0181464500476139
 31
0.0
  0
LINE
  5
7DE1B343D9DFF25
330
7DE1B343D9DFF3D
100
AcDbEntity
  8
TEXT
100
AcDbLine
 10
1.980306462753012
 20
0.0181464500476139
 30
0.0
 11
1.905314630023385
 21
0.0181464500476139
 31
0.0
  0
ENDSEC
  0
SECTION
  2
OBJECTS
  0
DICTIONARY
  5
7DE1B343D9DFF31
330
0
100
AcDbDictionary
  3
ACAD_GROUP
350
7DE1B343D9DFF32
  3
ACAD_LAYOUT
350
7DE1B343D9DFF57
  3
ACAD_MLINESTYLE
350
7DE1B343D9DFF33
  3
ACAD_PLOTSETTINGS
350
7DE1B343D9DFF58
  3
ACAD_PLOTSTYLENAME
350
7DE1B343D9DFF55
  3
ACDBHEADERROUNDTRIPXREC
350
7DE1B343D9DFF62
  3
ACDBVARIABLEDICTIONARY
350
7DE1B343D9DFF5F
  0
DICTIONARY
  5
7DE1B343D9DFF84
330
7DE1B343D9DFF3D
100
AcDbDictionary
280
     1
  3
ACAD_LAYOUTSELFREF
360
7DE1B343D9DFF85
  0
DICTIONARY
  5
7DE1B343D9DFF82
330
7DE1B343D9DFF3A
100
AcDbDictionary
280
     1
  3
ACAD_LAYOUTSELFREF
360
7DE1B343D9DFF83
  0
DICTIONARY
  5
7DE1B343D9DFF32
102
{ACAD_REACTORS
330
7DE1B343D9DFF31
102
}
330
7DE1B343D9DFF31
100
AcDbDictionary
  0
DICTIONARY
  5
7DE1B343D9DFF57
102
{ACAD_REACTORS
330
7DE1B343D9DFF31
102
}
330
7DE1B343D9DFF31
100
AcDbDictionary
  0
DICTIONARY
  5
7DE1B343D9DFF33
102
{ACAD_REACTORS
330
7DE1B343D9DFF31
102
}
330
7DE1B343D9DFF31
100
AcDbDictionary
  3
STANDARD
350
7DE1B343D9DFF40
  0
DICTIONARY
  5
7DE1B343D9DFF58
102
{ACAD_REACTORS
330
7DE1B343D9DFF31
102
}
330
7DE1B343D9DFF31
100
AcDbDictionary
  0
ACDBDICTIONARYWDFLT
  5
7DE1B343D9DFF55
102
{ACAD_REACTORS
330
7DE1B343D9DFF31
102
}
330
7DE1B343D9DFF31
100
AcDbDictionary
281
     1
  3
Normal
350
7DE1B343D9DFF56
100
AcDbDictionaryWithDefault
340
7DE1B343D9DFF56
  0
DICTIONARY
  5
7DE1B343D9DFF62
102
{ACAD_REACTORS
330
7DE1B343D9DFF31
102
}
330
7DE1B343D9DFF31
100
AcDbDictionary
  3
CEPSNTYPE
350
7DE1B343D9DFF6C
  3
FINGERPRINTGUID
350
7DE1B343D9DFF6D
  3
HYPERLINKBASE
350
7DE1B343D9DFF65
  3
INSUNITS
350
7DE1B343D9DFF6B
  3
LAYOUTDICT
350
7DE1B343D9DFF67
  3
LWETCUNION
350
7DE1B343D9DFF6A
  3
PLOTSETDICT
350
7DE1B343D9DFF68
  3
PLOTSTYLNAMDICT
350
7DE1B343D9DFF69
  3
PSVPSCALE
350
7DE1B343D9DFF6F
  3
PUCSBASE
350
7DE1B343D9DFF72
  3
PUCSORGBACK
350
7DE1B343D9DFF78
  3
PUCSORGBOTTOM
350
7DE1B343D9DFF74
  3
PUCSORGFRONT
350
7DE1B343D9DFF77
  3
PUCSORGLEFT
350
7DE1B343D9DFF75
  3
PUCSORGRIGHT
350
7DE1B343D9DFF76
  3
PUCSORGTOP
350
7DE1B343D9DFF73
  3
PUCSORTHOREF
350
7DE1B343D9DFF70
  3
PUCSORTHOVIEW
350
7DE1B343D9DFF71
  3
STYLESHEET
350
7DE1B343D9DFF66
  3
TSTACKALIGN
350
7DE1B343D9DFF63
  3
TSTACKSIZE
350
7DE1B343D9DFF64
  3
UCSBASE
350
7DE1B343D9DFF7B
  3
UCSORGBACK
350
7DE1B343D9DFF81
  3
UCSORGBOTTOM
350
7DE1B343D9DFF7D
  3
UCSORGFRONT
350
7DE1B343D9DFF80
  3
UCSORGLEFT
350
7DE1B343D9DFF7E
  3
UCSORGRIGHT
350
7DE1B343D9DFF7F
  3
UCSORGTOP
350
7DE1B343D9DFF7C
  3
UCSORTHOREF
350
7DE1B343D9DFF79
  3
UCSORTHOVIEW
350
7DE1B343D9DFF7A
  3
VERSIONGUID
350
7DE1B343D9DFF6E
  0
DICTIONARY
  5
7DE1B343D9DFF5F
102
{ACAD_REACTORS
330
7DE1B343D9DFF31
102
}
330
7DE1B343D9DFF31
100
AcDbDictionary
  3
DIMASSOC
350
7DE1B343D9DFF60
  0
XRECORD
  5
7DE1B343D9DFF85
102
{ACAD_REACTORS
330
7DE1B343D9DFF84
102
}
330
7DE1B343D9DFF84
100
AcDbXrecord
340
7DE1B343D9DFF3D
  0
XRECORD
  5
7DE1B343D9DFF83
102
{ACAD_REACTORS
330
7DE1B343D9DFF82
102
}
330
7DE1B343D9DFF82
100
AcDbXrecord
340
7DE1B343D9DFF3A
  0
MLINESTYLE
  5
7DE1B343D9DFF40
102
{ACAD_REACTORS
330
7DE1B343D9DFF33
102
}
330
7DE1B343D9DFF33
100
AcDbMlineStyle
  2
STANDARD
 70
     0
  3

 62
     0
 51
90.0
 52
90.0
 71
     2
 49
0.5
 62
   256
  6
BYLAYER
 49
-0.5
 62
   256
  6
BYLAYER
  0
ACDBPLACEHOLDER
  5
7DE1B343D9DFF56
102
{ACAD_REACTORS
330
7DE1B343D9DFF55
102
}
330
7DE1B343D9DFF55
100
AcDbPlaceHolder
280
     0
  0
XRECORD
  5
7DE1B343D9DFF6C
102
{ACAD_REACTORS
330
7DE1B343D9DFF62
102
}
330
7DE1B343D9DFF62
100
AcDbXrecord
 90
        0
  0
XRECORD
  5
7DE1B343D9DFF6D
102
{ACAD_REACTORS
330
7DE1B343D9DFF62
102
}
330
7DE1B343D9DFF62
100
AcDbXrecord
  1
{9925A290-8DB9-11D6-88E6-0090279574E7}
  0
XRECORD
  5
7DE1B343D9DFF65
102
{ACAD_REACTORS
330
7DE1B343D9DFF62
102
}
330
7DE1B343D9DFF62
100
AcDbXrecord
  1

  0
XRECORD
  5
7DE1B343D9DFF6B
102
{ACAD_REACTORS
330
7DE1B343D9DFF62
102
}
330
7DE1B343D9DFF62
100
AcDbXrecord
 90
        0
  0
XRECORD
  5
7DE1B343D9DFF67
102
{ACAD_REACTORS
330
7DE1B343D9DFF62
102
}
330
7DE1B343D9DFF62
100
AcDbXrecord
340
7DE1B343D9DFF57
  0
XRECORD
  5
7DE1B343D9DFF6A
102
{ACAD_REACTORS
330
7DE1B343D9DFF62
102
}
330
7DE1B343D9DFF62
100
AcDbXrecord
 90
    14877
  0
XRECORD
  5
7DE1B343D9DFF68
102
{ACAD_REACTORS
330
7DE1B343D9DFF62
102
}
330
7DE1B343D9DFF62
100
AcDbXrecord
340
7DE1B343D9DFF58
  0
XRECORD
  5
7DE1B343D9DFF69
102
{ACAD_REACTORS
330
7DE1B343D9DFF62
102
}
330
7DE1B343D9DFF62
100
AcDbXrecord
340
7DE1B343D9DFF55
  0
XRECORD
  5
7DE1B343D9DFF6F
102
{ACAD_REACTORS
330
7DE1B343D9DFF62
102
}
330
7DE1B343D9DFF62
100
AcDbXrecord
 40
0.0
  0
XRECORD
  5
7DE1B343D9DFF72
102
{ACAD_REACTORS
330
7DE1B343D9DFF62
102
}
330
7DE1B343D9DFF62
100
AcDbXrecord
340
0
  0
XRECORD
  5
7DE1B343D9DFF78
102
{ACAD_REACTORS
330
7DE1B343D9DFF62
102
}
330
7DE1B343D9DFF62
100
AcDbXrecord
 10
0.0
 20
0.0
 30
0.0
  0
XRECORD
  5
7DE1B343D9DFF74
102
{ACAD_REACTORS
330
7DE1B343D9DFF62
102
}
330
7DE1B343D9DFF62
100
AcDbXrecord
 10
0.0
 20
0.0
 30
0.0
  0
XRECORD
  5
7DE1B343D9DFF77
102
{ACAD_REACTORS
330
7DE1B343D9DFF62
102
}
330
7DE1B343D9DFF62
100
AcDbXrecord
 10
0.0
 20
0.0
 30
0.0
  0
XRECORD
  5
7DE1B343D9DFF75
102
{ACAD_REACTORS
330
7DE1B343D9DFF62
102
}
330
7DE1B343D9DFF62
100
AcDbXrecord
 10
0.0
 20
0.0
 30
0.0
  0
XRECORD
  5
7DE1B343D9DFF76
102
{ACAD_REACTORS
330
7DE1B343D9DFF62
102
}
330
7DE1B343D9DFF62
100
AcDbXrecord
 10
0.0
 20
0.0
 30
0.0
  0
XRECORD
  5
7DE1B343D9DFF73
102
{ACAD_REACTORS
330
7DE1B343D9DFF62
102
}
330
7DE1B343D9DFF62
100
AcDbXrecord
 10
0.0
 20
0.0
 30
0.0
  0
XRECORD
  5
7DE1B343D9DFF70
102
{ACAD_REACTORS
330
7DE1B343D9DFF62
102
}
330
7DE1B343D9DFF62
100
AcDbXrecord
340
0
  0
XRECORD
  5
7DE1B343D9DFF71
102
{ACAD_REACTORS
330
7DE1B343D9DFF62
102
}
330
7DE1B343D9DFF62
100
AcDbXrecord
 70
     0
  0
XRECORD
  5
7DE1B343D9DFF66
102
{ACAD_REACTORS
330
7DE1B343D9DFF62
102
}
330
7DE1B343D9DFF62
100
AcDbXrecord
  1

  0
XRECORD
  5
7DE1B343D9DFF63
102
{ACAD_REACTORS
330
7DE1B343D9DFF62
102
}
330
7DE1B343D9DFF62
100
AcDbXrecord
 90
        1
  0
XRECORD
  5
7DE1B343D9DFF64
102
{ACAD_REACTORS
330
7DE1B343D9DFF62
102
}
330
7DE1B343D9DFF62
100
AcDbXrecord
 90
       70
  0
XRECORD
  5
7DE1B343D9DFF7B
102
{ACAD_REACTORS
330
7DE1B343D9DFF62
102
}
330
7DE1B343D9DFF62
100
AcDbXrecord
340
0
  0
XRECORD
  5
7DE1B343D9DFF81
102
{ACAD_REACTORS
330
7DE1B343D9DFF62
102
}
330
7DE1B343D9DFF62
100
AcDbXrecord
 10
0.0
 20
0.0
 30
0.0
  0
XRECORD
  5
7DE1B343D9DFF7D
102
{ACAD_REACTORS
330
7DE1B343D9DFF62
102
}
330
7DE1B343D9DFF62
100
AcDbXrecord
 10
0.0
 20
0.0
 30
0.0
  0
XRECORD
  5
7DE1B343D9DFF80
102
{ACAD_REACTORS
330
7DE1B343D9DFF62
102
}
330
7DE1B343D9DFF62
100
AcDbXrecord
 10
0.0
 20
0.0
 30
0.0
  0
XRECORD
  5
7DE1B343D9DFF7E
102
{ACAD_REACTORS
330
7DE1B343D9DFF62
102
}
330
7DE1B343D9DFF62
100
AcDbXrecord
 10
0.0
 20
0.0
 30
0.0
  0
XRECORD
  5
7DE1B343D9DFF7F
102
{ACAD_REACTORS
330
7DE1B343D9DFF62
102
}
330
7DE1B343D9DFF62
100
AcDbXrecord
 10
0.0
 20
0.0
 30
0.0
  0
XRECORD
  5
7DE1B343D9DFF7C
102
{ACAD_REACTORS
330
7DE1B343D9DFF62
102
}
330
7DE1B343D9DFF62
100
AcDbXrecord
 10
0.0
 20
0.0
 30
0.0
  0
XRECORD
  5
7DE1B343D9DFF79
102
{ACAD_REACTORS
330
7DE1B343D9DFF62
102
}
330
7DE1B343D9DFF62
100
AcDbXrecord
340
0
  0
XRECORD
  5
7DE1B343D9DFF7A
102
{ACAD_REACTORS
330
7DE1B343D9DFF62
102
}
330
7DE1B343D9DFF62
100
AcDbXrecord
 70
     0
  0
XRECORD
  5
7DE1B343D9DFF6E
102
{ACAD_REACTORS
330
7DE1B343D9DFF62
102
}
330
7DE1B343D9DFF62
100
AcDbXrecord
  1
{9925A292-8DB9-11D6-88E6-0090279574E7}
  0
DICTIONARYVAR
  5
7DE1B343D9DFF60
102
{ACAD_REACTORS
330
7DE1B343D9DFF5F
102
}
330
7DE1B343D9DFF5F
100
DictionaryVariables
280
     0
  1
1
  0
ENDSEC
  0
EOF
