  0
SECTION
  2
HEADER
  9
$ACADVER
  1
AC1014
  9
$ACADMAINTVER
 70
     9
  9
$DWGCODEPAGE
  3
ANSI_1252
  9
$INSBASE
 10
1.637195122905257
 20
1.495941568502545
 30
0.0
  9
$EXTMIN
 10
-0.0740600850464453
 20
0.3597379172417128
 30
0.0
  9
$EXTMAX
 10
3.411159236700682
 20
1.756526228723711
 30
0.0
  9
$LIMMIN
 10
0.0
 20
0.0
  9
$LIMMAX
 10
18.0
 20
12.0
  9
$ORTHOMODE
 70
     1
  9
$REGENMODE
 70
     1
  9
$FILLMODE
 70
     1
  9
$QTEXTMODE
 70
     0
  9
$MIRRTEXT
 70
     0
  9
$DRAGMODE
 70
     2
  9
$LTSCALE
 40
1.0
  9
$OSMODE
 70
    39
  9
$ATTMODE
 70
     1
  9
$TEXTSIZE
 40
0.125
  9
$TRACEWID
 40
0.05
  9
$TEXTSTYLE
  7
ROMANS
  9
$CLAYER
  8
0
  9
$CELTYPE
  6
BYLAYER
  9
$CECOLOR
 62
   256
  9
$CELTSCALE
 40
1.0
  9
$DELOBJ
 70
     1
  9
$DISPSILH
 70
     1
  9
$DIMSCALE
 40
1.0
  9
$DIMASZ
 40
0.125
  9
$DIMEXO
 40
0.125
  9
$DIMDLI
 40
0.375
  9
$DIMRND
 40
0.0
  9
$DIMDLE
 40
0.0
  9
$DIMEXE
 40
0.125
  9
$DIMTP
 40
0.0
  9
$DIMTM
 40
0.0
  9
$DIMTXT
 40
0.125
  9
$DIMCEN
 40
-0.125
  9
$DIMTSZ
 40
0.0
  9
$DIMTOL
 70
     0
  9
$DIMLIM
 70
     0
  9
$DIMTIH
 70
     1
  9
$DIMTOH
 70
     1
  9
$DIMSE1
 70
     0
  9
$DIMSE2
 70
     0
  9
$DIMTAD
 70
     0
  9
$DIMZIN
 70
     4
  9
$DIMBLK
  1

  9
$DIMASO
 70
     1
  9
$DIMSHO
 70
     1
  9
$DIMPOST
  1

  9
$DIMAPOST
  1

  9
$DIMALT
 70
     0
  9
$DIMALTD
 70
     2
  9
$DIMALTF
 40
25.4
  9
$DIMLFAC
 40
1.0
  9
$DIMTOFL
 70
     0
  9
$DIMTVP
 40
0.0
  9
$DIMTIX
 70
     1
  9
$DIMSOXD
 70
     0
  9
$DIMSAH
 70
     0
  9
$DIMBLK1
  1

  9
$DIMBLK2
  1

  9
$DIMSTYLE
  2
STANDARD
  9
$DIMCLRD
 70
     0
  9
$DIMCLRE
 70
     0
  9
$DIMCLRT
 70
     0
  9
$DIMTFAC
 40
1.0
  9
$DIMGAP
 40
0.09
  9
$DIMJUST
 70
     0
  9
$DIMSD1
 70
     0
  9
$DIMSD2
 70
     0
  9
$DIMTOLJ
 70
     1
  9
$DIMTZIN
 70
     4
  9
$DIMALTZ
 70
     0
  9
$DIMALTTZ
 70
     0
  9
$DIMFIT
 70
     3
  9
$DIMUPT
 70
     0
  9
$DIMUNIT
 70
     2
  9
$DIMDEC
 70
     3
  9
$DIMTDEC
 70
     3
  9
$DIMALTU
 70
     2
  9
$DIMALTTD
 70
     2
  9
$DIMTXSTY
  7
ROMANS
  9
$DIMAUNIT
 70
     0
  9
$LUNITS
 70
     2
  9
$LUPREC
 70
     3
  9
$SKETCHINC
 40
0.1
  9
$FILLETRAD
 40
0.03125
  9
$AUNITS
 70
     0
  9
$AUPREC
 70
     0
  9
$MENU
  1
ACAD
  9
$ELEVATION
 40
0.0
  9
$PELEVATION
 40
0.0
  9
$THICKNESS
 40
0.0
  9
$LIMCHECK
 70
     0
  9
$BLIPMODE
 70
     0
  9
$CHAMFERA
 40
0.0
  9
$CHAMFERB
 40
0.0
  9
$CHAMFERC
 40
0.0
  9
$CHAMFERD
 40
0.0
  9
$SKPOLY
 70
     0
  9
$TDCREATE
 40
2448994.687944328
  9
$TDUPDATE
 40
2452458.323120150
  9
$TDINDWG
 40
0.0007289236
  9
$TDUSRTIMER
 40
0.0007289236
  9
$USRTIMER
 70
     1
  9
$ANGBASE
 50
0.0
  9
$ANGDIR
 70
     0
  9
$PDMODE
 70
     0
  9
$PDSIZE
 40
0.0
  9
$PLINEWID
 40
0.0
  9
$COORDS
 70
     2
  9
$SPLFRAME
 70
     0
  9
$SPLINETYPE
 70
     6
  9
$SPLINESEGS
 70
     8
  9
$ATTDIA
 70
     0
  9
$ATTREQ
 70
     1
  9
$HANDLING
 70
 22529
  9
$HANDSEED
  5
7DE1B343D9E3D9D
  9
$SURFTAB1
 70
     6
  9
$SURFTAB2
 70
     6
  9
$SURFTYPE
 70
     6
  9
$SURFU
 70
     6
  9
$SURFV
 70
     6
  9
$UCSNAME
  2

  9
$UCSORG
 10
0.0
 20
0.0
 30
0.0
  9
$UCSXDIR
 10
1.0
 20
0.0
 30
0.0
  9
$UCSYDIR
 10
0.0
 20
1.0
 30
0.0
  9
$PUCSNAME
  2

  9
$PUCSORG
 10
0.0
 20
0.0
 30
0.0
  9
$PUCSXDIR
 10
1.0
 20
0.0
 30
0.0
  9
$PUCSYDIR
 10
0.0
 20
1.0
 30
0.0
  9
$USERI1
 70
     0
  9
$USERI2
 70
     0
  9
$USERI3
 70
     0
  9
$USERI4
 70
     0
  9
$USERI5
 70
     0
  9
$USERR1
 40
0.0
  9
$USERR2
 40
0.0
  9
$USERR3
 40
0.0
  9
$USERR4
 40
0.0
  9
$USERR5
 40
0.0
  9
$WORLDVIEW
 70
     1
  9
$SHADEDGE
 70
     3
  9
$SHADEDIF
 70
    70
  9
$TILEMODE
 70
     1
  9
$MAXACTVP
 70
    16
  9
$PINSBASE
 10
0.5148963809644677
 20
50.00000000000001
 30
0.6371951210766829
  9
$PLIMCHECK
 70
     0
  9
$PEXTMIN
 10
1.000000000000000E+20
 20
1.000000000000000E+20
 30
1.000000000000000E+20
  9
$PEXTMAX
 10
-1.000000000000000E+20
 20
-1.000000000000000E+20
 30
-1.000000000000000E+20
  9
$PLIMMIN
 10
0.0
 20
0.0
  9
$PLIMMAX
 10
12.0
 20
9.0
  9
$UNITMODE
 70
     0
  9
$VISRETAIN
 70
     0
  9
$PLINEGEN
 70
     1
  9
$PSLTSCALE
 70
     0
  9
$TREEDEPTH
 70
  3020
  9
$PICKSTYLE
 70
     1
  9
$CMLSTYLE
  2
STANDARD
  9
$CMLJUST
 70
     0
  9
$CMLSCALE
 40
1.0
  9
$PROXYGRAPHICS
 70
     1
  9
$MEASUREMENT
 70
     0
  0
ENDSEC
  0
SECTION
  2
CLASSES
  0
CLASS
  1
LWPOLYLINE
  2
AcDbPolyline
  3
AutoCAD 2000
 90
        0
280
     0
281
     1
  0
CLASS
  1
ACDBDICTIONARYWDFLT
  2
AcDbDictionaryWithDefault
  3
AutoCAD 2000
 90
        0
280
     0
281
     0
  0
CLASS
  1
ACDBPLACEHOLDER
  2
AcDbPlaceHolder
  3
AutoCAD 2000
 90
        0
280
     0
281
     0
  0
CLASS
  1
LAYOUT
  2
AcDbLayout
  3
AutoCAD 2000
 90
        0
280
     0
281
     0
  0
CLASS
  1
DICTIONARYVAR
  2
AcDbDictionaryVar
  3
AutoCAD 2000
 90
        0
280
     0
281
     0
  0
CLASS
  1
LONG_TRANSACTION
  2
AcDbLongTransaction
  3
AutoCAD 2000
 90
        0
280
     0
281
     0
  0
CLASS
  1
LWPOLYLINE
  2
AcDbPolyline
  3
AutoCAD 2000
 90
        0
280
     0
281
     1
  0
CLASS
  1
HATCH
  2
AcDbHatch
  3
AutoCAD 2000
 90
        0
280
     0
281
     1
  0
CLASS
  1
XRECORD
  2
AcDbXrecord
  3
AutoCAD 2000
 90
        0
280
     0
281
     0
  0
ENDSEC
  0
SECTION
  2
TABLES
  0
TABLE
  2
VPORT
  5
7DE1B343D9E3D3E
330
0
100
AcDbSymbolTable
 70
     2
  0
VPORT
  5
7DE1B343D9E3D78
330
7DE1B343D9E3D3E
100
AcDbSymbolTableRecord
100
AcDbViewportTableRecord
  2
*ACTIVE
 70
     0
 10
0.0
 20
0.0
 11
1.0
 21
1.0
 12
4.645463773918879
 22
1.057983420623912
 13
0.0
 23
0.0
 14
0.015625
 24
0.015625
 15
0.0
 25
0.0
 16
0.0
 26
0.0
 36
1.0
 17
0.0
 27
0.0
 37
0.0
 40
2.283081387849065
 41
4.320930232558139
 42
50.0
 43
0.0
 44
0.0
 50
0.0
 51
0.0
 71
     0
 72
  2000
 73
     1
 74
     0
 75
     0
 76
     0
 77
     0
 78
     0
  0
ENDTAB
  0
TABLE
  2
LTYPE
  5
7DE1B343D9E3D3B
330
0
100
AcDbSymbolTable
 70
     1
  0
LTYPE
  5
7DE1B343D9E3D48
330
7DE1B343D9E3D3B
100
AcDbSymbolTableRecord
100
AcDbLinetypeTableRecord
  2
BYBLOCK
 70
     0
  3

 72
    65
 73
     0
 40
0.0
  0
LTYPE
  5
7DE1B343D9E3D49
330
7DE1B343D9E3D3B
100
AcDbSymbolTableRecord
100
AcDbLinetypeTableRecord
  2
BYLAYER
 70
     0
  3

 72
    65
 73
     0
 40
0.0
  0
LTYPE
  5
7DE1B343D9E3D4A
330
7DE1B343D9E3D3B
100
AcDbSymbolTableRecord
100
AcDbLinetypeTableRecord
  2
CONTINUOUS
 70
     0
  3
Solid line
 72
    65
 73
     0
 40
0.0
  0
ENDTAB
  0
TABLE
  2
LAYER
  5
7DE1B343D9E3D38
330
0
100
AcDbSymbolTable
 70
     2
  0
LAYER
  5
7DE1B343D9E3D45
330
7DE1B343D9E3D38
100
AcDbSymbolTableRecord
100
AcDbLayerTableRecord
  2
0
 70
     0
 62
     7
  6
CONTINUOUS
  0
LAYER
  5
7DE1B343D9E3D55
330
7DE1B343D9E3D38
100
AcDbSymbolTableRecord
100
AcDbLayerTableRecord
  2
TEXT
 70
     0
 62
     3
  6
CONTINUOUS
  0
ENDTAB
  0
TABLE
  2
STYLE
  5
7DE1B343D9E3D39
330
0
100
AcDbSymbolTable
 70
     3
  0
STYLE
  5
7DE1B343D9E3D46
330
7DE1B343D9E3D39
100
AcDbSymbolTableRecord
100
AcDbTextStyleTableRecord
  2
STANDARD
 70
     0
 40
0.0
 41
1.0
 50
0.0
 71
     0
 42
0.3125
  3
txt
  4

  0
STYLE
  5
7DE1B343D9E3D52
330
7DE1B343D9E3D39
100
AcDbSymbolTableRecord
100
AcDbTextStyleTableRecord
  2
ITALICC
 70
     0
 40
0.0
 41
1.0
 50
0.0
 71
     0
 42
0.125
  3
italicc
  4

  0
STYLE
  5
7DE1B343D9E3D62
330
7DE1B343D9E3D39
100
AcDbSymbolTableRecord
100
AcDbTextStyleTableRecord
  2
ROMANS
 70
     0
 40
0.0
 41
1.0
 50
0.0
 71
     0
 42
0.125
  3
romans.shx
  4

  0
ENDTAB
  0
TABLE
  2
VIEW
  5
7DE1B343D9E3D3C
330
0
100
AcDbSymbolTable
 70
     0
  0
ENDTAB
  0
TABLE
  2
UCS
  5
7DE1B343D9E3D3D
330
0
100
AcDbSymbolTable
 70
     0
  0
ENDTAB
  0
TABLE
  2
APPID
  5
7DE1B343D9E3D3F
330
0
100
AcDbSymbolTable
 70
     1
  0
APPID
  5
7DE1B343D9E3D47
330
7DE1B343D9E3D3F
100
AcDbSymbolTableRecord
100
AcDbRegAppTableRecord
  2
ACAD
 70
     0
  0
ENDTAB
  0
TABLE
  2
DIMSTYLE
  5
7DE1B343D9E3D40
330
0
100
AcDbSymbolTable
 70
     1
  0
DIMSTYLE
105
7DE1B343D9E3D5A
330
7DE1B343D9E3D40
100
AcDbSymbolTableRecord
100
AcDbDimStyleTableRecord
  2
STANDARD
 70
     0
  3

  4

  5

  6

  7

 40
1.0
 41
0.125
 42
0.125
 43
0.375
 44
0.125
 45
0.0
 46
0.0
 47
0.0
 48
0.0
140
0.125
141
-0.125
142
0.0
143
25.4
144
1.0
145
0.0
146
1.0
147
0.09
 71
     0
 72
     0
 73
     1
 74
     1
 75
     0
 76
     0
 77
     0
 78
     4
170
     0
171
     2
172
     0
173
     0
174
     1
175
     0
176
     0
177
     0
178
     0
270
     2
271
     3
272
     3
273
     2
274
     2
340
7DE1B343D9E3D62
275
     0
280
     0
281
     0
282
     0
283
     1
284
     4
285
     0
286
     0
287
     3
288
     0
  0
ENDTAB
  0
TABLE
  2
BLOCK_RECORD
  5
7DE1B343D9E3D37
330
0
100
AcDbSymbolTable
 70
     0
  0
BLOCK_RECORD
  5
7DE1B343D9E3D4E
102
{ACAD_XDICTIONARY
360
7DE1B343D9E3D9B
102
}
330
7DE1B343D9E3D37
100
AcDbSymbolTableRecord
100
AcDbBlockTableRecord
  2
*MODEL_SPACE
  0
BLOCK_RECORD
  5
7DE1B343D9E3D4B
102
{ACAD_XDICTIONARY
360
7DE1B343D9E3D99
102
}
330
7DE1B343D9E3D37
100
AcDbSymbolTableRecord
100
AcDbBlockTableRecord
  2
*PAPER_SPACE
  0
ENDTAB
  0
ENDSEC
  0
SECTION
  2
BLOCKS
  0
BLOCK
  5
7DE1B343D9E3D58
330
7DE1B343D9E3D4E
100
AcDbEntity
  8
0
100
AcDbBlockBegin
  2
*MODEL_SPACE
 70
     0
 10
0.0
 20
0.0
 30
0.0
  3
*MODEL_SPACE
  1

  0
ENDBLK
  5
7DE1B343D9E3D59
330
7DE1B343D9E3D4E
100
AcDbEntity
  8
0
100
AcDbBlockEnd
  0
BLOCK
  5
7DE1B343D9E3D56
330
7DE1B343D9E3D4B
100
AcDbEntity
 67
     1
  8
0
100
AcDbBlockBegin
  2
*PAPER_SPACE
 70
     0
 10
0.0
 20
0.0
 30
0.0
  3
*PAPER_SPACE
  1

  0
ENDBLK
  5
7DE1B343D9E3D57
330
7DE1B343D9E3D4B
100
AcDbEntity
 67
     1
  8
0
100
AcDbBlockEnd
  0
ENDSEC
  0
SECTION
  2
ENTITIES
  0
LWPOLYLINE
  5
7DE1B343D9E27E0
330
7DE1B343D9E3D4E
100
AcDbEntity
  8
0
100
AcDbPolyline
 90
       10
 70
     1
 43
0.0
 10
1.797827744180698
 20
1.703179141811632
 42
1.0
 10
1.797827744180698
 20
1.750054141811632
 10
1.540015244180698
 20
1.750054141811632
 42
0.4142135623730951
 10
1.508765244180698
 20
1.718804141811632
 10
1.508765244180698
 20
1.148491641811631
 42
1.0
 10
1.555640244180698
 20
1.148491641811631
 10
1.555640244180698
 20
1.427554141811632
 10
1.545640244180698
 20
1.437554141811632
 10
1.555640244180698
 20
1.447554141811631
 10
1.555640244180698
 20
1.703179141811632
  0
TEXT
  5
7DE1B343D9E3BF9
330
7DE1B343D9E3D4E
100
AcDbEntity
  8
TEXT
100
AcDbText
 10
0.9159453037045073
 20
0.8177565213242942
 30
0.0
 40
0.125
  1
PART #120059
  7
ITALICC
 72
     1
 11
1.668921494180698
 21
0.8177565213242942
 31
0.0
100
AcDbText
  0
TEXT
  5
7DE1B343D9E3BFA
330
7DE1B343D9E3D4E
100
AcDbEntity
  8
TEXT
100
AcDbText
 10
2.082226652431018
 20
0.3708338786519192
 30
0.0
 40
0.0522247191011236
  1
Phone  1-800-328-2495
 41
1.272321428571429
 72
     5
 11
3.411159236700682
 21
0.3708338786519192
 31
0.0
100
AcDbText
  0
TEXT
  5
7DE1B343D9E3BFB
330
7DE1B343D9E3D4E
100
AcDbEntity
  8
TEXT
100
AcDbText
 10
2.082226652431018
 20
0.6506091595507958
 30
0.0
 40
0.0522247191011236
  1
Stylmark  Incorporated
 41
1.221428571428571
 72
     5
 11
3.411159236700682
 21
0.6506091595507958
 31
0.0
100
AcDbText
  0
TEXT
  5
7DE1B343D9E3BFC
330
7DE1B343D9E3D4E
100
AcDbEntity
  8
TEXT
100
AcDbText
 10
2.082226652431018
 20
0.5573507325845036
 30
0.0
 40
0.0522247191011236
  1
6536 Main St. N.E. * P.O. Box 32008
 41
0.8388932496075355
 72
     5
 11
3.411159236700682
 21
0.5573507325845036
 31
0.0
100
AcDbText
  0
TEXT
  5
7DE1B343D9E3BFD
330
7DE1B343D9E3D4E
100
AcDbEntity
  8
TEXT
100
AcDbText
 10
2.082226652431018
 20
0.4640923056182114
 30
0.0
 40
0.0522247191011236
  1
Minneapolis, MN 55432-0008
 41
1.11444212721585
 72
     5
 11
3.411159236700682
 21
0.4640923056182114
 31
0.0
100
AcDbText
  0
LWPOLYLINE
  5
7DE1B343D9E3BFE
330
7DE1B343D9E3D4E
100
AcDbEntity
  8
TEXT
100
AcDbPolyline
 90
        3
 70
     0
 43
0.0006660908203125
 10
-0.073727039636289
 20
0.4844786412893541
 10
-0.073727039636289
 20
0.3712432018362264
 10
0.0395083998168333
 20
0.3712432018362264
  0
LWPOLYLINE
  5
7DE1B343D9E3C03
330
7DE1B343D9E3D4E
100
AcDbEntity
  8
TEXT
100
AcDbPolyline
 90
        3
 70
     0
 43
0.0006660908203125
 10
-0.0470834068237915
 20
0.4844786412893541
 10
-0.0470834068237915
 20
0.3978868346487274
 10
0.0395083998168333
 20
0.3978868346487274
  0
LWPOLYLINE
  5
7DE1B343D9E3C08
330
7DE1B343D9E3D4E
100
AcDbEntity
  8
TEXT
100
AcDbPolyline
 90
        2
 70
     0
 43
0.0001332181640625
 10
-0.0004570494019147
 20
0.4944700035940393
 10
-0.073727039636289
 20
0.4844786412893541
  0
LWPOLYLINE
  5
7DE1B343D9E3C0C
330
7DE1B343D9E3D4E
100
AcDbEntity
  8
TEXT
100
AcDbPolyline
 90
        2
 70
     0
 43
0.0001332181640625
 10
-0.0470834068237915
 20
0.4844786412893541
 10
0.0128647670043358
 20
0.4944700035940393
  0
LWPOLYLINE
  5
7DE1B343D9E3C10
330
7DE1B343D9E3D4E
100
AcDbEntity
  8
TEXT
100
AcDbPolyline
 90
        2
 70
     0
 43
0.0001332181640625
 10
-0.0470834068237915
 20
0.3978868346487274
 10
0.0128647670043358
 20
0.4578350084768531
  0
LWPOLYLINE
  5
7DE1B343D9E3C14
330
7DE1B343D9E3D4E
100
AcDbEntity
  8
TEXT
100
AcDbPolyline
 90
        3
 70
     0
 43
0.0006660908203125
 10
0.0395083998168333
 20
0.6376795299612298
 10
-0.073727039636289
 20
0.6376795299612298
 10
-0.073727039636289
 20
0.5244440905081021
  0
LWPOLYLINE
  5
7DE1B343D9E3C19
330
7DE1B343D9E3D4E
100
AcDbEntity
  8
TEXT
100
AcDbPolyline
 90
        3
 70
     0
 43
0.0006660908203125
 10
0.0395083998168333
 20
0.6110358971487287
 10
-0.0470834068237915
 20
0.6110358971487287
 10
-0.0470834068237915
 20
0.5244440905081021
  0
LWPOLYLINE
  5
7DE1B343D9E3C1E
330
7DE1B343D9E3D4E
100
AcDbEntity
  8
TEXT
100
AcDbPolyline
 90
        2
 70
     0
 43
0.0001332181640625
 10
-0.0470834068237915
 20
0.6110358971487287
 10
0.012864767004334
 20
0.5510877233206032
  0
LWPOLYLINE
  5
7DE1B343D9E3C22
330
7DE1B343D9E3D4E
100
AcDbEntity
  8
TEXT
100
AcDbPolyline
 90
        2
 70
     0
 43
0.0001332181640625
 10
-0.0470834068237915
 20
0.5244440905081021
 10
0.012864767004334
 20
0.5144527282034133
  0
LWPOLYLINE
  5
7DE1B343D9E3C26
330
7DE1B343D9E3D4E
100
AcDbEntity
  8
TEXT
100
AcDbPolyline
 90
        2
 70
     0
 43
0.0001332181640625
 10
-0.073727039636289
 20
0.5244440905081021
 10
-0.0004570494019147
 20
0.5144527282034133
  0
LWPOLYLINE
  5
7DE1B343D9E3C2A
330
7DE1B343D9E3D4E
100
AcDbEntity
  8
TEXT
100
AcDbPolyline
 90
        2
 70
     0
 43
0.0006660908203125
 10
-0.0470834068237915
 20
0.4844786412893541
 10
-0.073727039636289
 20
0.4844786412893541
  0
LWPOLYLINE
  5
7DE1B343D9E3C2E
330
7DE1B343D9E3D4E
100
AcDbEntity
  8
TEXT
100
AcDbPolyline
 90
        2
 70
     0
 43
0.0006660908203125
 10
-0.0470834068237915
 20
0.5244440905081021
 10
-0.073727039636289
 20
0.5244440905081021
  0
LINE
  5
7DE1B343D9E3C32
330
7DE1B343D9E3D4E
100
AcDbEntity
  8
TEXT
100
AcDbLine
 10
1.441463389490208
 20
0.5734028353044608
 30
0.0
 11
1.334257116102919
 21
0.5734028353044608
 31
0.0
  0
LINE
  5
7DE1B343D9E3C33
330
7DE1B343D9E3D4E
100
AcDbEntity
  8
TEXT
100
AcDbLine
 10
1.470494287834686
 20
0.6376795299612262
 30
0.0
 11
1.335662378617627
 21
0.6376795299612262
 31
0.0
  0
ARC
  5
7DE1B343D9E3C34
330
7DE1B343D9E3D4E
100
AcDbEntity
  8
TEXT
100
AcDbCircle
 10
1.394976475010944
 20
0.4684422806982099
 30
0.0
 40
0.0676855811441166
100
AcDbArc
 50
90.0
 51
153.7768192527749
  0
LWPOLYLINE
  5
7DE1B343D9E3C35
330
7DE1B343D9E3D4E
100
AcDbEntity
  8
TEXT
100
AcDbPolyline
 90
        2
 70
     0
 43
0.0
 10
1.333224620648109
 20
0.4146974419231534
 42
0.2901071551932823
 10
1.376300553515744
 20
0.3712064969727151
 42
5.328517124445801
  0
ARC
  5
7DE1B343D9E3C39
330
7DE1B343D9E3D4E
100
AcDbEntity
  8
TEXT
100
AcDbCircle
 10
0.6898450973394591
 20
0.430998888310765
 30
0.0
 40
0.0601160179737537
100
AcDbArc
 50
180.0000000000003
 51
264.0521544866073
  0
LINE
  5
7DE1B343D9E3C3A
330
7DE1B343D9E3D4E
100
AcDbEntity
  8
TEXT
100
AcDbLine
 10
0.6933604529650069
 20
0.6720674475553644
 30
0.0
 11
0.6333178481209999
 21
0.6720674475553644
 31
0.0
  0
ARC
  5
7DE1B343D9E3C3B
330
7DE1B343D9E3D4E
100
AcDbEntity
  8
TEXT
100
AcDbCircle
 10
0.4575860952224885
 20
0.5555920705147245
 30
0.0
 40
0.0820874594465043
100
AcDbArc
 50
90.0
 51
270.0
  0
LWPOLYLINE
  5
7DE1B343D9E3C3C
330
7DE1B343D9E3D4E
100
AcDbEntity
  8
TEXT
100
AcDbPolyline
 90
        2
 70
     0
 43
0.0001332181640625
 10
0.0494997621215239
 20
0.5644095397268501
 10
0.0395083998168333
 20
0.6376795299612298
  0
LWPOLYLINE
  5
7DE1B343D9E3C40
330
7DE1B343D9E3D4E
100
AcDbEntity
  8
TEXT
100
AcDbPolyline
 90
        2
 70
     0
 43
0.0001332181640625
 10
0.0395083998168333
 20
0.6110358971487287
 10
0.0494997621215239
 20
0.5510877233206032
  0
LWPOLYLINE
  5
7DE1B343D9E3C44
330
7DE1B343D9E3D4E
100
AcDbEntity
  8
TEXT
100
AcDbPolyline
 90
        3
 70
     0
 43
0.0006660908203125
 10
0.1927092884887107
 20
0.5244440905081021
 10
0.1927092884887107
 20
0.6376795299612298
 10
0.0794738490355849
 20
0.6376795299612298
  0
LWPOLYLINE
  5
7DE1B343D9E3C49
330
7DE1B343D9E3D4E
100
AcDbEntity
  8
TEXT
100
AcDbPolyline
 90
        3
 70
     0
 43
0.0006660908203125
 10
0.1660656556762097
 20
0.5244440905081021
 10
0.1660656556762097
 20
0.6110358971487287
 10
0.0794738490355849
 20
0.6110358971487287
  0
LWPOLYLINE
  5
7DE1B343D9E3C4E
330
7DE1B343D9E3D4E
100
AcDbEntity
  8
TEXT
100
AcDbPolyline
 90
        2
 70
     0
 43
0.0001332181640625
 10
0.1660656556762097
 20
0.6110358971487287
 10
0.1061174818480859
 20
0.5510877233206032
  0
LWPOLYLINE
  5
7DE1B343D9E3C52
330
7DE1B343D9E3D4E
100
AcDbEntity
  8
TEXT
100
AcDbPolyline
 90
        2
 70
     0
 43
0.0001332181640625
 10
0.0794738490355849
 20
0.6110358971487287
 10
0.0694824867308961
 20
0.5510877233206032
  0
LWPOLYLINE
  5
7DE1B343D9E3C56
330
7DE1B343D9E3D4E
100
AcDbEntity
  8
TEXT
100
AcDbPolyline
 90
        2
 70
     0
 43
0.0001332181640625
 10
0.0794738490355849
 20
0.6376795299612298
 10
0.0694824867308961
 20
0.5644095397268501
  0
LWPOLYLINE
  5
7DE1B343D9E3C5A
330
7DE1B343D9E3D4E
100
AcDbEntity
  8
TEXT
100
AcDbPolyline
 90
        2
 70
     0
 43
0.0001332181640625
 10
0.1194392982543346
 20
0.5144527282034133
 10
0.1927092884887107
 20
0.5244440905081021
  0
LWPOLYLINE
  5
7DE1B343D9E3C5E
330
7DE1B343D9E3D4E
100
AcDbEntity
  8
TEXT
100
AcDbPolyline
 90
        2
 70
     0
 43
0.0001332181640625
 10
0.1660656556762097
 20
0.5244440905081021
 10
0.1061174818480859
 20
0.5144527282034133
  0
LWPOLYLINE
  5
7DE1B343D9E3C62
330
7DE1B343D9E3D4E
100
AcDbEntity
  8
TEXT
100
AcDbPolyline
 90
        2
 70
     0
 43
0.0001332181640625
 10
0.1927092884887107
 20
0.4844786412893541
 10
0.1194392982543346
 20
0.4944700035940393
  0
LWPOLYLINE
  5
7DE1B343D9E3C66
330
7DE1B343D9E3D4E
100
AcDbEntity
  8
TEXT
100
AcDbPolyline
 90
        2
 70
     0
 43
0.0001332181640625
 10
0.1660656556762097
 20
0.4844786412893541
 10
0.1061174818480859
 20
0.4944700035940393
  0
LWPOLYLINE
  5
7DE1B343D9E3C6A
330
7DE1B343D9E3D4E
100
AcDbEntity
  8
TEXT
100
AcDbPolyline
 90
        2
 70
     0
 43
0.0001332181640625
 10
0.1660656556762097
 20
0.3978868346487274
 10
0.1061174818480859
 20
0.4578350084768531
  0
LWPOLYLINE
  5
7DE1B343D9E3C6E
330
7DE1B343D9E3D4E
100
AcDbEntity
  8
TEXT
100
AcDbPolyline
 90
        3
 70
     0
 43
0.0006660908203125
 10
0.0794738490355849
 20
0.3978868346487274
 10
0.1660656556762097
 20
0.3978868346487274
 10
0.1660656556762097
 20
0.4844786412893541
  0
LWPOLYLINE
  5
7DE1B343D9E3C73
330
7DE1B343D9E3D4E
100
AcDbEntity
  8
TEXT
100
AcDbPolyline
 90
        3
 70
     0
 43
0.0006660908203125
 10
0.0794738490355849
 20
0.3712432018362264
 10
0.1927092884887107
 20
0.3712432018362264
 10
0.1927092884887107
 20
0.4844786412893541
  0
LWPOLYLINE
  5
7DE1B343D9E3C78
330
7DE1B343D9E3D4E
100
AcDbEntity
  8
TEXT
100
AcDbPolyline
 90
        5
 70
     0
 43
0.0001332181640625
 10
0.0494997621215239
 20
0.4445131920706026
 10
0.0494997621215239
 20
0.4578350084768531
 10
0.0128647670043358
 20
0.4578350084768531
 10
0.0128647670043358
 20
0.4944700035940393
 10
-0.0004570494019147
 20
0.4944700035940393
  0
LWPOLYLINE
  5
7DE1B343D9E3C7F
330
7DE1B343D9E3D4E
100
AcDbEntity
  8
TEXT
100
AcDbPolyline
 90
        2
 70
     0
 43
0.0006660908203125
 10
0.0395083998168333
 20
0.3978868346487274
 10
0.0395083998168333
 20
0.3712432018362264
  0
LWPOLYLINE
  5
7DE1B343D9E3C83
330
7DE1B343D9E3D4E
100
AcDbEntity
  8
TEXT
100
AcDbPolyline
 90
        2
 70
     0
 43
0.0001332181640625
 10
0.0395083998168333
 20
0.3978868346487274
 10
0.0494997621215239
 20
0.4578350084768531
  0
LWPOLYLINE
  5
7DE1B343D9E3C87
330
7DE1B343D9E3D4E
100
AcDbEntity
  8
TEXT
100
AcDbPolyline
 90
        2
 70
     0
 43
0.0001332181640625
 10
0.0395083998168333
 20
0.3712432018362264
 10
0.0494997621215239
 20
0.4445131920706026
  0
LWPOLYLINE
  5
7DE1B343D9E3C8B
330
7DE1B343D9E3D4E
100
AcDbEntity
  8
TEXT
100
AcDbPolyline
 90
        5
 70
     0
 43
0.0001332181640625
 10
-0.0004570494019147
 20
0.5144527282034133
 10
0.012864767004334
 20
0.5144527282034133
 10
0.012864767004334
 20
0.5510877233206032
 10
0.0494997621215239
 20
0.5510877233206032
 10
0.0494997621215239
 20
0.5644095397268501
  0
LWPOLYLINE
  5
7DE1B343D9E3C92
330
7DE1B343D9E3D4E
100
AcDbEntity
  8
TEXT
100
AcDbPolyline
 90
        5
 70
     0
 43
0.0001332181640625
 10
0.0694824867308961
 20
0.5644095397268501
 10
0.0694824867308961
 20
0.5510877233206032
 10
0.1061174818480859
 20
0.5510877233206032
 10
0.1061174818480859
 20
0.5144527282034133
 10
0.1194392982543346
 20
0.5144527282034133
  0
LWPOLYLINE
  5
7DE1B343D9E3C99
330
7DE1B343D9E3D4E
100
AcDbEntity
  8
TEXT
100
AcDbPolyline
 90
        2
 70
     0
 43
0.0001332181640625
 10
0.0794738490355849
 20
0.3978868346487274
 10
0.0694824867308961
 20
0.4578350084768531
  0
LWPOLYLINE
  5
7DE1B343D9E3C9D
330
7DE1B343D9E3D4E
100
AcDbEntity
  8
TEXT
100
AcDbPolyline
 90
        2
 70
     0
 43
0.0001332181640625
 10
0.0694824867308961
 20
0.4445131920706026
 10
0.0794738490355849
 20
0.3712432018362264
  0
LWPOLYLINE
  5
7DE1B343D9E3CA1
330
7DE1B343D9E3D4E
100
AcDbEntity
  8
TEXT
100
AcDbPolyline
 90
        2
 70
     0
 43
0.0006660908203125
 10
0.0794738490355849
 20
0.3978868346487274
 10
0.0794738490355849
 20
0.3712432018362264
  0
LWPOLYLINE
  5
7DE1B343D9E3CA5
330
7DE1B343D9E3D4E
100
AcDbEntity
  8
TEXT
100
AcDbPolyline
 90
        5
 70
     0
 43
0.0001332181640625
 10
0.1194392982543346
 20
0.4944700035940393
 10
0.1061174818480859
 20
0.4944700035940393
 10
0.1061174818480859
 20
0.4578350084768531
 10
0.0694824867308961
 20
0.4578350084768531
 10
0.0694824867308961
 20
0.4445131920706026
  0
LWPOLYLINE
  5
7DE1B343D9E3CAC
330
7DE1B343D9E3D4E
100
AcDbEntity
  8
TEXT
100
AcDbPolyline
 90
        2
 70
     0
 43
0.0006660908203125
 10
0.1660656556762097
 20
0.5244440905081021
 10
0.1927092884887107
 20
0.5244440905081021
  0
LWPOLYLINE
  5
7DE1B343D9E3CB0
330
7DE1B343D9E3D4E
100
AcDbEntity
  8
TEXT
100
AcDbPolyline
 90
        2
 70
     0
 43
0.0006660908203125
 10
0.1660656556762097
 20
0.4844786412893541
 10
0.1927092884887107
 20
0.4844786412893541
  0
LINE
  5
7DE1B343D9E3CB4
330
7DE1B343D9E3D4E
100
AcDbEntity
  8
TEXT
100
AcDbLine
 10
0.4628234253367357
 20
0.5734028353044608
 30
0.0
 11
0.629729079365707
 21
0.5734028353044608
 31
0.0
  0
LINE
  5
7DE1B343D9E3CB5
330
7DE1B343D9E3D4E
100
AcDbEntity
  8
TEXT
100
AcDbLine
 10
0.5284235615810367
 20
0.5375981136938329
 30
0.0
 11
0.4628234253367357
 21
0.5375981136938329
 31
0.0
  0
LINE
  5
7DE1B343D9E3CB6
330
7DE1B343D9E3D4E
100
AcDbEntity
  8
TEXT
100
AcDbLine
 10
0.375498635775984
 20
0.3712064969727151
 30
0.0
 11
0.5284235615810367
 21
0.3712064969727151
 31
0.0
  0
LINE
  5
7DE1B343D9E3CB7
330
7DE1B343D9E3D4E
100
AcDbEntity
  8
TEXT
100
AcDbLine
 10
0.5333639354873164
 20
0.4395635033061545
 30
0.0
 11
0.3754986357759822
 21
0.4395635033061545
 31
0.0
  0
LINE
  5
7DE1B343D9E3CB8
330
7DE1B343D9E3D4E
100
AcDbEntity
  8
TEXT
100
AcDbLine
 10
0.4575860952224876
 20
0.4735046110682191
 30
0.0
 11
0.5333639354873164
 21
0.4735046110682191
 31
0.0
  0
ARC
  5
7DE1B343D9E3CB9
330
7DE1B343D9E3D4E
100
AcDbEntity
  8
TEXT
100
AcDbCircle
 10
0.4628234253367366
 20
0.5555004744991486
 30
0.0
 40
0.017902360805315
100
AcDbArc
 50
90.0
 51
270.0
  0
LINE
  5
7DE1B343D9E3CBA
330
7DE1B343D9E3D4E
100
AcDbEntity
  8
TEXT
100
AcDbLine
 10
0.3754986357759822
 20
0.4395635033061545
 30
0.0
 11
0.375498635775984
 21
0.3712064969727151
 31
0.0
  0
LINE
  5
7DE1B343D9E3CBB
330
7DE1B343D9E3D4E
100
AcDbEntity
  8
TEXT
100
AcDbLine
 10
0.629729079365707
 20
0.5734028353044608
 30
0.0
 11
0.629729079365707
 21
0.430998888310765
 31
0.0
  0
ARC
  5
7DE1B343D9E3CBC
330
7DE1B343D9E3D4E
100
AcDbEntity
  8
TEXT
100
AcDbCircle
 10
0.5284235615810376
 20
0.4544023053332723
 30
0.0
 40
0.0831958083605586
100
AcDbArc
 50
270.0
 51
90.0
  0
ARC
  5
7DE1B343D9E3CBD
330
7DE1B343D9E3D4E
100
AcDbEntity
  8
TEXT
100
AcDbCircle
 10
0.5333639354873173
 20
0.4565340571871886
 30
0.0
 40
0.0169705538810321
100
AcDbArc
 50
270.0
 51
90.0
  0
LWPOLYLINE
  5
7DE1B343D9E3CBE
330
7DE1B343D9E3D4E
100
AcDbEntity
  8
TEXT
100
AcDbPolyline
 90
        2
 70
     0
 43
0.0006660908203125
 10
0.0395083998168333
 20
0.6110358971487287
 10
0.0395083998168333
 20
0.6376795299612298
  0
LWPOLYLINE
  5
7DE1B343D9E3CC2
330
7DE1B343D9E3D4E
100
AcDbEntity
  8
TEXT
100
AcDbPolyline
 90
        2
 70
     0
 43
0.0006660908203125
 10
0.0794738490355849
 20
0.6110358971487287
 10
0.0794738490355849
 20
0.6376795299612298
  0
LINE
  5
7DE1B343D9E3CC6
330
7DE1B343D9E3D4E
100
AcDbEntity
  8
TEXT
100
AcDbLine
 10
0.6333178481209999
 20
0.6376795299612262
 30
0.0
 11
0.4575860952224876
 21
0.6376795299612262
 31
0.0
  0
LINE
  5
7DE1B343D9E3CC7
330
7DE1B343D9E3D4E
100
AcDbEntity
  8
TEXT
100
AcDbLine
 10
0.6333178481209999
 20
0.6720674475553644
 30
0.0
 11
0.6333178481209999
 21
0.6376795299612262
 31
0.0
  0
LINE
  5
7DE1B343D9E3CC8
330
7DE1B343D9E3D4E
100
AcDbEntity
  8
TEXT
100
AcDbLine
 10
0.823789740140852
 20
0.5368075338481056
 30
0.0
 11
0.7651594191089142
 21
0.6376795299612262
 31
0.0
  0
LINE
  5
7DE1B343D9E3CC9
330
7DE1B343D9E3D4E
100
AcDbEntity
  8
TEXT
100
AcDbLine
 10
0.8825383029467175
 20
0.6376795299612262
 30
0.0
 11
0.823789740140852
 21
0.5368075338481056
 31
0.0
  0
LINE
  5
7DE1B343D9E3CCA
330
7DE1B343D9E3D4E
100
AcDbEntity
  8
TEXT
100
AcDbLine
 10
0.9794689283064588
 20
0.4535943350757144
 30
0.0
 11
0.9794689283064588
 21
0.7056910077000368
 31
0.0
  0
LINE
  5
7DE1B343D9E3CCB
330
7DE1B343D9E3D4E
100
AcDbEntity
  8
TEXT
100
AcDbLine
 10
1.011780782444118
 20
0.6376795299612262
 30
0.0
 11
1.011780782444118
 21
0.436815323228818
 31
0.0
  0
LINE
  5
7DE1B343D9E3CCC
330
7DE1B343D9E3D4E
100
AcDbEntity
  8
TEXT
100
AcDbLine
 10
1.011780782444118
 20
0.436815323228818
 30
0.0
 11
0.9947871455595176
 21
0.436815323228818
 31
0.0
  0
LINE
  5
7DE1B343D9E3CCD
330
7DE1B343D9E3D4E
100
AcDbEntity
  8
TEXT
100
AcDbLine
 10
0.9806085018026536
 20
0.3712064969727151
 30
0.0
 11
1.078611835502088
 21
0.3712064969727151
 31
0.0
  0
LINE
  5
7DE1B343D9E3CCE
330
7DE1B343D9E3D4E
100
AcDbEntity
  8
TEXT
100
AcDbLine
 10
0.8141895031438977
 20
0.3911650030777281
 30
0.0
 11
0.9114892092373423
 21
0.5555152140129963
 31
0.0
  0
ARC
  5
7DE1B343D9E3CCF
330
7DE1B343D9E3D4E
100
AcDbEntity
  8
TEXT
100
AcDbCircle
 10
0.7801459432316838
 20
0.410754219246411
 30
0.0
 40
0.0392772371940762
100
AcDbArc
 50
270.1604552698595
 51
330.0831797321295
  0
LINE
  5
7DE1B343D9E3CD0
330
7DE1B343D9E3D4E
100
AcDbEntity
  8
TEXT
100
AcDbLine
 10
0.6836156868458126
 20
0.3712064969727151
 30
0.0
 11
0.780255937920807
 21
0.3714771360709974
 31
0.0
  0
LWPOLYLINE
  5
7DE1B343D9E3CD1
330
7DE1B343D9E3D4E
100
AcDbEntity
  8
TEXT
100
AcDbPolyline
 90
        6
 70
     1
 43
0.0
 10
0.7261394904209622
 20
0.5734028353044608
 10
0.6958228962007541
 20
0.5734028353044608
 10
0.6958228962007541
 20
0.4502918372495664
 42
0.407328721240804
 10
0.7073665473622305
 20
0.4384729225731804
 10
0.7679882464069613
 20
0.4384729225731804
 10
0.7854535868142792
 20
0.4712851516166595
  0
LINE
  5
7DE1B343D9E3CD9
330
7DE1B343D9E3D4E
100
AcDbEntity
  8
TEXT
100
AcDbLine
 10
0.9114892092373423
 20
0.5555152140129963
 30
0.0
 11
0.9114892092373423
 21
0.42275783918764
 31
0.0
  0
ARC
  5
7DE1B343D9E3CDA
330
7DE1B343D9E3D4E
100
AcDbEntity
  8
TEXT
100
AcDbCircle
 10
0.9947871455595159
 20
0.4521971294722434
 30
0.0
 40
0.0153818062434269
100
AcDbArc
 50
174.7883570302258
 51
270.0
  0
LWPOLYLINE
  5
7DE1B343D9E3CDB
330
7DE1B343D9E3D4E
100
AcDbEntity
  8
TEXT
100
AcDbPolyline
 90
        2
 70
     0
 43
0.0
 10
0.9114892092373406
 20
0.4227578391876435
 42
0.3318488747599744
 10
0.9806085018026536
 20
0.3712064969727151
 42
-6.868794160588311
  0
LINE
  5
7DE1B343D9E3CDF
330
7DE1B343D9E3D4E
100
AcDbEntity
  8
TEXT
100
AcDbLine
 10
1.136000904491349
 20
0.3712064969727151
 30
0.0
 11
1.203058951273189
 21
0.3712064969727151
 31
0.0
  0
LINE
  5
7DE1B343D9E3CE0
330
7DE1B343D9E3D4E
100
AcDbEntity
  8
TEXT
100
AcDbLine
 10
1.136000904491349
 20
0.5658490461383508
 30
0.0
 11
1.136000904491349
 21
0.3712064969727151
 31
0.0
  0
LINE
  5
7DE1B343D9E3CE1
330
7DE1B343D9E3D4E
100
AcDbEntity
  8
TEXT
100
AcDbLine
 10
1.078611835502088
 20
0.5734028353044608
 30
0.0
 11
1.128447115325235
 21
0.5734028353044608
 31
0.0
  0
LINE
  5
7DE1B343D9E3CE2
330
7DE1B343D9E3D4E
100
AcDbEntity
  8
TEXT
100
AcDbLine
 10
1.078611835502088
 20
0.3712064969727151
 30
0.0
 11
1.078611835502088
 21
0.5734028353044608
 31
0.0
  0
LWPOLYLINE
  5
7DE1B343D9E3CE3
330
7DE1B343D9E3D4E
100
AcDbEntity
  8
TEXT
100
AcDbPolyline
 90
        2
 70
     0
 43
0.0
 10
1.128447115325234
 20
0.5734028353044608
 42
-0.4142135623731017
 10
1.136000904491347
 20
0.5658490461383508
 42
-0.9999999999999998
  0
LINE
  5
7DE1B343D9E3CE7
330
7DE1B343D9E3D4E
100
AcDbEntity
  8
TEXT
100
AcDbLine
 10
1.334257116102919
 20
0.5734028353044608
 30
0.0
 11
1.334257116102919
 21
0.4983504292302542
 31
0.0
  0
LINE
  5
7DE1B343D9E3CE8
330
7DE1B343D9E3D4E
100
AcDbEntity
  8
TEXT
100
AcDbLine
 10
1.203058951273189
 20
0.5734028353044608
 30
0.0
 11
1.257192548194139
 21
0.5734028353044608
 31
0.0
  0
LINE
  5
7DE1B343D9E3CE9
330
7DE1B343D9E3D4E
100
AcDbEntity
  8
TEXT
100
AcDbLine
 10
1.203058951273189
 20
0.3712064969727151
 30
0.0
 11
1.203058951273189
 21
0.5734028353044608
 31
0.0
  0
LWPOLYLINE
  5
7DE1B343D9E3CEA
330
7DE1B343D9E3D4E
100
AcDbEntity
  8
TEXT
100
AcDbPolyline
 90
        2
 70
     0
 43
0.0
 10
1.257192548194137
 20
0.5734028353044608
 42
-0.4142135623731017
 10
1.264746337360251
 20
0.5658490461383508
 42
-0.9999999999999998
  0
LWPOLYLINE
  5
7DE1B343D9E3CEE
330
7DE1B343D9E3D4E
100
AcDbEntity
  8
TEXT
100
AcDbPolyline
 90
        4
 70
     0
 43
0.0
 10
1.264746337360251
 20
0.5658490461383508
 10
1.264746337360251
 20
0.3712064969727151
 10
1.333224620648109
 20
0.3712064969727151
 10
1.333224620648109
 20
0.4146974419231534
 42
-1.714843617202739
  0
LINE
  5
7DE1B343D9E3CF4
330
7DE1B343D9E3D4E
100
AcDbEntity
  8
TEXT
100
AcDbLine
 10
0.6933604529650069
 20
0.6376795299612262
 30
0.0
 11
0.6933604529650069
 21
0.6720674475553644
 31
0.0
  0
LINE
  5
7DE1B343D9E3CF5
330
7DE1B343D9E3D4E
100
AcDbEntity
  8
TEXT
100
AcDbLine
 10
0.7651594191089142
 20
0.6376795299612262
 30
0.0
 11
0.6933604529650069
 21
0.6376795299612262
 31
0.0
  0
LINE
  5
7DE1B343D9E3CF6
330
7DE1B343D9E3D4E
100
AcDbEntity
  8
TEXT
100
AcDbLine
 10
0.9126602157400938
 20
0.6376795299612262
 30
0.0
 11
0.8825383029467175
 21
0.6376795299612262
 31
0.0
  0
LINE
  5
7DE1B343D9E3CF7
330
7DE1B343D9E3D4E
100
AcDbEntity
  8
TEXT
100
AcDbLine
 10
0.9126602157400938
 20
0.7056910077000368
 30
0.0
 11
0.9126602157400938
 21
0.6376795299612262
 31
0.0
  0
LINE
  5
7DE1B343D9E3CF8
330
7DE1B343D9E3D4E
100
AcDbEntity
  8
TEXT
100
AcDbLine
 10
0.9794689283064588
 20
0.7056910077000368
 30
0.0
 11
0.9126602157400938
 21
0.7056910077000368
 31
0.0
  0
LWPOLYLINE
  5
7DE1B343D9E3CF9
330
7DE1B343D9E3D4E
100
AcDbEntity
  8
TEXT
100
AcDbPolyline
 90
        3
 70
     0
 43
0.0
 10
1.299880687904461
 20
0.6376795299612298
 10
1.181580529088416
 20
0.6376795299612298
 10
1.181580529088416
 20
0.6105120332003338
 42
-1.960274751411753
  0
LINE
  5
7DE1B343D9E3CFE
330
7DE1B343D9E3D4E
100
AcDbEntity
  8
TEXT
100
AcDbLine
 10
1.145798838375255
 20
0.6376795299612262
 30
0.0
 11
1.011780782444118
 21
0.6376795299612262
 31
0.0
  0
LWPOLYLINE
  5
7DE1B343D9E3CFF
330
7DE1B343D9E3D4E
100
AcDbEntity
  8
TEXT
100
AcDbPolyline
 90
        2
 70
     0
 43
0.0
 10
1.145798838375255
 20
0.6376795299612298
 42
-0.3328679258950098
 10
1.181580529088416
 20
0.6105120332003338
 42
6.772930709997214
  0
LINE
  5
7DE1B343D9E3D03
330
7DE1B343D9E3D4E
100
AcDbEntity
  8
TEXT
100
AcDbLine
 10
1.335662378617627
 20
0.6376795299612262
 30
0.0
 11
1.335662378617627
 21
0.6093569841915823
 31
0.0
  0
LWPOLYLINE
  5
7DE1B343D9E3D04
330
7DE1B343D9E3D4E
100
AcDbEntity
  8
TEXT
100
AcDbPolyline
 90
        2
 70
     0
 43
0.0
 10
1.299880687904461
 20
0.6376795299612298
 42
-0.3277054968067132
 10
1.335662378617626
 20
0.6093569841915859
 42
6.667889725900311
  0
LINE
  5
7DE1B343D9E3D08
330
7DE1B343D9E3D4E
100
AcDbEntity
  8
TEXT
100
AcDbLine
 10
1.549454226709728
 20
0.5324675514077989
 30
0.0
 11
1.505703455527826
 21
0.6147178274039441
 31
0.0
  0
LINE
  5
7DE1B343D9E3D09
330
7DE1B343D9E3D4E
100
AcDbEntity
  8
TEXT
100
AcDbLine
 10
1.549454226709728
 20
0.6376795299612262
 30
0.0
 11
1.549454226709728
 21
0.5324675514077989
 31
0.0
  0
LINE
  5
7DE1B343D9E3D0A
330
7DE1B343D9E3D4E
100
AcDbEntity
  8
TEXT
100
AcDbLine
 10
1.777137965648097
 20
0.5618142035496881
 30
0.0
 11
1.777137965648097
 21
0.7031437357288269
 31
0.0
  0
LINE
  5
7DE1B343D9E3D0B
330
7DE1B343D9E3D4E
100
AcDbEntity
  8
TEXT
100
AcDbLine
 10
1.824236124204081
 20
0.6376795299612262
 30
0.0
 11
1.777137965648097
 21
0.5618142035496881
 31
0.0
  0
LINE
  5
7DE1B343D9E3D0C
330
7DE1B343D9E3D4E
100
AcDbEntity
  8
TEXT
100
AcDbLine
 10
1.834670840968004
 20
0.5277862870202526
 30
0.0
 11
1.899227956933709
 21
0.6376795299612262
 31
0.0
  0
LINE
  5
7DE1B343D9E3D0D
330
7DE1B343D9E3D4E
100
AcDbEntity
  8
TEXT
100
AcDbLine
 10
1.713302974425323
 20
0.3712064969727151
 30
0.0
 11
1.777681158743944
 21
0.3712064969727151
 31
0.0
  0
LWPOLYLINE
  5
7DE1B343D9E3D0E
330
7DE1B343D9E3D4E
100
AcDbEntity
  8
TEXT
100
AcDbPolyline
 90
        2
 70
     0
 43
0.0
 10
1.553393904014765
 20
0.4146974419231534
 42
-0.2901071551932486
 10
1.510317971147121
 20
0.3712064969727151
 42
-5.328517124445184
  0
ARC
  5
7DE1B343D9E3D12
330
7DE1B343D9E3D4E
100
AcDbEntity
  8
TEXT
100
AcDbCircle
 10
1.441463389490206
 20
0.5450434603044635
 30
0.0
 40
0.028359375
100
AcDbArc
 50
25.78218179591245
 51
90.0
  0
LINE
  5
7DE1B343D9E3D13
330
7DE1B343D9E3D4E
100
AcDbEntity
  8
TEXT
100
AcDbLine
 10
1.477264464794329
 20
0.5361278618423285
 30
0.0
 11
1.466999704380765
 21
0.5573784014150228
 31
0.0
  0
LINE
  5
7DE1B343D9E3D14
330
7DE1B343D9E3D4E
100
AcDbEntity
  8
TEXT
100
AcDbLine
 10
1.394976475010946
 20
0.5361278618423285
 30
0.0
 11
1.477264464794329
 21
0.5361278618423285
 31
0.0
  0
LWPOLYLINE
  5
7DE1B343D9E3D15
330
7DE1B343D9E3D4E
100
AcDbEntity
  8
TEXT
100
AcDbPolyline
 90
        4
 70
     1
 43
0.0
 10
1.490195506077228
 20
0.4741704749567404
 10
1.40153518741737
 20
0.4741704749567404
 42
0.9999999999999998
 10
1.40153518741737
 20
0.4317719344528797
 10
1.490195506077228
 20
0.4317719344528797
 42
1.0
  0
LWPOLYLINE
  5
7DE1B343D9E3D1B
330
7DE1B343D9E3D4E
100
AcDbEntity
  8
TEXT
100
AcDbPolyline
 90
        2
 70
     0
 43
0.0
 10
1.376300553515744
 20
0.3712064969727151
 10
1.510317971147121
 20
0.3712064969727151
 42
0.9999999999999998
  0
LINE
  5
7DE1B343D9E3D1F
330
7DE1B343D9E3D4E
100
AcDbEntity
  8
TEXT
100
AcDbLine
 10
1.63665499313276
 20
0.5734028353044608
 30
0.0
 11
1.713302974425318
 21
0.5734028353044608
 31
0.0
  0
LINE
  5
7DE1B343D9E3D20
330
7DE1B343D9E3D4E
100
AcDbEntity
  8
TEXT
100
AcDbLine
 10
1.713302974425318
 20
0.5734028353044608
 30
0.0
 11
1.713302974425323
 21
0.3712064969727151
 31
0.0
  0
ARC
  5
7DE1B343D9E3D21
330
7DE1B343D9E3D4E
100
AcDbEntity
  8
TEXT
100
AcDbCircle
 10
1.636654993132759
 20
0.548496960021798
 30
0.0
 40
0.0249058752826653
100
AcDbArc
 50
89.99971217465335
 51
179.9999999999985
  0
LINE
  5
7DE1B343D9E3D22
330
7DE1B343D9E3D4E
100
AcDbEntity
  8
TEXT
100
AcDbLine
 10
1.611749117850101
 20
0.3712064969727151
 30
0.0
 11
1.611749117850096
 21
0.5484970024041836
 31
0.0
  0
LWPOLYLINE
  5
7DE1B343D9E3D23
330
7DE1B343D9E3D4E
100
AcDbEntity
  8
TEXT
100
AcDbPolyline
 90
        2
 70
     0
 43
0.0
 10
1.553393904014765
 20
0.3712064969727151
 10
1.611749117850099
 20
0.3712064969727151
  0
LWPOLYLINE
  5
7DE1B343D9E3D27
330
7DE1B343D9E3D4E
100
AcDbEntity
  8
TEXT
100
AcDbPolyline
 90
        2
 70
     0
 43
0.0
 10
1.553393904014765
 20
0.4146974419231534
 10
1.553393904014765
 20
0.3712064969727151
  0
LINE
  5
7DE1B343D9E3D2B
330
7DE1B343D9E3D4E
100
AcDbEntity
  8
TEXT
100
AcDbLine
 10
1.930163064331614
 20
0.3712064969727151
 30
0.0
 11
1.834670840968004
 21
0.5277862870202526
 31
0.0
  0
LINE
  5
7DE1B343D9E3D2C
330
7DE1B343D9E3D4E
100
AcDbEntity
  8
TEXT
100
AcDbLine
 10
1.853584691955408
 20
0.3712064969727151
 30
0.0
 11
1.930163064331614
 21
0.3712064969727151
 31
0.0
  0
LINE
  5
7DE1B343D9E3D2D
330
7DE1B343D9E3D4E
100
AcDbEntity
  8
TEXT
100
AcDbLine
 10
1.777681158743944
 20
0.5027860654488955
 30
0.0
 11
1.853584691955408
 21
0.3712064969727151
 31
0.0
  0
LINE
  5
7DE1B343D9E3D2E
330
7DE1B343D9E3D4E
100
AcDbEntity
  8
TEXT
100
AcDbLine
 10
1.777681158743944
 20
0.3712064969727151
 30
0.0
 11
1.777681158743944
 21
0.5027860654488955
 31
0.0
  0
LINE
  5
7DE1B343D9E3D2F
330
7DE1B343D9E3D4E
100
AcDbEntity
  8
TEXT
100
AcDbLine
 10
1.777137965648097
 20
0.7031437357288269
 30
0.0
 11
1.708823087098823
 21
0.7031437357288269
 31
0.0
  0
ARC
  5
7DE1B343D9E3D30
330
7DE1B343D9E3D4E
100
AcDbEntity
  8
TEXT
100
AcDbCircle
 10
1.468467348057617
 20
0.5960959628403238
 30
0.0
 40
0.0416329381542859
100
AcDbArc
 50
26.56974201007528
 51
87.20939649401342
  0
LINE
  5
7DE1B343D9E3D31
330
7DE1B343D9E3D4E
100
AcDbEntity
  8
TEXT
100
AcDbLine
 10
1.613351133009228
 20
0.6376795299612262
 30
0.0
 11
1.549454226709728
 21
0.6376795299612262
 31
0.0
  0
LINE
  5
7DE1B343D9E3D32
330
7DE1B343D9E3D4E
100
AcDbEntity
  8
TEXT
100
AcDbLine
 10
1.613351133009228
 20
0.6101318801003515
 30
0.0
 11
1.613351133009228
 21
0.6376795299612262
 31
0.0
  0
ARC
  5
7DE1B343D9E3D33
330
7DE1B343D9E3D4E
100
AcDbEntity
  8
TEXT
100
AcDbCircle
 10
1.644543950072336
 20
0.6064338026789614
 30
0.0
 40
0.0314112657011332
100
AcDbArc
 50
95.88484768694724
 51
173.2388340632136
  0
LINE
  5
7DE1B343D9E3D34
330
7DE1B343D9E3D4E
100
AcDbEntity
  8
TEXT
100
AcDbLine
 10
1.708823087098818
 20
0.6376795299612262
 30
0.0
 11
1.641323369449301
 21
0.6376795299612262
 31
0.0
  0
LINE
  5
7DE1B343D9E3D35
330
7DE1B343D9E3D4E
100
AcDbEntity
  8
TEXT
100
AcDbLine
 10
1.708823087098823
 20
0.7031437357288269
 30
0.0
 11
1.708823087098818
 21
0.6376795299612262
 31
0.0
  0
LINE
  5
7DE1B343D9E3D36
330
7DE1B343D9E3D4E
100
AcDbEntity
  8
TEXT
100
AcDbLine
 10
1.899227956933709
 20
0.6376795299612262
 30
0.0
 11
1.824236124204083
 21
0.6376795299612262
 31
0.0
  0
ENDSEC
  0
SECTION
  2
OBJECTS
  0
DICTIONARY
  5
7DE1B343D9E3D42
330
0
100
AcDbDictionary
  3
ACAD_GROUP
350
7DE1B343D9E3D43
  3
ACAD_LAYOUT
350
7DE1B343D9E3D6E
  3
ACAD_MLINESTYLE
350
7DE1B343D9E3D44
  3
ACAD_PLOTSETTINGS
350
7DE1B343D9E3D6F
  3
ACAD_PLOTSTYLENAME
350
7DE1B343D9E3D6C
  3
ACDBHEADERROUNDTRIPXREC
350
7DE1B343D9E3D79
  3
ACDBVARIABLEDICTIONARY
350
7DE1B343D9E3D76
  0
DICTIONARY
  5
7DE1B343D9E3D9B
330
7DE1B343D9E3D4E
100
AcDbDictionary
280
     1
  3
ACAD_LAYOUTSELFREF
360
7DE1B343D9E3D9C
  0
DICTIONARY
  5
7DE1B343D9E3D99
330
7DE1B343D9E3D4B
100
AcDbDictionary
280
     1
  3
ACAD_LAYOUTSELFREF
360
7DE1B343D9E3D9A
  0
DICTIONARY
  5
7DE1B343D9E3D43
102
{ACAD_REACTORS
330
7DE1B343D9E3D42
102
}
330
7DE1B343D9E3D42
100
AcDbDictionary
  0
DICTIONARY
  5
7DE1B343D9E3D6E
102
{ACAD_REACTORS
330
7DE1B343D9E3D42
102
}
330
7DE1B343D9E3D42
100
AcDbDictionary
  0
DICTIONARY
  5
7DE1B343D9E3D44
102
{ACAD_REACTORS
330
7DE1B343D9E3D42
102
}
330
7DE1B343D9E3D42
100
AcDbDictionary
  3
STANDARD
350
7DE1B343D9E3D51
  0
DICTIONARY
  5
7DE1B343D9E3D6F
102
{ACAD_REACTORS
330
7DE1B343D9E3D42
102
}
330
7DE1B343D9E3D42
100
AcDbDictionary
  0
ACDBDICTIONARYWDFLT
  5
7DE1B343D9E3D6C
102
{ACAD_REACTORS
330
7DE1B343D9E3D42
102
}
330
7DE1B343D9E3D42
100
AcDbDictionary
281
     1
  3
Normal
350
7DE1B343D9E3D6D
100
AcDbDictionaryWithDefault
340
7DE1B343D9E3D6D
  0
DICTIONARY
  5
7DE1B343D9E3D79
102
{ACAD_REACTORS
330
7DE1B343D9E3D42
102
}
330
7DE1B343D9E3D42
100
AcDbDictionary
  3
CEPSNTYPE
350
7DE1B343D9E3D83
  3
FINGERPRINTGUID
350
7DE1B343D9E3D84
  3
HYPERLINKBASE
350
7DE1B343D9E3D7C
  3
INSUNITS
350
7DE1B343D9E3D82
  3
LAYOUTDICT
350
7DE1B343D9E3D7E
  3
LWETCUNION
350
7DE1B343D9E3D81
  3
PLOTSETDICT
350
7DE1B343D9E3D7F
  3
PLOTSTYLNAMDICT
350
7DE1B343D9E3D80
  3
PSVPSCALE
350
7DE1B343D9E3D86
  3
PUCSBASE
350
7DE1B343D9E3D89
  3
PUCSORGBACK
350
7DE1B343D9E3D8F
  3
PUCSORGBOTTOM
350
7DE1B343D9E3D8B
  3
PUCSORGFRONT
350
7DE1B343D9E3D8E
  3
PUCSORGLEFT
350
7DE1B343D9E3D8C
  3
PUCSORGRIGHT
350
7DE1B343D9E3D8D
  3
PUCSORGTOP
350
7DE1B343D9E3D8A
  3
PUCSORTHOREF
350
7DE1B343D9E3D87
  3
PUCSORTHOVIEW
350
7DE1B343D9E3D88
  3
STYLESHEET
350
7DE1B343D9E3D7D
  3
TSTACKALIGN
350
7DE1B343D9E3D7A
  3
TSTACKSIZE
350
7DE1B343D9E3D7B
  3
UCSBASE
350
7DE1B343D9E3D92
  3
UCSORGBACK
350
7DE1B343D9E3D98
  3
UCSORGBOTTOM
350
7DE1B343D9E3D94
  3
UCSORGFRONT
350
7DE1B343D9E3D97
  3
UCSORGLEFT
350
7DE1B343D9E3D95
  3
UCSORGRIGHT
350
7DE1B343D9E3D96
  3
UCSORGTOP
350
7DE1B343D9E3D93
  3
UCSORTHOREF
350
7DE1B343D9E3D90
  3
UCSORTHOVIEW
350
7DE1B343D9E3D91
  3
VERSIONGUID
350
7DE1B343D9E3D85
  0
DICTIONARY
  5
7DE1B343D9E3D76
102
{ACAD_REACTORS
330
7DE1B343D9E3D42
102
}
330
7DE1B343D9E3D42
100
AcDbDictionary
  3
DIMASSOC
350
7DE1B343D9E3D77
  0
XRECORD
  5
7DE1B343D9E3D9C
102
{ACAD_REACTORS
330
7DE1B343D9E3D9B
102
}
330
7DE1B343D9E3D9B
100
AcDbXrecord
340
7DE1B343D9E3D4E
  0
XRECORD
  5
7DE1B343D9E3D9A
102
{ACAD_REACTORS
330
7DE1B343D9E3D99
102
}
330
7DE1B343D9E3D99
100
AcDbXrecord
340
7DE1B343D9E3D4B
  0
MLINESTYLE
  5
7DE1B343D9E3D51
102
{ACAD_REACTORS
330
7DE1B343D9E3D44
102
}
330
7DE1B343D9E3D44
100
AcDbMlineStyle
  2
STANDARD
 70
     0
  3

 62
     0
 51
90.0
 52
90.0
 71
     2
 49
0.5
 62
   256
  6
BYLAYER
 49
-0.5
 62
   256
  6
BYLAYER
  0
ACDBPLACEHOLDER
  5
7DE1B343D9E3D6D
102
{ACAD_REACTORS
330
7DE1B343D9E3D6C
102
}
330
7DE1B343D9E3D6C
100
AcDbPlaceHolder
280
     0
  0
XRECORD
  5
7DE1B343D9E3D83
102
{ACAD_REACTORS
330
7DE1B343D9E3D79
102
}
330
7DE1B343D9E3D79
100
AcDbXrecord
 90
        0
  0
XRECORD
  5
7DE1B343D9E3D84
102
{ACAD_REACTORS
330
7DE1B343D9E3D79
102
}
330
7DE1B343D9E3D79
100
AcDbXrecord
  1
{8E1F4740-8DB9-11D6-88E6-0090279574E7}
  0
XRECORD
  5
7DE1B343D9E3D7C
102
{ACAD_REACTORS
330
7DE1B343D9E3D79
102
}
330
7DE1B343D9E3D79
100
AcDbXrecord
  1

  0
XRECORD
  5
7DE1B343D9E3D82
102
{ACAD_REACTORS
330
7DE1B343D9E3D79
102
}
330
7DE1B343D9E3D79
100
AcDbXrecord
 90
        0
  0
XRECORD
  5
7DE1B343D9E3D7E
102
{ACAD_REACTORS
330
7DE1B343D9E3D79
102
}
330
7DE1B343D9E3D79
100
AcDbXrecord
340
7DE1B343D9E3D6E
  0
XRECORD
  5
7DE1B343D9E3D81
102
{ACAD_REACTORS
330
7DE1B343D9E3D79
102
}
330
7DE1B343D9E3D79
100
AcDbXrecord
 90
    14877
  0
XRECORD
  5
7DE1B343D9E3D7F
102
{ACAD_REACTORS
330
7DE1B343D9E3D79
102
}
330
7DE1B343D9E3D79
100
AcDbXrecord
340
7DE1B343D9E3D6F
  0
XRECORD
  5
7DE1B343D9E3D80
102
{ACAD_REACTORS
330
7DE1B343D9E3D79
102
}
330
7DE1B343D9E3D79
100
AcDbXrecord
340
7DE1B343D9E3D6C
  0
XRECORD
  5
7DE1B343D9E3D86
102
{ACAD_REACTORS
330
7DE1B343D9E3D79
102
}
330
7DE1B343D9E3D79
100
AcDbXrecord
 40
0.0
  0
XRECORD
  5
7DE1B343D9E3D89
102
{ACAD_REACTORS
330
7DE1B343D9E3D79
102
}
330
7DE1B343D9E3D79
100
AcDbXrecord
340
0
  0
XRECORD
  5
7DE1B343D9E3D8F
102
{ACAD_REACTORS
330
7DE1B343D9E3D79
102
}
330
7DE1B343D9E3D79
100
AcDbXrecord
 10
0.0
 20
0.0
 30
0.0
  0
XRECORD
  5
7DE1B343D9E3D8B
102
{ACAD_REACTORS
330
7DE1B343D9E3D79
102
}
330
7DE1B343D9E3D79
100
AcDbXrecord
 10
0.0
 20
0.0
 30
0.0
  0
XRECORD
  5
7DE1B343D9E3D8E
102
{ACAD_REACTORS
330
7DE1B343D9E3D79
102
}
330
7DE1B343D9E3D79
100
AcDbXrecord
 10
0.0
 20
0.0
 30
0.0
  0
XRECORD
  5
7DE1B343D9E3D8C
102
{ACAD_REACTORS
330
7DE1B343D9E3D79
102
}
330
7DE1B343D9E3D79
100
AcDbXrecord
 10
0.0
 20
0.0
 30
0.0
  0
XRECORD
  5
7DE1B343D9E3D8D
102
{ACAD_REACTORS
330
7DE1B343D9E3D79
102
}
330
7DE1B343D9E3D79
100
AcDbXrecord
 10
0.0
 20
0.0
 30
0.0
  0
XRECORD
  5
7DE1B343D9E3D8A
102
{ACAD_REACTORS
330
7DE1B343D9E3D79
102
}
330
7DE1B343D9E3D79
100
AcDbXrecord
 10
0.0
 20
0.0
 30
0.0
  0
XRECORD
  5
7DE1B343D9E3D87
102
{ACAD_REACTORS
330
7DE1B343D9E3D79
102
}
330
7DE1B343D9E3D79
100
AcDbXrecord
340
0
  0
XRECORD
  5
7DE1B343D9E3D88
102
{ACAD_REACTORS
330
7DE1B343D9E3D79
102
}
330
7DE1B343D9E3D79
100
AcDbXrecord
 70
     0
  0
XRECORD
  5
7DE1B343D9E3D7D
102
{ACAD_REACTORS
330
7DE1B343D9E3D79
102
}
330
7DE1B343D9E3D79
100
AcDbXrecord
  1

  0
XRECORD
  5
7DE1B343D9E3D7A
102
{ACAD_REACTORS
330
7DE1B343D9E3D79
102
}
330
7DE1B343D9E3D79
100
AcDbXrecord
 90
        1
  0
XRECORD
  5
7DE1B343D9E3D7B
102
{ACAD_REACTORS
330
7DE1B343D9E3D79
102
}
330
7DE1B343D9E3D79
100
AcDbXrecord
 90
       70
  0
XRECORD
  5
7DE1B343D9E3D92
102
{ACAD_REACTORS
330
7DE1B343D9E3D79
102
}
330
7DE1B343D9E3D79
100
AcDbXrecord
340
0
  0
XRECORD
  5
7DE1B343D9E3D98
102
{ACAD_REACTORS
330
7DE1B343D9E3D79
102
}
330
7DE1B343D9E3D79
100
AcDbXrecord
 10
0.0
 20
0.0
 30
0.0
  0
XRECORD
  5
7DE1B343D9E3D94
102
{ACAD_REACTORS
330
7DE1B343D9E3D79
102
}
330
7DE1B343D9E3D79
100
AcDbXrecord
 10
0.0
 20
0.0
 30
0.0
  0
XRECORD
  5
7DE1B343D9E3D97
102
{ACAD_REACTORS
330
7DE1B343D9E3D79
102
}
330
7DE1B343D9E3D79
100
AcDbXrecord
 10
0.0
 20
0.0
 30
0.0
  0
XRECORD
  5
7DE1B343D9E3D95
102
{ACAD_REACTORS
330
7DE1B343D9E3D79
102
}
330
7DE1B343D9E3D79
100
AcDbXrecord
 10
0.0
 20
0.0
 30
0.0
  0
XRECORD
  5
7DE1B343D9E3D96
102
{ACAD_REACTORS
330
7DE1B343D9E3D79
102
}
330
7DE1B343D9E3D79
100
AcDbXrecord
 10
0.0
 20
0.0
 30
0.0
  0
XRECORD
  5
7DE1B343D9E3D93
102
{ACAD_REACTORS
330
7DE1B343D9E3D79
102
}
330
7DE1B343D9E3D79
100
AcDbXrecord
 10
0.0
 20
0.0
 30
0.0
  0
XRECORD
  5
7DE1B343D9E3D90
102
{ACAD_REACTORS
330
7DE1B343D9E3D79
102
}
330
7DE1B343D9E3D79
100
AcDbXrecord
340
0
  0
XRECORD
  5
7DE1B343D9E3D91
102
{ACAD_REACTORS
330
7DE1B343D9E3D79
102
}
330
7DE1B343D9E3D79
100
AcDbXrecord
 70
     0
  0
XRECORD
  5
7DE1B343D9E3D85
102
{ACAD_REACTORS
330
7DE1B343D9E3D79
102
}
330
7DE1B343D9E3D79
100
AcDbXrecord
  1
{8E1F4742-8DB9-11D6-88E6-0090279574E7}
  0
DICTIONARYVAR
  5
7DE1B343D9E3D77
102
{ACAD_REACTORS
330
7DE1B343D9E3D76
102
}
330
7DE1B343D9E3D76
100
DictionaryVariables
280
     0
  1
1
  0
ENDSEC
  0
EOF
