  0
SECTION
  2
HEADER
  9
$ACADVER
  1
AC1014
  9
$ACADMAINTVER
 70
     9
  9
$DWGCODEPAGE
  3
ANSI_1252
  9
$INSBASE
 10
1.294588410380726
 20
0.9128732766887614
 30
0.0
  9
$EXTMIN
 10
0.1929940327258048
 20
-0.2295143062761705
 30
0.0
  9
$EXTMAX
 10
3.678213354472932
 20
2.537873276688761
 30
0.0
  9
$LIMMIN
 10
0.0
 20
0.0
  9
$LIMMAX
 10
18.0
 20
12.0
  9
$ORTHOMODE
 70
     1
  9
$REGENMODE
 70
     1
  9
$FILLMODE
 70
     1
  9
$QTEXTMODE
 70
     0
  9
$MIRRTEXT
 70
     0
  9
$DRAGMODE
 70
     2
  9
$LTSCALE
 40
1.0
  9
$OSMODE
 70
    39
  9
$ATTMODE
 70
     1
  9
$TEXTSIZE
 40
0.125
  9
$TRACEWID
 40
0.05
  9
$TEXTSTYLE
  7
ROMANS
  9
$CLAYER
  8
0
  9
$CELTYPE
  6
BYLAYER
  9
$CECOLOR
 62
   256
  9
$CELTSCALE
 40
1.0
  9
$DELOBJ
 70
     1
  9
$DISPSILH
 70
     1
  9
$DIMSCALE
 40
1.0
  9
$DIMASZ
 40
0.125
  9
$DIMEXO
 40
0.125
  9
$DIMDLI
 40
0.375
  9
$DIMRND
 40
0.0
  9
$DIMDLE
 40
0.0
  9
$DIMEXE
 40
0.125
  9
$DIMTP
 40
0.0
  9
$DIMTM
 40
0.0
  9
$DIMTXT
 40
0.125
  9
$DIMCEN
 40
-0.125
  9
$DIMTSZ
 40
0.0
  9
$DIMTOL
 70
     0
  9
$DIMLIM
 70
     0
  9
$DIMTIH
 70
     1
  9
$DIMTOH
 70
     1
  9
$DIMSE1
 70
     0
  9
$DIMSE2
 70
     0
  9
$DIMTAD
 70
     0
  9
$DIMZIN
 70
     4
  9
$DIMBLK
  1

  9
$DIMASO
 70
     1
  9
$DIMSHO
 70
     1
  9
$DIMPOST
  1

  9
$DIMAPOST
  1

  9
$DIMALT
 70
     0
  9
$DIMALTD
 70
     2
  9
$DIMALTF
 40
25.4
  9
$DIMLFAC
 40
1.0
  9
$DIMTOFL
 70
     0
  9
$DIMTVP
 40
0.0
  9
$DIMTIX
 70
     1
  9
$DIMSOXD
 70
     0
  9
$DIMSAH
 70
     0
  9
$DIMBLK1
  1

  9
$DIMBLK2
  1

  9
$DIMSTYLE
  2
STANDARD
  9
$DIMCLRD
 70
     0
  9
$DIMCLRE
 70
     0
  9
$DIMCLRT
 70
     0
  9
$DIMTFAC
 40
1.0
  9
$DIMGAP
 40
0.09
  9
$DIMJUST
 70
     0
  9
$DIMSD1
 70
     0
  9
$DIMSD2
 70
     0
  9
$DIMTOLJ
 70
     1
  9
$DIMTZIN
 70
     4
  9
$DIMALTZ
 70
     0
  9
$DIMALTTZ
 70
     0
  9
$DIMFIT
 70
     3
  9
$DIMUPT
 70
     0
  9
$DIMUNIT
 70
     2
  9
$DIMDEC
 70
     3
  9
$DIMTDEC
 70
     3
  9
$DIMALTU
 70
     2
  9
$DIMALTTD
 70
     2
  9
$DIMTXSTY
  7
ROMANS
  9
$DIMAUNIT
 70
     0
  9
$LUNITS
 70
     2
  9
$LUPREC
 70
     3
  9
$SKETCHINC
 40
0.1
  9
$FILLETRAD
 40
0.03125
  9
$AUNITS
 70
     0
  9
$AUPREC
 70
     0
  9
$MENU
  1
ACAD
  9
$ELEVATION
 40
0.0
  9
$PELEVATION
 40
0.0
  9
$THICKNESS
 40
0.0
  9
$LIMCHECK
 70
     0
  9
$BLIPMODE
 70
     0
  9
$CHAMFERA
 40
0.0
  9
$CHAMFERB
 40
0.0
  9
$CHAMFERC
 40
0.0
  9
$CHAMFERD
 40
0.0
  9
$SKPOLY
 70
     0
  9
$TDCREATE
 40
2448994.687217013
  9
$TDUPDATE
 40
2452458.323023947
  9
$TDINDWG
 40
0.0006126389
  9
$TDUSRTIMER
 40
0.0006126389
  9
$USRTIMER
 70
     1
  9
$ANGBASE
 50
0.0
  9
$ANGDIR
 70
     0
  9
$PDMODE
 70
     0
  9
$PDSIZE
 40
0.0
  9
$PLINEWID
 40
0.0
  9
$COORDS
 70
     2
  9
$SPLFRAME
 70
     0
  9
$SPLINETYPE
 70
     6
  9
$SPLINESEGS
 70
     8
  9
$ATTDIA
 70
     0
  9
$ATTREQ
 70
     1
  9
$HANDLING
 70
 22529
  9
$HANDSEED
  5
7DE1B343D9E3A18
  9
$SURFTAB1
 70
     6
  9
$SURFTAB2
 70
     6
  9
$SURFTYPE
 70
     6
  9
$SURFU
 70
     6
  9
$SURFV
 70
     6
  9
$UCSNAME
  2

  9
$UCSORG
 10
0.0
 20
0.0
 30
0.0
  9
$UCSXDIR
 10
1.0
 20
0.0
 30
0.0
  9
$UCSYDIR
 10
0.0
 20
1.0
 30
0.0
  9
$PUCSNAME
  2

  9
$PUCSORG
 10
0.0
 20
0.0
 30
0.0
  9
$PUCSXDIR
 10
1.0
 20
0.0
 30
0.0
  9
$PUCSYDIR
 10
0.0
 20
1.0
 30
0.0
  9
$USERI1
 70
     0
  9
$USERI2
 70
     0
  9
$USERI3
 70
     0
  9
$USERI4
 70
     0
  9
$USERI5
 70
     0
  9
$USERR1
 40
0.0
  9
$USERR2
 40
0.0
  9
$USERR3
 40
0.0
  9
$USERR4
 40
0.0
  9
$USERR5
 40
0.0
  9
$WORLDVIEW
 70
     1
  9
$SHADEDGE
 70
     3
  9
$SHADEDIF
 70
    70
  9
$TILEMODE
 70
     1
  9
$MAXACTVP
 70
    16
  9
$PINSBASE
 10
0.3869339658581612
 20
50.00000000000001
 30
0.7164634150714119
  9
$PLIMCHECK
 70
     0
  9
$PEXTMIN
 10
1.000000000000000E+20
 20
1.000000000000000E+20
 30
1.000000000000000E+20
  9
$PEXTMAX
 10
-1.000000000000000E+20
 20
-1.000000000000000E+20
 30
-1.000000000000000E+20
  9
$PLIMMIN
 10
0.0
 20
0.0
  9
$PLIMMAX
 10
12.0
 20
9.0
  9
$UNITMODE
 70
     0
  9
$VISRETAIN
 70
     0
  9
$PLINEGEN
 70
     1
  9
$PSLTSCALE
 70
     0
  9
$TREEDEPTH
 70
  3020
  9
$PICKSTYLE
 70
     1
  9
$CMLSTYLE
  2
STANDARD
  9
$CMLJUST
 70
     0
  9
$CMLSCALE
 40
1.0
  9
$PROXYGRAPHICS
 70
     1
  9
$MEASUREMENT
 70
     0
  0
ENDSEC
  0
SECTION
  2
CLASSES
  0
CLASS
  1
LWPOLYLINE
  2
AcDbPolyline
  3
AutoCAD 2000
 90
        0
280
     0
281
     1
  0
CLASS
  1
ACDBDICTIONARYWDFLT
  2
AcDbDictionaryWithDefault
  3
AutoCAD 2000
 90
        0
280
     0
281
     0
  0
CLASS
  1
ACDBPLACEHOLDER
  2
AcDbPlaceHolder
  3
AutoCAD 2000
 90
        0
280
     0
281
     0
  0
CLASS
  1
LAYOUT
  2
AcDbLayout
  3
AutoCAD 2000
 90
        0
280
     0
281
     0
  0
CLASS
  1
DICTIONARYVAR
  2
AcDbDictionaryVar
  3
AutoCAD 2000
 90
        0
280
     0
281
     0
  0
CLASS
  1
LONG_TRANSACTION
  2
AcDbLongTransaction
  3
AutoCAD 2000
 90
        0
280
     0
281
     0
  0
CLASS
  1
LWPOLYLINE
  2
AcDbPolyline
  3
AutoCAD 2000
 90
        0
280
     0
281
     1
  0
CLASS
  1
HATCH
  2
AcDbHatch
  3
AutoCAD 2000
 90
        0
280
     0
281
     1
  0
CLASS
  1
XRECORD
  2
AcDbXrecord
  3
AutoCAD 2000
 90
        0
280
     0
281
     0
  0
ENDSEC
  0
SECTION
  2
TABLES
  0
TABLE
  2
VPORT
  5
7DE1B343D9E39B9
330
0
100
AcDbSymbolTable
 70
     2
  0
VPORT
  5
7DE1B343D9E39F3
330
7DE1B343D9E39B9
100
AcDbSymbolTableRecord
100
AcDbViewportTableRecord
  2
*ACTIVE
 70
     0
 10
0.0
 20
0.0
 11
1.0
 21
1.0
 12
6.010246610125241
 22
1.153943259743471
 13
0.0
 23
0.0
 14
0.015625
 24
0.015625
 15
0.0
 25
0.0
 16
0.0
 26
0.0
 36
1.0
 17
0.0
 27
0.0
 37
0.0
 40
3.125356513934602
 41
4.320930232558139
 42
50.0
 43
0.0
 44
0.0
 50
0.0
 51
0.0
 71
     0
 72
  2000
 73
     1
 74
     0
 75
     0
 76
     0
 77
     0
 78
     0
  0
ENDTAB
  0
TABLE
  2
LTYPE
  5
7DE1B343D9E39B6
330
0
100
AcDbSymbolTable
 70
     1
  0
LTYPE
  5
7DE1B343D9E39C3
330
7DE1B343D9E39B6
100
AcDbSymbolTableRecord
100
AcDbLinetypeTableRecord
  2
BYBLOCK
 70
     0
  3

 72
    65
 73
     0
 40
0.0
  0
LTYPE
  5
7DE1B343D9E39C4
330
7DE1B343D9E39B6
100
AcDbSymbolTableRecord
100
AcDbLinetypeTableRecord
  2
BYLAYER
 70
     0
  3

 72
    65
 73
     0
 40
0.0
  0
LTYPE
  5
7DE1B343D9E39C5
330
7DE1B343D9E39B6
100
AcDbSymbolTableRecord
100
AcDbLinetypeTableRecord
  2
CONTINUOUS
 70
     0
  3
Solid line
 72
    65
 73
     0
 40
0.0
  0
ENDTAB
  0
TABLE
  2
LAYER
  5
7DE1B343D9E39B3
330
0
100
AcDbSymbolTable
 70
     2
  0
LAYER
  5
7DE1B343D9E39C0
330
7DE1B343D9E39B3
100
AcDbSymbolTableRecord
100
AcDbLayerTableRecord
  2
0
 70
     0
 62
     7
  6
CONTINUOUS
  0
LAYER
  5
7DE1B343D9E39D0
330
7DE1B343D9E39B3
100
AcDbSymbolTableRecord
100
AcDbLayerTableRecord
  2
TEXT
 70
     0
 62
     3
  6
CONTINUOUS
  0
ENDTAB
  0
TABLE
  2
STYLE
  5
7DE1B343D9E39B4
330
0
100
AcDbSymbolTable
 70
     3
  0
STYLE
  5
7DE1B343D9E39C1
330
7DE1B343D9E39B4
100
AcDbSymbolTableRecord
100
AcDbTextStyleTableRecord
  2
STANDARD
 70
     0
 40
0.0
 41
1.0
 50
0.0
 71
     0
 42
0.3125
  3
txt
  4

  0
STYLE
  5
7DE1B343D9E39CD
330
7DE1B343D9E39B4
100
AcDbSymbolTableRecord
100
AcDbTextStyleTableRecord
  2
ITALICC
 70
     0
 40
0.0
 41
1.0
 50
0.0
 71
     0
 42
0.125
  3
italicc
  4

  0
STYLE
  5
7DE1B343D9E39DD
330
7DE1B343D9E39B4
100
AcDbSymbolTableRecord
100
AcDbTextStyleTableRecord
  2
ROMANS
 70
     0
 40
0.0
 41
1.0
 50
0.0
 71
     0
 42
0.125
  3
romans.shx
  4

  0
ENDTAB
  0
TABLE
  2
VIEW
  5
7DE1B343D9E39B7
330
0
100
AcDbSymbolTable
 70
     0
  0
ENDTAB
  0
TABLE
  2
UCS
  5
7DE1B343D9E39B8
330
0
100
AcDbSymbolTable
 70
     0
  0
ENDTAB
  0
TABLE
  2
APPID
  5
7DE1B343D9E39BA
330
0
100
AcDbSymbolTable
 70
     1
  0
APPID
  5
7DE1B343D9E39C2
330
7DE1B343D9E39BA
100
AcDbSymbolTableRecord
100
AcDbRegAppTableRecord
  2
ACAD
 70
     0
  0
ENDTAB
  0
TABLE
  2
DIMSTYLE
  5
7DE1B343D9E39BB
330
0
100
AcDbSymbolTable
 70
     1
  0
DIMSTYLE
105
7DE1B343D9E39D5
330
7DE1B343D9E39BB
100
AcDbSymbolTableRecord
100
AcDbDimStyleTableRecord
  2
STANDARD
 70
     0
  3

  4

  5

  6

  7

 40
1.0
 41
0.125
 42
0.125
 43
0.375
 44
0.125
 45
0.0
 46
0.0
 47
0.0
 48
0.0
140
0.125
141
-0.125
142
0.0
143
25.4
144
1.0
145
0.0
146
1.0
147
0.09
 71
     0
 72
     0
 73
     1
 74
     1
 75
     0
 76
     0
 77
     0
 78
     4
170
     0
171
     2
172
     0
173
     0
174
     1
175
     0
176
     0
177
     0
178
     0
270
     2
271
     3
272
     3
273
     2
274
     2
340
7DE1B343D9E39DD
275
     0
280
     0
281
     0
282
     0
283
     1
284
     4
285
     0
286
     0
287
     3
288
     0
  0
ENDTAB
  0
TABLE
  2
BLOCK_RECORD
  5
7DE1B343D9E39B2
330
0
100
AcDbSymbolTable
 70
     0
  0
BLOCK_RECORD
  5
7DE1B343D9E39C9
102
{ACAD_XDICTIONARY
360
7DE1B343D9E3A16
102
}
330
7DE1B343D9E39B2
100
AcDbSymbolTableRecord
100
AcDbBlockTableRecord
  2
*MODEL_SPACE
  0
BLOCK_RECORD
  5
7DE1B343D9E39C6
102
{ACAD_XDICTIONARY
360
7DE1B343D9E3A14
102
}
330
7DE1B343D9E39B2
100
AcDbSymbolTableRecord
100
AcDbBlockTableRecord
  2
*PAPER_SPACE
  0
ENDTAB
  0
ENDSEC
  0
SECTION
  2
BLOCKS
  0
BLOCK
  5
7DE1B343D9E39D3
330
7DE1B343D9E39C9
100
AcDbEntity
  8
0
100
AcDbBlockBegin
  2
*MODEL_SPACE
 70
     0
 10
0.0
 20
0.0
 30
0.0
  3
*MODEL_SPACE
  1

  0
ENDBLK
  5
7DE1B343D9E39D4
330
7DE1B343D9E39C9
100
AcDbEntity
  8
0
100
AcDbBlockEnd
  0
BLOCK
  5
7DE1B343D9E39D1
330
7DE1B343D9E39C6
100
AcDbEntity
 67
     1
  8
0
100
AcDbBlockBegin
  2
*PAPER_SPACE
 70
     0
 10
0.0
 20
0.0
 30
0.0
  3
*PAPER_SPACE
  1

  0
ENDBLK
  5
7DE1B343D9E39D2
330
7DE1B343D9E39C6
100
AcDbEntity
 67
     1
  8
0
100
AcDbBlockEnd
  0
ENDSEC
  0
SECTION
  2
ENTITIES
  0
LWPOLYLINE
  5
7DE1B343D9E241C
330
7DE1B343D9E39C9
100
AcDbEntity
  8
0
100
AcDbPolyline
 90
       30
 70
     1
 43
0.0
 10
1.357088410380726
 20
1.350373276688761
 10
1.419588410380726
 20
1.350373276688761
 10
1.419588410380726
 20
2.152873276688761
 10
1.409588410380726
 20
2.162873276688761
 10
1.419588410380726
 20
2.172873276688761
 10
1.419588410380726
 20
2.506623276688761
 42
1.0
 10
1.357088410380726
 20
2.506623276688761
 10
1.357088410380726
 20
1.412873276688761
 10
1.294588410380726
 20
1.412873276688761
 10
1.294588410380726
 20
1.037873276688761
 10
0.935213410380726
 20
1.037873276688761
 42
0.4142135623730951
 10
0.919588410380726
 20
1.022248276688761
 10
0.919588410380726
 20
0.9284982766887614
 42
0.4142135623730951
 10
0.935213410380726
 20
0.9128732766887614
 10
1.294588410380726
 20
0.9128732766887614
 10
1.294588410380726
 20
0.5534982766887615
 42
0.4142135623730951
 10
1.310213410380726
 20
0.5378732766887615
 10
1.403963410380726
 20
0.5378732766887615
 42
0.4142135623730951
 10
1.419588410380726
 20
0.5534982766887615
 10
1.419588410380726
 20
0.9128732766887614
 10
1.794588410380726
 20
0.9128732766887614
 10
1.794588410380726
 20
0.9753732766887614
 10
2.888338410380725
 20
0.9753732766887614
 42
1.0
 10
2.888338410380725
 20
1.037873276688761
 10
2.554588410380725
 20
1.037873276688761
 10
2.544588410380725
 20
1.027873276688761
 10
2.534588410380726
 20
1.037873276688761
 10
1.732088410380726
 20
1.037873276688761
 10
1.732088410380726
 20
0.9753732766887614
 10
1.357088410380726
 20
0.9753732766887614
  0
TEXT
  5
7DE1B343D9E3874
330
7DE1B343D9E39C9
100
AcDbEntity
  8
TEXT
100
AcDbText
 10
1.182999421476757
 20
0.2285042978064109
 30
0.0
 40
0.125
  1
PART #120058
  7
ITALICC
 72
     1
 11
1.935975611952948
 21
0.2285042978064109
 31
0.0
100
AcDbText
  0
TEXT
  5
7DE1B343D9E3875
330
7DE1B343D9E39C9
100
AcDbEntity
  8
TEXT
100
AcDbText
 10
2.349280770203268
 20
-0.2184183448659642
 30
0.0
 40
0.0522247191011236
  1
Phone  1-800-328-2495
 41
1.272321428571429
 72
     5
 11
3.678213354472932
 21
-0.2184183448659642
 31
0.0
100
AcDbText
  0
TEXT
  5
7DE1B343D9E3876
330
7DE1B343D9E39C9
100
AcDbEntity
  8
TEXT
100
AcDbText
 10
2.349280770203268
 20
0.0613569360329123
 30
0.0
 40
0.0522247191011236
  1
Stylmark  Incorporated
 41
1.221428571428571
 72
     5
 11
3.678213354472932
 21
0.0613569360329123
 31
0.0
100
AcDbText
  0
TEXT
  5
7DE1B343D9E3877
330
7DE1B343D9E39C9
100
AcDbEntity
  8
TEXT
100
AcDbText
 10
2.349280770203268
 20
-0.0319014909333799
 30
0.0
 40
0.0522247191011236
  1
6536 Main St. N.E. * P.O. Box 32008
 41
0.8388932496075355
 72
     5
 11
3.678213354472932
 21
-0.0319014909333799
 31
0.0
100
AcDbText
  0
TEXT
  5
7DE1B343D9E3878
330
7DE1B343D9E39C9
100
AcDbEntity
  8
TEXT
100
AcDbText
 10
2.349280770203268
 20
-0.125159917899672
 30
0.0
 40
0.0522247191011236
  1
Minneapolis, MN 55432-0008
 41
1.11444212721585
 72
     5
 11
3.678213354472932
 21
-0.125159917899672
 31
0.0
100
AcDbText
  0
LWPOLYLINE
  5
7DE1B343D9E3879
330
7DE1B343D9E39C9
100
AcDbEntity
  8
TEXT
100
AcDbPolyline
 90
        3
 70
     0
 43
0.0006660908203125
 10
0.1933270781359611
 20
-0.1047735822285293
 10
0.1933270781359611
 20
-0.218009021681657
 10
0.3065625175890834
 20
-0.218009021681657
  0
LWPOLYLINE
  5
7DE1B343D9E387E
330
7DE1B343D9E39C9
100
AcDbEntity
  8
TEXT
100
AcDbPolyline
 90
        3
 70
     0
 43
0.0006660908203125
 10
0.2199707109484585
 20
-0.1047735822285293
 10
0.2199707109484585
 20
-0.1913653888691559
 10
0.3065625175890834
 20
-0.1913653888691559
  0
LWPOLYLINE
  5
7DE1B343D9E3883
330
7DE1B343D9E39C9
100
AcDbEntity
  8
TEXT
100
AcDbPolyline
 90
        2
 70
     0
 43
0.0001332181640625
 10
0.2665970683703354
 20
-0.0947822199238441
 10
0.1933270781359611
 20
-0.1047735822285293
  0
LWPOLYLINE
  5
7DE1B343D9E3887
330
7DE1B343D9E39C9
100
AcDbEntity
  8
TEXT
100
AcDbPolyline
 90
        2
 70
     0
 43
0.0001332181640625
 10
0.2199707109484585
 20
-0.1047735822285293
 10
0.2799188847765859
 20
-0.0947822199238441
  0
LWPOLYLINE
  5
7DE1B343D9E388B
330
7DE1B343D9E39C9
100
AcDbEntity
  8
TEXT
100
AcDbPolyline
 90
        2
 70
     0
 43
0.0001332181640625
 10
0.2199707109484585
 20
-0.1913653888691559
 10
0.2799188847765859
 20
-0.1314172150410304
  0
LWPOLYLINE
  5
7DE1B343D9E388F
330
7DE1B343D9E39C9
100
AcDbEntity
  8
TEXT
100
AcDbPolyline
 90
        3
 70
     0
 43
0.0006660908203125
 10
0.3065625175890834
 20
0.0484273064433463
 10
0.1933270781359611
 20
0.0484273064433463
 10
0.1933270781359611
 20
-0.0648081330097813
  0
LWPOLYLINE
  5
7DE1B343D9E3894
330
7DE1B343D9E39C9
100
AcDbEntity
  8
TEXT
100
AcDbPolyline
 90
        3
 70
     0
 43
0.0006660908203125
 10
0.3065625175890834
 20
0.0217836736308453
 10
0.2199707109484585
 20
0.0217836736308453
 10
0.2199707109484585
 20
-0.0648081330097813
  0
LWPOLYLINE
  5
7DE1B343D9E3899
330
7DE1B343D9E39C9
100
AcDbEntity
  8
TEXT
100
AcDbPolyline
 90
        2
 70
     0
 43
0.0001332181640625
 10
0.2199707109484585
 20
0.0217836736308453
 10
0.2799188847765841
 20
-0.0381645001972803
  0
LWPOLYLINE
  5
7DE1B343D9E389D
330
7DE1B343D9E39C9
100
AcDbEntity
  8
TEXT
100
AcDbPolyline
 90
        2
 70
     0
 43
0.0001332181640625
 10
0.2199707109484585
 20
-0.0648081330097813
 10
0.2799188847765841
 20
-0.0747994953144701
  0
LWPOLYLINE
  5
7DE1B343D9E38A1
330
7DE1B343D9E39C9
100
AcDbEntity
  8
TEXT
100
AcDbPolyline
 90
        2
 70
     0
 43
0.0001332181640625
 10
0.1933270781359611
 20
-0.0648081330097813
 10
0.2665970683703354
 20
-0.0747994953144701
  0
LWPOLYLINE
  5
7DE1B343D9E38A5
330
7DE1B343D9E39C9
100
AcDbEntity
  8
TEXT
100
AcDbPolyline
 90
        2
 70
     0
 43
0.0006660908203125
 10
0.2199707109484585
 20
-0.1047735822285293
 10
0.1933270781359611
 20
-0.1047735822285293
  0
LWPOLYLINE
  5
7DE1B343D9E38A9
330
7DE1B343D9E39C9
100
AcDbEntity
  8
TEXT
100
AcDbPolyline
 90
        2
 70
     0
 43
0.0006660908203125
 10
0.2199707109484585
 20
-0.0648081330097813
 10
0.1933270781359611
 20
-0.0648081330097813
  0
LINE
  5
7DE1B343D9E38AD
330
7DE1B343D9E39C9
100
AcDbEntity
  8
TEXT
100
AcDbLine
 10
1.708517507262458
 20
-0.0158493882134227
 30
0.0
 11
1.601311233875169
 21
-0.0158493882134227
 31
0.0
  0
LINE
  5
7DE1B343D9E38AE
330
7DE1B343D9E39C9
100
AcDbEntity
  8
TEXT
100
AcDbLine
 10
1.737548405606936
 20
0.0484273064433428
 30
0.0
 11
1.602716496389877
 21
0.0484273064433428
 31
0.0
  0
ARC
  5
7DE1B343D9E38AF
330
7DE1B343D9E39C9
100
AcDbEntity
  8
TEXT
100
AcDbCircle
 10
1.662030592783194
 20
-0.1208099428196736
 30
0.0
 40
0.0676855811441166
100
AcDbArc
 50
90.0
 51
153.7768192527749
  0
LWPOLYLINE
  5
7DE1B343D9E38B0
330
7DE1B343D9E39C9
100
AcDbEntity
  8
TEXT
100
AcDbPolyline
 90
        2
 70
     0
 43
0.0
 10
1.600278738420359
 20
-0.1745547815947301
 42
0.2901071551932823
 10
1.643354671287994
 20
-0.2180457265451682
 42
5.328517124445801
  0
ARC
  5
7DE1B343D9E38B4
330
7DE1B343D9E39C9
100
AcDbEntity
  8
TEXT
100
AcDbCircle
 10
0.956899215111709
 20
-0.1582533352071184
 30
0.0
 40
0.0601160179737537
100
AcDbArc
 50
180.0000000000003
 51
264.0521544866073
  0
LINE
  5
7DE1B343D9E38B5
330
7DE1B343D9E39C9
100
AcDbEntity
  8
TEXT
100
AcDbLine
 10
0.9604145707372568
 20
0.082815224037481
 30
0.0
 11
0.9003719658932498
 21
0.082815224037481
 31
0.0
  0
ARC
  5
7DE1B343D9E38B6
330
7DE1B343D9E39C9
100
AcDbEntity
  8
TEXT
100
AcDbCircle
 10
0.7246402129947385
 20
-0.033660153003159
 30
0.0
 40
0.0820874594465043
100
AcDbArc
 50
90.0
 51
270.0
  0
LWPOLYLINE
  5
7DE1B343D9E38B7
330
7DE1B343D9E39C9
100
AcDbEntity
  8
TEXT
100
AcDbPolyline
 90
        2
 70
     0
 43
0.0001332181640625
 10
0.3165538798937739
 20
-0.0248426837910333
 10
0.3065625175890834
 20
0.0484273064433463
  0
LWPOLYLINE
  5
7DE1B343D9E38BB
330
7DE1B343D9E39C9
100
AcDbEntity
  8
TEXT
100
AcDbPolyline
 90
        2
 70
     0
 43
0.0001332181640625
 10
0.3065625175890834
 20
0.0217836736308453
 10
0.3165538798937739
 20
-0.0381645001972803
  0
LWPOLYLINE
  5
7DE1B343D9E38BF
330
7DE1B343D9E39C9
100
AcDbEntity
  8
TEXT
100
AcDbPolyline
 90
        3
 70
     0
 43
0.0006660908203125
 10
0.4597634062609608
 20
-0.0648081330097813
 10
0.4597634062609608
 20
0.0484273064433463
 10
0.3465279668078349
 20
0.0484273064433463
  0
LWPOLYLINE
  5
7DE1B343D9E38C4
330
7DE1B343D9E39C9
100
AcDbEntity
  8
TEXT
100
AcDbPolyline
 90
        3
 70
     0
 43
0.0006660908203125
 10
0.4331197734484597
 20
-0.0648081330097813
 10
0.4331197734484597
 20
0.0217836736308453
 10
0.3465279668078349
 20
0.0217836736308453
  0
LWPOLYLINE
  5
7DE1B343D9E38C9
330
7DE1B343D9E39C9
100
AcDbEntity
  8
TEXT
100
AcDbPolyline
 90
        2
 70
     0
 43
0.0001332181640625
 10
0.4331197734484597
 20
0.0217836736308453
 10
0.373171599620336
 20
-0.0381645001972803
  0
LWPOLYLINE
  5
7DE1B343D9E38CD
330
7DE1B343D9E39C9
100
AcDbEntity
  8
TEXT
100
AcDbPolyline
 90
        2
 70
     0
 43
0.0001332181640625
 10
0.3465279668078349
 20
0.0217836736308453
 10
0.3365366045031461
 20
-0.0381645001972803
  0
LWPOLYLINE
  5
7DE1B343D9E38D1
330
7DE1B343D9E39C9
100
AcDbEntity
  8
TEXT
100
AcDbPolyline
 90
        2
 70
     0
 43
0.0001332181640625
 10
0.3465279668078349
 20
0.0484273064433463
 10
0.3365366045031461
 20
-0.0248426837910333
  0
LWPOLYLINE
  5
7DE1B343D9E38D5
330
7DE1B343D9E39C9
100
AcDbEntity
  8
TEXT
100
AcDbPolyline
 90
        2
 70
     0
 43
0.0001332181640625
 10
0.3864934160265847
 20
-0.0747994953144701
 10
0.4597634062609608
 20
-0.0648081330097813
  0
LWPOLYLINE
  5
7DE1B343D9E38D9
330
7DE1B343D9E39C9
100
AcDbEntity
  8
TEXT
100
AcDbPolyline
 90
        2
 70
     0
 43
0.0001332181640625
 10
0.4331197734484597
 20
-0.0648081330097813
 10
0.373171599620336
 20
-0.0747994953144701
  0
LWPOLYLINE
  5
7DE1B343D9E38DD
330
7DE1B343D9E39C9
100
AcDbEntity
  8
TEXT
100
AcDbPolyline
 90
        2
 70
     0
 43
0.0001332181640625
 10
0.4597634062609608
 20
-0.1047735822285293
 10
0.3864934160265847
 20
-0.0947822199238441
  0
LWPOLYLINE
  5
7DE1B343D9E38E1
330
7DE1B343D9E39C9
100
AcDbEntity
  8
TEXT
100
AcDbPolyline
 90
        2
 70
     0
 43
0.0001332181640625
 10
0.4331197734484597
 20
-0.1047735822285293
 10
0.373171599620336
 20
-0.0947822199238441
  0
LWPOLYLINE
  5
7DE1B343D9E38E5
330
7DE1B343D9E39C9
100
AcDbEntity
  8
TEXT
100
AcDbPolyline
 90
        2
 70
     0
 43
0.0001332181640625
 10
0.4331197734484597
 20
-0.1913653888691559
 10
0.373171599620336
 20
-0.1314172150410304
  0
LWPOLYLINE
  5
7DE1B343D9E38E9
330
7DE1B343D9E39C9
100
AcDbEntity
  8
TEXT
100
AcDbPolyline
 90
        3
 70
     0
 43
0.0006660908203125
 10
0.3465279668078349
 20
-0.1913653888691559
 10
0.4331197734484597
 20
-0.1913653888691559
 10
0.4331197734484597
 20
-0.1047735822285293
  0
LWPOLYLINE
  5
7DE1B343D9E38EE
330
7DE1B343D9E39C9
100
AcDbEntity
  8
TEXT
100
AcDbPolyline
 90
        3
 70
     0
 43
0.0006660908203125
 10
0.3465279668078349
 20
-0.218009021681657
 10
0.4597634062609608
 20
-0.218009021681657
 10
0.4597634062609608
 20
-0.1047735822285293
  0
LWPOLYLINE
  5
7DE1B343D9E38F3
330
7DE1B343D9E39C9
100
AcDbEntity
  8
TEXT
100
AcDbPolyline
 90
        5
 70
     0
 43
0.0001332181640625
 10
0.3165538798937739
 20
-0.1447390314472809
 10
0.3165538798937739
 20
-0.1314172150410304
 10
0.2799188847765859
 20
-0.1314172150410304
 10
0.2799188847765859
 20
-0.0947822199238441
 10
0.2665970683703354
 20
-0.0947822199238441
  0
LWPOLYLINE
  5
7DE1B343D9E38FA
330
7DE1B343D9E39C9
100
AcDbEntity
  8
TEXT
100
AcDbPolyline
 90
        2
 70
     0
 43
0.0006660908203125
 10
0.3065625175890834
 20
-0.1913653888691559
 10
0.3065625175890834
 20
-0.218009021681657
  0
LWPOLYLINE
  5
7DE1B343D9E38FE
330
7DE1B343D9E39C9
100
AcDbEntity
  8
TEXT
100
AcDbPolyline
 90
        2
 70
     0
 43
0.0001332181640625
 10
0.3065625175890834
 20
-0.1913653888691559
 10
0.3165538798937739
 20
-0.1314172150410304
  0
LWPOLYLINE
  5
7DE1B343D9E3902
330
7DE1B343D9E39C9
100
AcDbEntity
  8
TEXT
100
AcDbPolyline
 90
        2
 70
     0
 43
0.0001332181640625
 10
0.3065625175890834
 20
-0.218009021681657
 10
0.3165538798937739
 20
-0.1447390314472809
  0
LWPOLYLINE
  5
7DE1B343D9E3906
330
7DE1B343D9E39C9
100
AcDbEntity
  8
TEXT
100
AcDbPolyline
 90
        5
 70
     0
 43
0.0001332181640625
 10
0.2665970683703354
 20
-0.0747994953144701
 10
0.2799188847765841
 20
-0.0747994953144701
 10
0.2799188847765841
 20
-0.0381645001972803
 10
0.3165538798937739
 20
-0.0381645001972803
 10
0.3165538798937739
 20
-0.0248426837910333
  0
LWPOLYLINE
  5
7DE1B343D9E390D
330
7DE1B343D9E39C9
100
AcDbEntity
  8
TEXT
100
AcDbPolyline
 90
        5
 70
     0
 43
0.0001332181640625
 10
0.3365366045031461
 20
-0.0248426837910333
 10
0.3365366045031461
 20
-0.0381645001972803
 10
0.373171599620336
 20
-0.0381645001972803
 10
0.373171599620336
 20
-0.0747994953144701
 10
0.3864934160265847
 20
-0.0747994953144701
  0
LWPOLYLINE
  5
7DE1B343D9E3914
330
7DE1B343D9E39C9
100
AcDbEntity
  8
TEXT
100
AcDbPolyline
 90
        2
 70
     0
 43
0.0001332181640625
 10
0.3465279668078349
 20
-0.1913653888691559
 10
0.3365366045031461
 20
-0.1314172150410304
  0
LWPOLYLINE
  5
7DE1B343D9E3918
330
7DE1B343D9E39C9
100
AcDbEntity
  8
TEXT
100
AcDbPolyline
 90
        2
 70
     0
 43
0.0001332181640625
 10
0.3365366045031461
 20
-0.1447390314472809
 10
0.3465279668078349
 20
-0.218009021681657
  0
LWPOLYLINE
  5
7DE1B343D9E391C
330
7DE1B343D9E39C9
100
AcDbEntity
  8
TEXT
100
AcDbPolyline
 90
        2
 70
     0
 43
0.0006660908203125
 10
0.3465279668078349
 20
-0.1913653888691559
 10
0.3465279668078349
 20
-0.218009021681657
  0
LWPOLYLINE
  5
7DE1B343D9E3920
330
7DE1B343D9E39C9
100
AcDbEntity
  8
TEXT
100
AcDbPolyline
 90
        5
 70
     0
 43
0.0001332181640625
 10
0.3864934160265847
 20
-0.0947822199238441
 10
0.373171599620336
 20
-0.0947822199238441
 10
0.373171599620336
 20
-0.1314172150410304
 10
0.3365366045031461
 20
-0.1314172150410304
 10
0.3365366045031461
 20
-0.1447390314472809
  0
LWPOLYLINE
  5
7DE1B343D9E3927
330
7DE1B343D9E39C9
100
AcDbEntity
  8
TEXT
100
AcDbPolyline
 90
        2
 70
     0
 43
0.0006660908203125
 10
0.4331197734484597
 20
-0.0648081330097813
 10
0.4597634062609608
 20
-0.0648081330097813
  0
LWPOLYLINE
  5
7DE1B343D9E392B
330
7DE1B343D9E39C9
100
AcDbEntity
  8
TEXT
100
AcDbPolyline
 90
        2
 70
     0
 43
0.0006660908203125
 10
0.4331197734484597
 20
-0.1047735822285293
 10
0.4597634062609608
 20
-0.1047735822285293
  0
LINE
  5
7DE1B343D9E392F
330
7DE1B343D9E39C9
100
AcDbEntity
  8
TEXT
100
AcDbLine
 10
0.7298775431089857
 20
-0.0158493882134227
 30
0.0
 11
0.8967831971379569
 21
-0.0158493882134227
 31
0.0
  0
LINE
  5
7DE1B343D9E3930
330
7DE1B343D9E39C9
100
AcDbEntity
  8
TEXT
100
AcDbLine
 10
0.7954776793532867
 20
-0.0516541098240506
 30
0.0
 11
0.7298775431089857
 21
-0.0516541098240506
 31
0.0
  0
LINE
  5
7DE1B343D9E3931
330
7DE1B343D9E39C9
100
AcDbEntity
  8
TEXT
100
AcDbLine
 10
0.642552753548234
 20
-0.2180457265451682
 30
0.0
 11
0.7954776793532867
 21
-0.2180457265451682
 31
0.0
  0
LINE
  5
7DE1B343D9E3932
330
7DE1B343D9E39C9
100
AcDbEntity
  8
TEXT
100
AcDbLine
 10
0.8004180532595663
 20
-0.1496887202117289
 30
0.0
 11
0.6425527535482323
 21
-0.1496887202117289
 31
0.0
  0
LINE
  5
7DE1B343D9E3933
330
7DE1B343D9E39C9
100
AcDbEntity
  8
TEXT
100
AcDbLine
 10
0.7246402129947376
 20
-0.1157476124496643
 30
0.0
 11
0.8004180532595663
 21
-0.1157476124496643
 31
0.0
  0
ARC
  5
7DE1B343D9E3934
330
7DE1B343D9E39C9
100
AcDbEntity
  8
TEXT
100
AcDbCircle
 10
0.7298775431089866
 20
-0.0337517490187349
 30
0.0
 40
0.017902360805315
100
AcDbArc
 50
90.0
 51
270.0
  0
LINE
  5
7DE1B343D9E3935
330
7DE1B343D9E39C9
100
AcDbEntity
  8
TEXT
100
AcDbLine
 10
0.6425527535482323
 20
-0.1496887202117289
 30
0.0
 11
0.642552753548234
 21
-0.2180457265451682
 31
0.0
  0
LINE
  5
7DE1B343D9E3936
330
7DE1B343D9E39C9
100
AcDbEntity
  8
TEXT
100
AcDbLine
 10
0.8967831971379569
 20
-0.0158493882134227
 30
0.0
 11
0.8967831971379569
 21
-0.1582533352071184
 31
0.0
  0
ARC
  5
7DE1B343D9E3937
330
7DE1B343D9E39C9
100
AcDbEntity
  8
TEXT
100
AcDbCircle
 10
0.7954776793532876
 20
-0.1348499181846112
 30
0.0
 40
0.0831958083605586
100
AcDbArc
 50
270.0
 51
90.0
  0
ARC
  5
7DE1B343D9E3938
330
7DE1B343D9E39C9
100
AcDbEntity
  8
TEXT
100
AcDbCircle
 10
0.8004180532595672
 20
-0.1327181663306948
 30
0.0
 40
0.0169705538810321
100
AcDbArc
 50
270.0
 51
90.0
  0
LWPOLYLINE
  5
7DE1B343D9E3939
330
7DE1B343D9E39C9
100
AcDbEntity
  8
TEXT
100
AcDbPolyline
 90
        2
 70
     0
 43
0.0006660908203125
 10
0.3065625175890834
 20
0.0217836736308453
 10
0.3065625175890834
 20
0.0484273064433463
  0
LWPOLYLINE
  5
7DE1B343D9E393D
330
7DE1B343D9E39C9
100
AcDbEntity
  8
TEXT
100
AcDbPolyline
 90
        2
 70
     0
 43
0.0006660908203125
 10
0.3465279668078349
 20
0.0217836736308453
 10
0.3465279668078349
 20
0.0484273064433463
  0
LINE
  5
7DE1B343D9E3941
330
7DE1B343D9E39C9
100
AcDbEntity
  8
TEXT
100
AcDbLine
 10
0.9003719658932498
 20
0.0484273064433428
 30
0.0
 11
0.7246402129947376
 21
0.0484273064433428
 31
0.0
  0
LINE
  5
7DE1B343D9E3942
330
7DE1B343D9E39C9
100
AcDbEntity
  8
TEXT
100
AcDbLine
 10
0.9003719658932498
 20
0.082815224037481
 30
0.0
 11
0.9003719658932498
 21
0.0484273064433428
 31
0.0
  0
LINE
  5
7DE1B343D9E3943
330
7DE1B343D9E39C9
100
AcDbEntity
  8
TEXT
100
AcDbLine
 10
1.090843857913102
 20
-0.0524446896697778
 30
0.0
 11
1.032213536881164
 21
0.0484273064433428
 31
0.0
  0
LINE
  5
7DE1B343D9E3944
330
7DE1B343D9E39C9
100
AcDbEntity
  8
TEXT
100
AcDbLine
 10
1.149592420718967
 20
0.0484273064433428
 30
0.0
 11
1.090843857913102
 21
-0.0524446896697778
 31
0.0
  0
LINE
  5
7DE1B343D9E3945
330
7DE1B343D9E39C9
100
AcDbEntity
  8
TEXT
100
AcDbLine
 10
1.246523046078708
 20
-0.135657888442169
 30
0.0
 11
1.246523046078708
 21
0.1164387841821533
 31
0.0
  0
LINE
  5
7DE1B343D9E3946
330
7DE1B343D9E39C9
100
AcDbEntity
  8
TEXT
100
AcDbLine
 10
1.278834900216369
 20
0.0484273064433428
 30
0.0
 11
1.278834900216369
 21
-0.1524369002890655
 31
0.0
  0
LINE
  5
7DE1B343D9E3947
330
7DE1B343D9E39C9
100
AcDbEntity
  8
TEXT
100
AcDbLine
 10
1.278834900216369
 20
-0.1524369002890655
 30
0.0
 11
1.261841263331767
 21
-0.1524369002890655
 31
0.0
  0
LINE
  5
7DE1B343D9E3948
330
7DE1B343D9E39C9
100
AcDbEntity
  8
TEXT
100
AcDbLine
 10
1.247662619574903
 20
-0.2180457265451682
 30
0.0
 11
1.345665953274338
 21
-0.2180457265451682
 31
0.0
  0
LINE
  5
7DE1B343D9E3949
330
7DE1B343D9E39C9
100
AcDbEntity
  8
TEXT
100
AcDbLine
 10
1.081243620916147
 20
-0.1980872204401553
 30
0.0
 11
1.178543327009592
 21
-0.0337370095048872
 31
0.0
  0
ARC
  5
7DE1B343D9E394A
330
7DE1B343D9E39C9
100
AcDbEntity
  8
TEXT
100
AcDbCircle
 10
1.047200061003933
 20
-0.1784980042714725
 30
0.0
 40
0.0392772371940762
100
AcDbArc
 50
270.1604552698595
 51
330.0831797321295
  0
LINE
  5
7DE1B343D9E394B
330
7DE1B343D9E39C9
100
AcDbEntity
  8
TEXT
100
AcDbLine
 10
0.9506698046180625
 20
-0.2180457265451682
 30
0.0
 11
1.047310055693057
 21
-0.217775087446886
 31
0.0
  0
LWPOLYLINE
  5
7DE1B343D9E394C
330
7DE1B343D9E39C9
100
AcDbEntity
  8
TEXT
100
AcDbPolyline
 90
        6
 70
     1
 43
0.0
 10
0.9931936081932121
 20
-0.0158493882134227
 10
0.962877013973004
 20
-0.0158493882134227
 10
0.962877013973004
 20
-0.138960386268317
 42
0.407328721240804
 10
0.9744206651344804
 20
-0.1507793009447031
 10
1.035042364179211
 20
-0.1507793009447031
 10
1.052507704586529
 20
-0.117967071901224
  0
LINE
  5
7DE1B343D9E3954
330
7DE1B343D9E39C9
100
AcDbEntity
  8
TEXT
100
AcDbLine
 10
1.178543327009592
 20
-0.0337370095048872
 30
0.0
 11
1.178543327009592
 21
-0.1664943843302435
 31
0.0
  0
ARC
  5
7DE1B343D9E3955
330
7DE1B343D9E39C9
100
AcDbEntity
  8
TEXT
100
AcDbCircle
 10
1.261841263331765
 20
-0.13705509404564
 30
0.0
 40
0.0153818062434269
100
AcDbArc
 50
174.7883570302258
 51
270.0
  0
LWPOLYLINE
  5
7DE1B343D9E3956
330
7DE1B343D9E39C9
100
AcDbEntity
  8
TEXT
100
AcDbPolyline
 90
        2
 70
     0
 43
0.0
 10
1.17854332700959
 20
-0.1664943843302399
 42
0.3318488747599744
 10
1.247662619574903
 20
-0.2180457265451682
 42
-6.868794160588311
  0
LINE
  5
7DE1B343D9E395A
330
7DE1B343D9E39C9
100
AcDbEntity
  8
TEXT
100
AcDbLine
 10
1.403055022263599
 20
-0.2180457265451682
 30
0.0
 11
1.470113069045439
 21
-0.2180457265451682
 31
0.0
  0
LINE
  5
7DE1B343D9E395B
330
7DE1B343D9E39C9
100
AcDbEntity
  8
TEXT
100
AcDbLine
 10
1.403055022263599
 20
-0.0234031773795326
 30
0.0
 11
1.403055022263599
 21
-0.2180457265451682
 31
0.0
  0
LINE
  5
7DE1B343D9E395C
330
7DE1B343D9E39C9
100
AcDbEntity
  8
TEXT
100
AcDbLine
 10
1.345665953274338
 20
-0.0158493882134227
 30
0.0
 11
1.395501233097485
 21
-0.0158493882134227
 31
0.0
  0
LINE
  5
7DE1B343D9E395D
330
7DE1B343D9E39C9
100
AcDbEntity
  8
TEXT
100
AcDbLine
 10
1.345665953274338
 20
-0.2180457265451682
 30
0.0
 11
1.345665953274338
 21
-0.0158493882134227
 31
0.0
  0
LWPOLYLINE
  5
7DE1B343D9E395E
330
7DE1B343D9E39C9
100
AcDbEntity
  8
TEXT
100
AcDbPolyline
 90
        2
 70
     0
 43
0.0
 10
1.395501233097484
 20
-0.0158493882134227
 42
-0.4142135623731017
 10
1.403055022263597
 20
-0.0234031773795326
 42
-0.9999999999999998
  0
LINE
  5
7DE1B343D9E3962
330
7DE1B343D9E39C9
100
AcDbEntity
  8
TEXT
100
AcDbLine
 10
1.601311233875169
 20
-0.0158493882134227
 30
0.0
 11
1.601311233875169
 21
-0.0909017942876293
 31
0.0
  0
LINE
  5
7DE1B343D9E3963
330
7DE1B343D9E39C9
100
AcDbEntity
  8
TEXT
100
AcDbLine
 10
1.470113069045439
 20
-0.0158493882134227
 30
0.0
 11
1.524246665966389
 21
-0.0158493882134227
 31
0.0
  0
LINE
  5
7DE1B343D9E3964
330
7DE1B343D9E39C9
100
AcDbEntity
  8
TEXT
100
AcDbLine
 10
1.470113069045439
 20
-0.2180457265451682
 30
0.0
 11
1.470113069045439
 21
-0.0158493882134227
 31
0.0
  0
LWPOLYLINE
  5
7DE1B343D9E3965
330
7DE1B343D9E39C9
100
AcDbEntity
  8
TEXT
100
AcDbPolyline
 90
        2
 70
     0
 43
0.0
 10
1.524246665966387
 20
-0.0158493882134227
 42
-0.4142135623731017
 10
1.531800455132501
 20
-0.0234031773795326
 42
-0.9999999999999998
  0
LWPOLYLINE
  5
7DE1B343D9E3969
330
7DE1B343D9E39C9
100
AcDbEntity
  8
TEXT
100
AcDbPolyline
 90
        4
 70
     0
 43
0.0
 10
1.531800455132501
 20
-0.0234031773795326
 10
1.531800455132501
 20
-0.2180457265451682
 10
1.600278738420359
 20
-0.2180457265451682
 10
1.600278738420359
 20
-0.1745547815947301
 42
-1.714843617202739
  0
LINE
  5
7DE1B343D9E396F
330
7DE1B343D9E39C9
100
AcDbEntity
  8
TEXT
100
AcDbLine
 10
0.9604145707372568
 20
0.0484273064433428
 30
0.0
 11
0.9604145707372568
 21
0.082815224037481
 31
0.0
  0
LINE
  5
7DE1B343D9E3970
330
7DE1B343D9E39C9
100
AcDbEntity
  8
TEXT
100
AcDbLine
 10
1.032213536881164
 20
0.0484273064433428
 30
0.0
 11
0.9604145707372568
 21
0.0484273064433428
 31
0.0
  0
LINE
  5
7DE1B343D9E3971
330
7DE1B343D9E39C9
100
AcDbEntity
  8
TEXT
100
AcDbLine
 10
1.179714333512343
 20
0.0484273064433428
 30
0.0
 11
1.149592420718967
 21
0.0484273064433428
 31
0.0
  0
LINE
  5
7DE1B343D9E3972
330
7DE1B343D9E39C9
100
AcDbEntity
  8
TEXT
100
AcDbLine
 10
1.179714333512343
 20
0.1164387841821533
 30
0.0
 11
1.179714333512343
 21
0.0484273064433428
 31
0.0
  0
LINE
  5
7DE1B343D9E3973
330
7DE1B343D9E39C9
100
AcDbEntity
  8
TEXT
100
AcDbLine
 10
1.246523046078708
 20
0.1164387841821533
 30
0.0
 11
1.179714333512343
 21
0.1164387841821533
 31
0.0
  0
LWPOLYLINE
  5
7DE1B343D9E3974
330
7DE1B343D9E39C9
100
AcDbEntity
  8
TEXT
100
AcDbPolyline
 90
        3
 70
     0
 43
0.0
 10
1.566934805676711
 20
0.0484273064433463
 10
1.448634646860666
 20
0.0484273064433463
 10
1.448634646860666
 20
0.0212598096824504
 42
-1.960274751411753
  0
LINE
  5
7DE1B343D9E3979
330
7DE1B343D9E39C9
100
AcDbEntity
  8
TEXT
100
AcDbLine
 10
1.412852956147505
 20
0.0484273064433428
 30
0.0
 11
1.278834900216369
 21
0.0484273064433428
 31
0.0
  0
LWPOLYLINE
  5
7DE1B343D9E397A
330
7DE1B343D9E39C9
100
AcDbEntity
  8
TEXT
100
AcDbPolyline
 90
        2
 70
     0
 43
0.0
 10
1.412852956147505
 20
0.0484273064433463
 42
-0.3328679258950098
 10
1.448634646860666
 20
0.0212598096824504
 42
6.772930709997214
  0
LINE
  5
7DE1B343D9E397E
330
7DE1B343D9E39C9
100
AcDbEntity
  8
TEXT
100
AcDbLine
 10
1.602716496389877
 20
0.0484273064433428
 30
0.0
 11
1.602716496389877
 21
0.0201047606736989
 31
0.0
  0
LWPOLYLINE
  5
7DE1B343D9E397F
330
7DE1B343D9E39C9
100
AcDbEntity
  8
TEXT
100
AcDbPolyline
 90
        2
 70
     0
 43
0.0
 10
1.566934805676711
 20
0.0484273064433463
 42
-0.3277054968067132
 10
1.602716496389876
 20
0.0201047606737024
 42
6.667889725900311
  0
LINE
  5
7DE1B343D9E3983
330
7DE1B343D9E39C9
100
AcDbEntity
  8
TEXT
100
AcDbLine
 10
1.816508344481978
 20
-0.0567846721100846
 30
0.0
 11
1.772757573300076
 21
0.0254656038860606
 31
0.0
  0
LINE
  5
7DE1B343D9E3984
330
7DE1B343D9E39C9
100
AcDbEntity
  8
TEXT
100
AcDbLine
 10
1.816508344481978
 20
0.0484273064433428
 30
0.0
 11
1.816508344481978
 21
-0.0567846721100846
 31
0.0
  0
LINE
  5
7DE1B343D9E3985
330
7DE1B343D9E39C9
100
AcDbEntity
  8
TEXT
100
AcDbLine
 10
2.044192083420346
 20
-0.0274380199681954
 30
0.0
 11
2.044192083420346
 21
0.1138915122109434
 31
0.0
  0
LINE
  5
7DE1B343D9E3986
330
7DE1B343D9E39C9
100
AcDbEntity
  8
TEXT
100
AcDbLine
 10
2.091290241976331
 20
0.0484273064433428
 30
0.0
 11
2.044192083420346
 21
-0.0274380199681954
 31
0.0
  0
LINE
  5
7DE1B343D9E3987
330
7DE1B343D9E39C9
100
AcDbEntity
  8
TEXT
100
AcDbLine
 10
2.101724958740254
 20
-0.0614659364976308
 30
0.0
 11
2.166282074705959
 21
0.0484273064433428
 31
0.0
  0
LINE
  5
7DE1B343D9E3988
330
7DE1B343D9E39C9
100
AcDbEntity
  8
TEXT
100
AcDbLine
 10
1.980357092197573
 20
-0.2180457265451682
 30
0.0
 11
2.044735276516194
 21
-0.2180457265451682
 31
0.0
  0
LWPOLYLINE
  5
7DE1B343D9E3989
330
7DE1B343D9E39C9
100
AcDbEntity
  8
TEXT
100
AcDbPolyline
 90
        2
 70
     0
 43
0.0
 10
1.820448021787015
 20
-0.1745547815947301
 42
-0.2901071551932486
 10
1.777372088919371
 20
-0.2180457265451682
 42
-5.328517124445184
  0
ARC
  5
7DE1B343D9E398D
330
7DE1B343D9E39C9
100
AcDbEntity
  8
TEXT
100
AcDbCircle
 10
1.708517507262456
 20
-0.04420876321342
 30
0.0
 40
0.028359375
100
AcDbArc
 50
25.78218179591245
 51
90.0
  0
LINE
  5
7DE1B343D9E398E
330
7DE1B343D9E39C9
100
AcDbEntity
  8
TEXT
100
AcDbLine
 10
1.744318582566579
 20
-0.053124361675555
 30
0.0
 11
1.734053822153015
 21
-0.0318738221028607
 31
0.0
  0
LINE
  5
7DE1B343D9E398F
330
7DE1B343D9E39C9
100
AcDbEntity
  8
TEXT
100
AcDbLine
 10
1.662030592783196
 20
-0.053124361675555
 30
0.0
 11
1.744318582566579
 21
-0.053124361675555
 31
0.0
  0
LWPOLYLINE
  5
7DE1B343D9E3990
330
7DE1B343D9E39C9
100
AcDbEntity
  8
TEXT
100
AcDbPolyline
 90
        4
 70
     1
 43
0.0
 10
1.757249623849478
 20
-0.115081748561143
 10
1.66858930518962
 20
-0.115081748561143
 42
0.9999999999999998
 10
1.66858930518962
 20
-0.1574802890650037
 10
1.757249623849478
 20
-0.1574802890650037
 42
1.0
  0
LWPOLYLINE
  5
7DE1B343D9E3996
330
7DE1B343D9E39C9
100
AcDbEntity
  8
TEXT
100
AcDbPolyline
 90
        2
 70
     0
 43
0.0
 10
1.643354671287994
 20
-0.2180457265451682
 10
1.777372088919371
 20
-0.2180457265451682
 42
0.9999999999999998
  0
LINE
  5
7DE1B343D9E399A
330
7DE1B343D9E39C9
100
AcDbEntity
  8
TEXT
100
AcDbLine
 10
1.90370911090501
 20
-0.0158493882134227
 30
0.0
 11
1.980357092197568
 21
-0.0158493882134227
 31
0.0
  0
LINE
  5
7DE1B343D9E399B
330
7DE1B343D9E39C9
100
AcDbEntity
  8
TEXT
100
AcDbLine
 10
1.980357092197568
 20
-0.0158493882134227
 30
0.0
 11
1.980357092197573
 21
-0.2180457265451682
 31
0.0
  0
ARC
  5
7DE1B343D9E399C
330
7DE1B343D9E39C9
100
AcDbEntity
  8
TEXT
100
AcDbCircle
 10
1.903709110905009
 20
-0.0407552634960855
 30
0.0
 40
0.0249058752826653
100
AcDbArc
 50
89.99971217465335
 51
179.9999999999985
  0
LINE
  5
7DE1B343D9E399D
330
7DE1B343D9E39C9
100
AcDbEntity
  8
TEXT
100
AcDbLine
 10
1.878803235622351
 20
-0.2180457265451682
 30
0.0
 11
1.878803235622346
 21
-0.0407552211136998
 31
0.0
  0
LWPOLYLINE
  5
7DE1B343D9E399E
330
7DE1B343D9E39C9
100
AcDbEntity
  8
TEXT
100
AcDbPolyline
 90
        2
 70
     0
 43
0.0
 10
1.820448021787015
 20
-0.2180457265451682
 10
1.878803235622349
 20
-0.2180457265451682
  0
LWPOLYLINE
  5
7DE1B343D9E39A2
330
7DE1B343D9E39C9
100
AcDbEntity
  8
TEXT
100
AcDbPolyline
 90
        2
 70
     0
 43
0.0
 10
1.820448021787015
 20
-0.1745547815947301
 10
1.820448021787015
 20
-0.2180457265451682
  0
LINE
  5
7DE1B343D9E39A6
330
7DE1B343D9E39C9
100
AcDbEntity
  8
TEXT
100
AcDbLine
 10
2.197217182103864
 20
-0.2180457265451682
 30
0.0
 11
2.101724958740254
 21
-0.0614659364976308
 31
0.0
  0
LINE
  5
7DE1B343D9E39A7
330
7DE1B343D9E39C9
100
AcDbEntity
  8
TEXT
100
AcDbLine
 10
2.120638809727658
 20
-0.2180457265451682
 30
0.0
 11
2.197217182103864
 21
-0.2180457265451682
 31
0.0
  0
LINE
  5
7DE1B343D9E39A8
330
7DE1B343D9E39C9
100
AcDbEntity
  8
TEXT
100
AcDbLine
 10
2.044735276516194
 20
-0.086466158068988
 30
0.0
 11
2.120638809727658
 21
-0.2180457265451682
 31
0.0
  0
LINE
  5
7DE1B343D9E39A9
330
7DE1B343D9E39C9
100
AcDbEntity
  8
TEXT
100
AcDbLine
 10
2.044735276516194
 20
-0.2180457265451682
 30
0.0
 11
2.044735276516194
 21
-0.086466158068988
 31
0.0
  0
LINE
  5
7DE1B343D9E39AA
330
7DE1B343D9E39C9
100
AcDbEntity
  8
TEXT
100
AcDbLine
 10
2.044192083420346
 20
0.1138915122109434
 30
0.0
 11
1.975877204871073
 21
0.1138915122109434
 31
0.0
  0
ARC
  5
7DE1B343D9E39AB
330
7DE1B343D9E39C9
100
AcDbEntity
  8
TEXT
100
AcDbCircle
 10
1.735521465829867
 20
0.0068437393224404
 30
0.0
 40
0.0416329381542859
100
AcDbArc
 50
26.56974201007528
 51
87.20939649401342
  0
LINE
  5
7DE1B343D9E39AC
330
7DE1B343D9E39C9
100
AcDbEntity
  8
TEXT
100
AcDbLine
 10
1.880405250781478
 20
0.0484273064433428
 30
0.0
 11
1.816508344481978
 21
0.0484273064433428
 31
0.0
  0
LINE
  5
7DE1B343D9E39AD
330
7DE1B343D9E39C9
100
AcDbEntity
  8
TEXT
100
AcDbLine
 10
1.880405250781478
 20
0.0208796565824681
 30
0.0
 11
1.880405250781478
 21
0.0484273064433428
 31
0.0
  0
ARC
  5
7DE1B343D9E39AE
330
7DE1B343D9E39C9
100
AcDbEntity
  8
TEXT
100
AcDbCircle
 10
1.911598067844586
 20
0.0171815791610779
 30
0.0
 40
0.0314112657011332
100
AcDbArc
 50
95.88484768694724
 51
173.2388340632136
  0
LINE
  5
7DE1B343D9E39AF
330
7DE1B343D9E39C9
100
AcDbEntity
  8
TEXT
100
AcDbLine
 10
1.975877204871068
 20
0.0484273064433428
 30
0.0
 11
1.908377487221551
 21
0.0484273064433428
 31
0.0
  0
LINE
  5
7DE1B343D9E39B0
330
7DE1B343D9E39C9
100
AcDbEntity
  8
TEXT
100
AcDbLine
 10
1.975877204871073
 20
0.1138915122109434
 30
0.0
 11
1.975877204871068
 21
0.0484273064433428
 31
0.0
  0
LINE
  5
7DE1B343D9E39B1
330
7DE1B343D9E39C9
100
AcDbEntity
  8
TEXT
100
AcDbLine
 10
2.166282074705959
 20
0.0484273064433428
 30
0.0
 11
2.091290241976333
 21
0.0484273064433428
 31
0.0
  0
ENDSEC
  0
SECTION
  2
OBJECTS
  0
DICTIONARY
  5
7DE1B343D9E39BD
330
0
100
AcDbDictionary
  3
ACAD_GROUP
350
7DE1B343D9E39BE
  3
ACAD_LAYOUT
350
7DE1B343D9E39E9
  3
ACAD_MLINESTYLE
350
7DE1B343D9E39BF
  3
ACAD_PLOTSETTINGS
350
7DE1B343D9E39EA
  3
ACAD_PLOTSTYLENAME
350
7DE1B343D9E39E7
  3
ACDBHEADERROUNDTRIPXREC
350
7DE1B343D9E39F4
  3
ACDBVARIABLEDICTIONARY
350
7DE1B343D9E39F1
  0
DICTIONARY
  5
7DE1B343D9E3A16
330
7DE1B343D9E39C9
100
AcDbDictionary
280
     1
  3
ACAD_LAYOUTSELFREF
360
7DE1B343D9E3A17
  0
DICTIONARY
  5
7DE1B343D9E3A14
330
7DE1B343D9E39C6
100
AcDbDictionary
280
     1
  3
ACAD_LAYOUTSELFREF
360
7DE1B343D9E3A15
  0
DICTIONARY
  5
7DE1B343D9E39BE
102
{ACAD_REACTORS
330
7DE1B343D9E39BD
102
}
330
7DE1B343D9E39BD
100
AcDbDictionary
  0
DICTIONARY
  5
7DE1B343D9E39E9
102
{ACAD_REACTORS
330
7DE1B343D9E39BD
102
}
330
7DE1B343D9E39BD
100
AcDbDictionary
  0
DICTIONARY
  5
7DE1B343D9E39BF
102
{ACAD_REACTORS
330
7DE1B343D9E39BD
102
}
330
7DE1B343D9E39BD
100
AcDbDictionary
  3
STANDARD
350
7DE1B343D9E39CC
  0
DICTIONARY
  5
7DE1B343D9E39EA
102
{ACAD_REACTORS
330
7DE1B343D9E39BD
102
}
330
7DE1B343D9E39BD
100
AcDbDictionary
  0
ACDBDICTIONARYWDFLT
  5
7DE1B343D9E39E7
102
{ACAD_REACTORS
330
7DE1B343D9E39BD
102
}
330
7DE1B343D9E39BD
100
AcDbDictionary
281
     1
  3
Normal
350
7DE1B343D9E39E8
100
AcDbDictionaryWithDefault
340
7DE1B343D9E39E8
  0
DICTIONARY
  5
7DE1B343D9E39F4
102
{ACAD_REACTORS
330
7DE1B343D9E39BD
102
}
330
7DE1B343D9E39BD
100
AcDbDictionary
  3
CEPSNTYPE
350
7DE1B343D9E39FE
  3
FINGERPRINTGUID
350
7DE1B343D9E39FF
  3
HYPERLINKBASE
350
7DE1B343D9E39F7
  3
INSUNITS
350
7DE1B343D9E39FD
  3
LAYOUTDICT
350
7DE1B343D9E39F9
  3
LWETCUNION
350
7DE1B343D9E39FC
  3
PLOTSETDICT
350
7DE1B343D9E39FA
  3
PLOTSTYLNAMDICT
350
7DE1B343D9E39FB
  3
PSVPSCALE
350
7DE1B343D9E3A01
  3
PUCSBASE
350
7DE1B343D9E3A04
  3
PUCSORGBACK
350
7DE1B343D9E3A0A
  3
PUCSORGBOTTOM
350
7DE1B343D9E3A06
  3
PUCSORGFRONT
350
7DE1B343D9E3A09
  3
PUCSORGLEFT
350
7DE1B343D9E3A07
  3
PUCSORGRIGHT
350
7DE1B343D9E3A08
  3
PUCSORGTOP
350
7DE1B343D9E3A05
  3
PUCSORTHOREF
350
7DE1B343D9E3A02
  3
PUCSORTHOVIEW
350
7DE1B343D9E3A03
  3
STYLESHEET
350
7DE1B343D9E39F8
  3
TSTACKALIGN
350
7DE1B343D9E39F5
  3
TSTACKSIZE
350
7DE1B343D9E39F6
  3
UCSBASE
350
7DE1B343D9E3A0D
  3
UCSORGBACK
350
7DE1B343D9E3A13
  3
UCSORGBOTTOM
350
7DE1B343D9E3A0F
  3
UCSORGFRONT
350
7DE1B343D9E3A12
  3
UCSORGLEFT
350
7DE1B343D9E3A10
  3
UCSORGRIGHT
350
7DE1B343D9E3A11
  3
UCSORGTOP
350
7DE1B343D9E3A0E
  3
UCSORTHOREF
350
7DE1B343D9E3A0B
  3
UCSORTHOVIEW
350
7DE1B343D9E3A0C
  3
VERSIONGUID
350
7DE1B343D9E3A00
  0
DICTIONARY
  5
7DE1B343D9E39F1
102
{ACAD_REACTORS
330
7DE1B343D9E39BD
102
}
330
7DE1B343D9E39BD
100
AcDbDictionary
  3
DIMASSOC
350
7DE1B343D9E39F2
  0
XRECORD
  5
7DE1B343D9E3A17
102
{ACAD_REACTORS
330
7DE1B343D9E3A16
102
}
330
7DE1B343D9E3A16
100
AcDbXrecord
340
7DE1B343D9E39C9
  0
XRECORD
  5
7DE1B343D9E3A15
102
{ACAD_REACTORS
330
7DE1B343D9E3A14
102
}
330
7DE1B343D9E3A14
100
AcDbXrecord
340
7DE1B343D9E39C6
  0
MLINESTYLE
  5
7DE1B343D9E39CC
102
{ACAD_REACTORS
330
7DE1B343D9E39BF
102
}
330
7DE1B343D9E39BF
100
AcDbMlineStyle
  2
STANDARD
 70
     0
  3

 62
     0
 51
90.0
 52
90.0
 71
     2
 49
0.5
 62
   256
  6
BYLAYER
 49
-0.5
 62
   256
  6
BYLAYER
  0
ACDBPLACEHOLDER
  5
7DE1B343D9E39E8
102
{ACAD_REACTORS
330
7DE1B343D9E39E7
102
}
330
7DE1B343D9E39E7
100
AcDbPlaceHolder
280
     0
  0
XRECORD
  5
7DE1B343D9E39FE
102
{ACAD_REACTORS
330
7DE1B343D9E39F4
102
}
330
7DE1B343D9E39F4
100
AcDbXrecord
 90
        0
  0
XRECORD
  5
7DE1B343D9E39FF
102
{ACAD_REACTORS
330
7DE1B343D9E39F4
102
}
330
7DE1B343D9E39F4
100
AcDbXrecord
  1
{892AF9A0-8DB9-11D6-88E6-0090279574E7}
  0
XRECORD
  5
7DE1B343D9E39F7
102
{ACAD_REACTORS
330
7DE1B343D9E39F4
102
}
330
7DE1B343D9E39F4
100
AcDbXrecord
  1

  0
XRECORD
  5
7DE1B343D9E39FD
102
{ACAD_REACTORS
330
7DE1B343D9E39F4
102
}
330
7DE1B343D9E39F4
100
AcDbXrecord
 90
        0
  0
XRECORD
  5
7DE1B343D9E39F9
102
{ACAD_REACTORS
330
7DE1B343D9E39F4
102
}
330
7DE1B343D9E39F4
100
AcDbXrecord
340
7DE1B343D9E39E9
  0
XRECORD
  5
7DE1B343D9E39FC
102
{ACAD_REACTORS
330
7DE1B343D9E39F4
102
}
330
7DE1B343D9E39F4
100
AcDbXrecord
 90
    14877
  0
XRECORD
  5
7DE1B343D9E39FA
102
{ACAD_REACTORS
330
7DE1B343D9E39F4
102
}
330
7DE1B343D9E39F4
100
AcDbXrecord
340
7DE1B343D9E39EA
  0
XRECORD
  5
7DE1B343D9E39FB
102
{ACAD_REACTORS
330
7DE1B343D9E39F4
102
}
330
7DE1B343D9E39F4
100
AcDbXrecord
340
7DE1B343D9E39E7
  0
XRECORD
  5
7DE1B343D9E3A01
102
{ACAD_REACTORS
330
7DE1B343D9E39F4
102
}
330
7DE1B343D9E39F4
100
AcDbXrecord
 40
0.0
  0
XRECORD
  5
7DE1B343D9E3A04
102
{ACAD_REACTORS
330
7DE1B343D9E39F4
102
}
330
7DE1B343D9E39F4
100
AcDbXrecord
340
0
  0
XRECORD
  5
7DE1B343D9E3A0A
102
{ACAD_REACTORS
330
7DE1B343D9E39F4
102
}
330
7DE1B343D9E39F4
100
AcDbXrecord
 10
0.0
 20
0.0
 30
0.0
  0
XRECORD
  5
7DE1B343D9E3A06
102
{ACAD_REACTORS
330
7DE1B343D9E39F4
102
}
330
7DE1B343D9E39F4
100
AcDbXrecord
 10
0.0
 20
0.0
 30
0.0
  0
XRECORD
  5
7DE1B343D9E3A09
102
{ACAD_REACTORS
330
7DE1B343D9E39F4
102
}
330
7DE1B343D9E39F4
100
AcDbXrecord
 10
0.0
 20
0.0
 30
0.0
  0
XRECORD
  5
7DE1B343D9E3A07
102
{ACAD_REACTORS
330
7DE1B343D9E39F4
102
}
330
7DE1B343D9E39F4
100
AcDbXrecord
 10
0.0
 20
0.0
 30
0.0
  0
XRECORD
  5
7DE1B343D9E3A08
102
{ACAD_REACTORS
330
7DE1B343D9E39F4
102
}
330
7DE1B343D9E39F4
100
AcDbXrecord
 10
0.0
 20
0.0
 30
0.0
  0
XRECORD
  5
7DE1B343D9E3A05
102
{ACAD_REACTORS
330
7DE1B343D9E39F4
102
}
330
7DE1B343D9E39F4
100
AcDbXrecord
 10
0.0
 20
0.0
 30
0.0
  0
XRECORD
  5
7DE1B343D9E3A02
102
{ACAD_REACTORS
330
7DE1B343D9E39F4
102
}
330
7DE1B343D9E39F4
100
AcDbXrecord
340
0
  0
XRECORD
  5
7DE1B343D9E3A03
102
{ACAD_REACTORS
330
7DE1B343D9E39F4
102
}
330
7DE1B343D9E39F4
100
AcDbXrecord
 70
     0
  0
XRECORD
  5
7DE1B343D9E39F8
102
{ACAD_REACTORS
330
7DE1B343D9E39F4
102
}
330
7DE1B343D9E39F4
100
AcDbXrecord
  1

  0
XRECORD
  5
7DE1B343D9E39F5
102
{ACAD_REACTORS
330
7DE1B343D9E39F4
102
}
330
7DE1B343D9E39F4
100
AcDbXrecord
 90
        1
  0
XRECORD
  5
7DE1B343D9E39F6
102
{ACAD_REACTORS
330
7DE1B343D9E39F4
102
}
330
7DE1B343D9E39F4
100
AcDbXrecord
 90
       70
  0
XRECORD
  5
7DE1B343D9E3A0D
102
{ACAD_REACTORS
330
7DE1B343D9E39F4
102
}
330
7DE1B343D9E39F4
100
AcDbXrecord
340
0
  0
XRECORD
  5
7DE1B343D9E3A13
102
{ACAD_REACTORS
330
7DE1B343D9E39F4
102
}
330
7DE1B343D9E39F4
100
AcDbXrecord
 10
0.0
 20
0.0
 30
0.0
  0
XRECORD
  5
7DE1B343D9E3A0F
102
{ACAD_REACTORS
330
7DE1B343D9E39F4
102
}
330
7DE1B343D9E39F4
100
AcDbXrecord
 10
0.0
 20
0.0
 30
0.0
  0
XRECORD
  5
7DE1B343D9E3A12
102
{ACAD_REACTORS
330
7DE1B343D9E39F4
102
}
330
7DE1B343D9E39F4
100
AcDbXrecord
 10
0.0
 20
0.0
 30
0.0
  0
XRECORD
  5
7DE1B343D9E3A10
102
{ACAD_REACTORS
330
7DE1B343D9E39F4
102
}
330
7DE1B343D9E39F4
100
AcDbXrecord
 10
0.0
 20
0.0
 30
0.0
  0
XRECORD
  5
7DE1B343D9E3A11
102
{ACAD_REACTORS
330
7DE1B343D9E39F4
102
}
330
7DE1B343D9E39F4
100
AcDbXrecord
 10
0.0
 20
0.0
 30
0.0
  0
XRECORD
  5
7DE1B343D9E3A0E
102
{ACAD_REACTORS
330
7DE1B343D9E39F4
102
}
330
7DE1B343D9E39F4
100
AcDbXrecord
 10
0.0
 20
0.0
 30
0.0
  0
XRECORD
  5
7DE1B343D9E3A0B
102
{ACAD_REACTORS
330
7DE1B343D9E39F4
102
}
330
7DE1B343D9E39F4
100
AcDbXrecord
340
0
  0
XRECORD
  5
7DE1B343D9E3A0C
102
{ACAD_REACTORS
330
7DE1B343D9E39F4
102
}
330
7DE1B343D9E39F4
100
AcDbXrecord
 70
     0
  0
XRECORD
  5
7DE1B343D9E3A00
102
{ACAD_REACTORS
330
7DE1B343D9E39F4
102
}
330
7DE1B343D9E39F4
100
AcDbXrecord
  1
{892AF9A2-8DB9-11D6-88E6-0090279574E7}
  0
DICTIONARYVAR
  5
7DE1B343D9E39F2
102
{ACAD_REACTORS
330
7DE1B343D9E39F1
102
}
330
7DE1B343D9E39F1
100
DictionaryVariables
280
     0
  1
1
  0
ENDSEC
  0
EOF
