  0
SECTION
  2
HEADER
  9
$ACADVER
  1
AC1014
  9
$ACADMAINTVER
 70
     9
  9
$DWGCODEPAGE
  3
ANSI_1252
  9
$INSBASE
 10
1.594512195996486
 20
1.77014674289126
 30
0.0
  9
$EXTMIN
 10
-0.1641105321131649
 20
0.4696331430955193
 30
0.0
  9
$EXTMAX
 10
3.321108789633962
 20
2.399809680406444
 30
0.0
  9
$LIMMIN
 10
0.0
 20
0.0
  9
$LIMMAX
 10
18.0
 20
12.0
  9
$ORTHOMODE
 70
     1
  9
$REGENMODE
 70
     1
  9
$FILLMODE
 70
     1
  9
$QTEXTMODE
 70
     0
  9
$MIRRTEXT
 70
     0
  9
$DRAGMODE
 70
     2
  9
$LTSCALE
 40
1.0
  9
$OSMODE
 70
    39
  9
$ATTMODE
 70
     1
  9
$TEXTSIZE
 40
0.125
  9
$TRACEWID
 40
0.05
  9
$TEXTSTYLE
  7
ROMANS
  9
$CLAYER
  8
0
  9
$CELTYPE
  6
BYLAYER
  9
$CECOLOR
 62
   256
  9
$CELTSCALE
 40
1.0
  9
$DELOBJ
 70
     1
  9
$DISPSILH
 70
     1
  9
$DIMSCALE
 40
1.0
  9
$DIMASZ
 40
0.125
  9
$DIMEXO
 40
0.125
  9
$DIMDLI
 40
0.375
  9
$DIMRND
 40
0.0
  9
$DIMDLE
 40
0.0
  9
$DIMEXE
 40
0.125
  9
$DIMTP
 40
0.0
  9
$DIMTM
 40
0.0
  9
$DIMTXT
 40
0.125
  9
$DIMCEN
 40
-0.125
  9
$DIMTSZ
 40
0.0
  9
$DIMTOL
 70
     0
  9
$DIMLIM
 70
     0
  9
$DIMTIH
 70
     1
  9
$DIMTOH
 70
     1
  9
$DIMSE1
 70
     0
  9
$DIMSE2
 70
     0
  9
$DIMTAD
 70
     0
  9
$DIMZIN
 70
     4
  9
$DIMBLK
  1

  9
$DIMASO
 70
     1
  9
$DIMSHO
 70
     1
  9
$DIMPOST
  1

  9
$DIMAPOST
  1

  9
$DIMALT
 70
     0
  9
$DIMALTD
 70
     2
  9
$DIMALTF
 40
25.4
  9
$DIMLFAC
 40
1.0
  9
$DIMTOFL
 70
     0
  9
$DIMTVP
 40
0.0
  9
$DIMTIX
 70
     1
  9
$DIMSOXD
 70
     0
  9
$DIMSAH
 70
     0
  9
$DIMBLK1
  1

  9
$DIMBLK2
  1

  9
$DIMSTYLE
  2
STANDARD
  9
$DIMCLRD
 70
     0
  9
$DIMCLRE
 70
     0
  9
$DIMCLRT
 70
     0
  9
$DIMTFAC
 40
1.0
  9
$DIMGAP
 40
0.09
  9
$DIMJUST
 70
     0
  9
$DIMSD1
 70
     0
  9
$DIMSD2
 70
     0
  9
$DIMTOLJ
 70
     1
  9
$DIMTZIN
 70
     4
  9
$DIMALTZ
 70
     0
  9
$DIMALTTZ
 70
     0
  9
$DIMFIT
 70
     3
  9
$DIMUPT
 70
     0
  9
$DIMUNIT
 70
     2
  9
$DIMDEC
 70
     3
  9
$DIMTDEC
 70
     3
  9
$DIMALTU
 70
     2
  9
$DIMALTTD
 70
     2
  9
$DIMTXSTY
  7
ROMANS
  9
$DIMAUNIT
 70
     0
  9
$LUNITS
 70
     2
  9
$LUPREC
 70
     3
  9
$SKETCHINC
 40
0.1
  9
$FILLETRAD
 40
0.03125
  9
$AUNITS
 70
     0
  9
$AUPREC
 70
     0
  9
$MENU
  1
ACAD
  9
$ELEVATION
 40
0.0
  9
$PELEVATION
 40
0.0
  9
$THICKNESS
 40
0.0
  9
$LIMCHECK
 70
     0
  9
$BLIPMODE
 70
     0
  9
$CHAMFERA
 40
0.0
  9
$CHAMFERB
 40
0.0
  9
$CHAMFERC
 40
0.0
  9
$CHAMFERD
 40
0.0
  9
$SKPOLY
 70
     0
  9
$TDCREATE
 40
2448994.686602314
  9
$TDUPDATE
 40
2452458.322927627
  9
$TDINDWG
 40
0.0006948264
  9
$TDUSRTIMER
 40
0.0006948264
  9
$USRTIMER
 70
     1
  9
$ANGBASE
 50
0.0
  9
$ANGDIR
 70
     0
  9
$PDMODE
 70
     0
  9
$PDSIZE
 40
0.0
  9
$PLINEWID
 40
0.0
  9
$COORDS
 70
     2
  9
$SPLFRAME
 70
     0
  9
$SPLINETYPE
 70
     6
  9
$SPLINESEGS
 70
     8
  9
$ATTDIA
 70
     0
  9
$ATTREQ
 70
     1
  9
$HANDLING
 70
 22529
  9
$HANDSEED
  5
7DE1B343D9E3615
  9
$SURFTAB1
 70
     6
  9
$SURFTAB2
 70
     6
  9
$SURFTYPE
 70
     6
  9
$SURFU
 70
     6
  9
$SURFV
 70
     6
  9
$UCSNAME
  2

  9
$UCSORG
 10
0.0
 20
0.0
 30
0.0
  9
$UCSXDIR
 10
1.0
 20
0.0
 30
0.0
  9
$UCSYDIR
 10
0.0
 20
1.0
 30
0.0
  9
$PUCSNAME
  2

  9
$PUCSORG
 10
0.0
 20
0.0
 30
0.0
  9
$PUCSXDIR
 10
1.0
 20
0.0
 30
0.0
  9
$PUCSYDIR
 10
0.0
 20
1.0
 30
0.0
  9
$USERI1
 70
     0
  9
$USERI2
 70
     0
  9
$USERI3
 70
     0
  9
$USERI4
 70
     0
  9
$USERI5
 70
     0
  9
$USERR1
 40
0.0
  9
$USERR2
 40
0.0
  9
$USERR3
 40
0.0
  9
$USERR4
 40
0.0
  9
$USERR5
 40
0.0
  9
$WORLDVIEW
 70
     1
  9
$SHADEDGE
 70
     3
  9
$SHADEDIF
 70
    70
  9
$TILEMODE
 70
     1
  9
$MAXACTVP
 70
    16
  9
$PINSBASE
 10
0.0
 20
0.0
 30
0.0
  9
$PLIMCHECK
 70
     0
  9
$PEXTMIN
 10
1.000000000000000E+20
 20
1.000000000000000E+20
 30
1.000000000000000E+20
  9
$PEXTMAX
 10
-1.000000000000000E+20
 20
-1.000000000000000E+20
 30
-1.000000000000000E+20
  9
$PLIMMIN
 10
0.0
 20
0.0
  9
$PLIMMAX
 10
12.0
 20
9.0
  9
$UNITMODE
 70
     0
  9
$VISRETAIN
 70
     0
  9
$PLINEGEN
 70
     1
  9
$PSLTSCALE
 70
     0
  9
$TREEDEPTH
 70
  3020
  9
$PICKSTYLE
 70
     1
  9
$CMLSTYLE
  2
STANDARD
  9
$CMLJUST
 70
     0
  9
$CMLSCALE
 40
1.0
  9
$PROXYGRAPHICS
 70
     1
  9
$MEASUREMENT
 70
     0
  0
ENDSEC
  0
SECTION
  2
CLASSES
  0
CLASS
  1
LWPOLYLINE
  2
AcDbPolyline
  3
AutoCAD 2000
 90
        0
280
     0
281
     1
  0
CLASS
  1
ACDBDICTIONARYWDFLT
  2
AcDbDictionaryWithDefault
  3
AutoCAD 2000
 90
        0
280
     0
281
     0
  0
CLASS
  1
ACDBPLACEHOLDER
  2
AcDbPlaceHolder
  3
AutoCAD 2000
 90
        0
280
     0
281
     0
  0
CLASS
  1
LAYOUT
  2
AcDbLayout
  3
AutoCAD 2000
 90
        0
280
     0
281
     0
  0
CLASS
  1
DICTIONARYVAR
  2
AcDbDictionaryVar
  3
AutoCAD 2000
 90
        0
280
     0
281
     0
  0
CLASS
  1
LONG_TRANSACTION
  2
AcDbLongTransaction
  3
AutoCAD 2000
 90
        0
280
     0
281
     0
  0
CLASS
  1
LWPOLYLINE
  2
AcDbPolyline
  3
AutoCAD 2000
 90
        0
280
     0
281
     1
  0
CLASS
  1
HATCH
  2
AcDbHatch
  3
AutoCAD 2000
 90
        0
280
     0
281
     1
  0
CLASS
  1
XRECORD
  2
AcDbXrecord
  3
AutoCAD 2000
 90
        0
280
     0
281
     0
  0
ENDSEC
  0
SECTION
  2
TABLES
  0
TABLE
  2
VPORT
  5
7DE1B343D9E35B6
330
0
100
AcDbSymbolTable
 70
     2
  0
VPORT
  5
7DE1B343D9E35F0
330
7DE1B343D9E35B6
100
AcDbSymbolTableRecord
100
AcDbViewportTableRecord
  2
*ACTIVE
 70
     0
 10
0.0
 20
0.0
 11
1.0
 21
1.0
 12
4.554540748886714
 22
1.43472292301562
 13
0.0
 23
0.0
 14
0.015625
 24
0.015625
 15
0.0
 25
0.0
 16
0.0
 26
0.0
 36
1.0
 17
0.0
 27
0.0
 37
0.0
 40
2.282662032765281
 41
4.320930232558139
 42
50.0
 43
0.0
 44
0.0
 50
0.0
 51
0.0
 71
     0
 72
  2000
 73
     1
 74
     0
 75
     0
 76
     0
 77
     0
 78
     0
  0
ENDTAB
  0
TABLE
  2
LTYPE
  5
7DE1B343D9E35B3
330
0
100
AcDbSymbolTable
 70
     1
  0
LTYPE
  5
7DE1B343D9E35C0
330
7DE1B343D9E35B3
100
AcDbSymbolTableRecord
100
AcDbLinetypeTableRecord
  2
BYBLOCK
 70
     0
  3

 72
    65
 73
     0
 40
0.0
  0
LTYPE
  5
7DE1B343D9E35C1
330
7DE1B343D9E35B3
100
AcDbSymbolTableRecord
100
AcDbLinetypeTableRecord
  2
BYLAYER
 70
     0
  3

 72
    65
 73
     0
 40
0.0
  0
LTYPE
  5
7DE1B343D9E35C2
330
7DE1B343D9E35B3
100
AcDbSymbolTableRecord
100
AcDbLinetypeTableRecord
  2
CONTINUOUS
 70
     0
  3
Solid line
 72
    65
 73
     0
 40
0.0
  0
ENDTAB
  0
TABLE
  2
LAYER
  5
7DE1B343D9E35B0
330
0
100
AcDbSymbolTable
 70
     2
  0
LAYER
  5
7DE1B343D9E35BD
330
7DE1B343D9E35B0
100
AcDbSymbolTableRecord
100
AcDbLayerTableRecord
  2
0
 70
     0
 62
     7
  6
CONTINUOUS
  0
LAYER
  5
7DE1B343D9E35CD
330
7DE1B343D9E35B0
100
AcDbSymbolTableRecord
100
AcDbLayerTableRecord
  2
TEXT
 70
     0
 62
     3
  6
CONTINUOUS
  0
ENDTAB
  0
TABLE
  2
STYLE
  5
7DE1B343D9E35B1
330
0
100
AcDbSymbolTable
 70
     3
  0
STYLE
  5
7DE1B343D9E35BE
330
7DE1B343D9E35B1
100
AcDbSymbolTableRecord
100
AcDbTextStyleTableRecord
  2
STANDARD
 70
     0
 40
0.0
 41
1.0
 50
0.0
 71
     0
 42
0.3125
  3
txt
  4

  0
STYLE
  5
7DE1B343D9E35CA
330
7DE1B343D9E35B1
100
AcDbSymbolTableRecord
100
AcDbTextStyleTableRecord
  2
ITALICC
 70
     0
 40
0.0
 41
1.0
 50
0.0
 71
     0
 42
0.125
  3
italicc
  4

  0
STYLE
  5
7DE1B343D9E35DA
330
7DE1B343D9E35B1
100
AcDbSymbolTableRecord
100
AcDbTextStyleTableRecord
  2
ROMANS
 70
     0
 40
0.0
 41
1.0
 50
0.0
 71
     0
 42
0.125
  3
romans.shx
  4

  0
ENDTAB
  0
TABLE
  2
VIEW
  5
7DE1B343D9E35B4
330
0
100
AcDbSymbolTable
 70
     0
  0
ENDTAB
  0
TABLE
  2
UCS
  5
7DE1B343D9E35B5
330
0
100
AcDbSymbolTable
 70
     0
  0
ENDTAB
  0
TABLE
  2
APPID
  5
7DE1B343D9E35B7
330
0
100
AcDbSymbolTable
 70
     1
  0
APPID
  5
7DE1B343D9E35BF
330
7DE1B343D9E35B7
100
AcDbSymbolTableRecord
100
AcDbRegAppTableRecord
  2
ACAD
 70
     0
  0
ENDTAB
  0
TABLE
  2
DIMSTYLE
  5
7DE1B343D9E35B8
330
0
100
AcDbSymbolTable
 70
     1
  0
DIMSTYLE
105
7DE1B343D9E35D2
330
7DE1B343D9E35B8
100
AcDbSymbolTableRecord
100
AcDbDimStyleTableRecord
  2
STANDARD
 70
     0
  3

  4

  5

  6

  7

 40
1.0
 41
0.125
 42
0.125
 43
0.375
 44
0.125
 45
0.0
 46
0.0
 47
0.0
 48
0.0
140
0.125
141
-0.125
142
0.0
143
25.4
144
1.0
145
0.0
146
1.0
147
0.09
 71
     0
 72
     0
 73
     1
 74
     1
 75
     0
 76
     0
 77
     0
 78
     4
170
     0
171
     2
172
     0
173
     0
174
     1
175
     0
176
     0
177
     0
178
     0
270
     2
271
     3
272
     3
273
     2
274
     2
340
7DE1B343D9E35DA
275
     0
280
     0
281
     0
282
     0
283
     1
284
     4
285
     0
286
     0
287
     3
288
     0
  0
ENDTAB
  0
TABLE
  2
BLOCK_RECORD
  5
7DE1B343D9E35AF
330
0
100
AcDbSymbolTable
 70
     0
  0
BLOCK_RECORD
  5
7DE1B343D9E35C6
102
{ACAD_XDICTIONARY
360
7DE1B343D9E3613
102
}
330
7DE1B343D9E35AF
100
AcDbSymbolTableRecord
100
AcDbBlockTableRecord
  2
*MODEL_SPACE
  0
BLOCK_RECORD
  5
7DE1B343D9E35C3
102
{ACAD_XDICTIONARY
360
7DE1B343D9E3611
102
}
330
7DE1B343D9E35AF
100
AcDbSymbolTableRecord
100
AcDbBlockTableRecord
  2
*PAPER_SPACE
  0
ENDTAB
  0
ENDSEC
  0
SECTION
  2
BLOCKS
  0
BLOCK
  5
7DE1B343D9E35D0
330
7DE1B343D9E35C6
100
AcDbEntity
  8
0
100
AcDbBlockBegin
  2
*MODEL_SPACE
 70
     0
 10
0.0
 20
0.0
 30
0.0
  3
*MODEL_SPACE
  1

  0
ENDBLK
  5
7DE1B343D9E35D1
330
7DE1B343D9E35C6
100
AcDbEntity
  8
0
100
AcDbBlockEnd
  0
BLOCK
  5
7DE1B343D9E35CE
330
7DE1B343D9E35C3
100
AcDbEntity
 67
     1
  8
0
100
AcDbBlockBegin
  2
*PAPER_SPACE
 70
     0
 10
0.0
 20
0.0
 30
0.0
  3
*PAPER_SPACE
  1

  0
ENDBLK
  5
7DE1B343D9E35CF
330
7DE1B343D9E35C3
100
AcDbEntity
 67
     1
  8
0
100
AcDbBlockEnd
  0
ENDSEC
  0
SECTION
  2
ENTITIES
  0
LWPOLYLINE
  5
7DE1B343D9E2181
330
7DE1B343D9E35C6
100
AcDbEntity
  8
0
100
AcDbPolyline
 90
       17
 70
     1
 43
0.0
 10
1.448560386046108
 20
1.692541261414228
 10
1.391371047113978
 20
1.837309680406444
 10
1.391371047113978
 20
2.077309680406445
 10
1.381371047113978
 20
2.087309680406445
 10
1.391371047113978
 20
2.097309680406445
 10
1.391371047113978
 20
2.376372180406444
 42
1.0
 10
1.344496047113978
 20
2.376372180406444
 10
1.344496047113978
 20
1.462309680406444
 10
1.750746047113978
 20
1.462309680406444
 10
1.750746047113978
 20
1.235747180406445
 42
1.0
 10
1.797621047113978
 20
1.235747180406445
 10
1.797621047113978
 20
1.751372180406445
 42
1.0
 10
1.750746047113978
 20
1.751372180406445
 10
1.750746047113978
 20
1.524809680406444
 10
1.406996047113978
 20
1.524809680406444
 10
1.406996047113978
 20
1.649809680406445
 10
1.419496047113978
 20
1.649809680406445
 42
0.5292270190804202
  0
TEXT
  5
7DE1B343D9E3471
330
7DE1B343D9E35C6
100
AcDbEntity
  8
TEXT
100
AcDbText
 10
0.8229186661615973
 20
0.9276517471781007
 30
0.0
 40
0.125
  1
PART #120057
  7
ITALICC
 72
     1
 11
1.578871047113978
 21
0.9276517471781007
 31
0.0
100
AcDbText
  0
TEXT
  5
7DE1B343D9E3472
330
7DE1B343D9E35C6
100
AcDbEntity
  8
TEXT
100
AcDbText
 10
1.992176205364298
 20
0.4807291045057256
 30
0.0
 40
0.0522247191011236
  1
Phone  1-800-328-2495
 41
1.272321428571429
 72
     5
 11
3.321108789633962
 21
0.4807291045057256
 31
0.0
100
AcDbText
  0
TEXT
  5
7DE1B343D9E3473
330
7DE1B343D9E35C6
100
AcDbEntity
  8
TEXT
100
AcDbText
 10
1.992176205364298
 20
0.7605043854046021
 30
0.0
 40
0.0522247191011236
  1
Stylmark  Incorporated
 41
1.221428571428571
 72
     5
 11
3.321108789633962
 21
0.7605043854046021
 31
0.0
100
AcDbText
  0
TEXT
  5
7DE1B343D9E3474
330
7DE1B343D9E35C6
100
AcDbEntity
  8
TEXT
100
AcDbText
 10
1.992176205364298
 20
0.66724595843831
 30
0.0
 40
0.0522247191011236
  1
6536 Main St. N.E. * P.O. Box 32008
 41
0.8388932496075355
 72
     5
 11
3.321108789633962
 21
0.66724595843831
 31
0.0
100
AcDbText
  0
TEXT
  5
7DE1B343D9E3475
330
7DE1B343D9E35C6
100
AcDbEntity
  8
TEXT
100
AcDbText
 10
1.992176205364298
 20
0.5739875314720178
 30
0.0
 40
0.0522247191011236
  1
Minneapolis, MN 55432-0008
 41
1.11444212721585
 72
     5
 11
3.321108789633962
 21
0.5739875314720178
 31
0.0
100
AcDbText
  0
LWPOLYLINE
  5
7DE1B343D9E3476
330
7DE1B343D9E35C6
100
AcDbEntity
  8
TEXT
100
AcDbPolyline
 90
        3
 70
     0
 43
0.0006660908203125
 10
-0.1637774867030086
 20
0.5943738671431605
 10
-0.1637774867030086
 20
0.4811384276900328
 10
-0.0505420472498863
 20
0.4811384276900328
  0
LWPOLYLINE
  5
7DE1B343D9E347B
330
7DE1B343D9E35C6
100
AcDbEntity
  8
TEXT
100
AcDbPolyline
 90
        3
 70
     0
 43
0.0006660908203125
 10
-0.1371338538905111
 20
0.5943738671431605
 10
-0.1371338538905111
 20
0.5077820605025339
 10
-0.0505420472498863
 20
0.5077820605025339
  0
LWPOLYLINE
  5
7DE1B343D9E3480
330
7DE1B343D9E35C6
100
AcDbEntity
  8
TEXT
100
AcDbPolyline
 90
        2
 70
     0
 43
0.0001332181640625
 10
-0.0905074964686343
 20
0.6043652294478457
 10
-0.1637774867030086
 20
0.5943738671431605
  0
LWPOLYLINE
  5
7DE1B343D9E3484
330
7DE1B343D9E35C6
100
AcDbEntity
  8
TEXT
100
AcDbPolyline
 90
        2
 70
     0
 43
0.0001332181640625
 10
-0.1371338538905111
 20
0.5943738671431605
 10
-0.0771856800623838
 20
0.6043652294478457
  0
LWPOLYLINE
  5
7DE1B343D9E3488
330
7DE1B343D9E35C6
100
AcDbEntity
  8
TEXT
100
AcDbPolyline
 90
        2
 70
     0
 43
0.0001332181640625
 10
-0.1371338538905111
 20
0.5077820605025339
 10
-0.0771856800623838
 20
0.5677302343306594
  0
LWPOLYLINE
  5
7DE1B343D9E348C
330
7DE1B343D9E35C6
100
AcDbEntity
  8
TEXT
100
AcDbPolyline
 90
        3
 70
     0
 43
0.0006660908203125
 10
-0.0505420472498863
 20
0.7475747558150361
 10
-0.1637774867030086
 20
0.7475747558150361
 10
-0.1637774867030086
 20
0.6343393163619085
  0
LWPOLYLINE
  5
7DE1B343D9E3491
330
7DE1B343D9E35C6
100
AcDbEntity
  8
TEXT
100
AcDbPolyline
 90
        3
 70
     0
 43
0.0006660908203125
 10
-0.0505420472498863
 20
0.7209311230025351
 10
-0.1371338538905111
 20
0.7209311230025351
 10
-0.1371338538905111
 20
0.6343393163619085
  0
LWPOLYLINE
  5
7DE1B343D9E3496
330
7DE1B343D9E35C6
100
AcDbEntity
  8
TEXT
100
AcDbPolyline
 90
        2
 70
     0
 43
0.0001332181640625
 10
-0.1371338538905111
 20
0.7209311230025351
 10
-0.0771856800623856
 20
0.6609829491744095
  0
LWPOLYLINE
  5
7DE1B343D9E349A
330
7DE1B343D9E35C6
100
AcDbEntity
  8
TEXT
100
AcDbPolyline
 90
        2
 70
     0
 43
0.0001332181640625
 10
-0.1371338538905111
 20
0.6343393163619085
 10
-0.0771856800623856
 20
0.6243479540572197
  0
LWPOLYLINE
  5
7DE1B343D9E349E
330
7DE1B343D9E35C6
100
AcDbEntity
  8
TEXT
100
AcDbPolyline
 90
        2
 70
     0
 43
0.0001332181640625
 10
-0.1637774867030086
 20
0.6343393163619085
 10
-0.0905074964686343
 20
0.6243479540572197
  0
LWPOLYLINE
  5
7DE1B343D9E34A2
330
7DE1B343D9E35C6
100
AcDbEntity
  8
TEXT
100
AcDbPolyline
 90
        2
 70
     0
 43
0.0006660908203125
 10
-0.1371338538905111
 20
0.5943738671431605
 10
-0.1637774867030086
 20
0.5943738671431605
  0
LWPOLYLINE
  5
7DE1B343D9E34A6
330
7DE1B343D9E35C6
100
AcDbEntity
  8
TEXT
100
AcDbPolyline
 90
        2
 70
     0
 43
0.0006660908203125
 10
-0.1371338538905111
 20
0.6343393163619085
 10
-0.1637774867030086
 20
0.6343393163619085
  0
LINE
  5
7DE1B343D9E34AA
330
7DE1B343D9E35C6
100
AcDbEntity
  8
TEXT
100
AcDbLine
 10
1.351412942423488
 20
0.6832980611582671
 30
0.0
 11
1.244206669036199
 21
0.6832980611582671
 31
0.0
  0
LINE
  5
7DE1B343D9E34AB
330
7DE1B343D9E35C6
100
AcDbEntity
  8
TEXT
100
AcDbLine
 10
1.380443840767967
 20
0.7475747558150326
 30
0.0
 11
1.245611931550908
 21
0.7475747558150326
 31
0.0
  0
ARC
  5
7DE1B343D9E34AC
330
7DE1B343D9E35C6
100
AcDbEntity
  8
TEXT
100
AcDbCircle
 10
1.304926027944225
 20
0.5783375065520163
 30
0.0
 40
0.0676855811441166
100
AcDbArc
 50
90.0
 51
153.7768192527749
  0
LWPOLYLINE
  5
7DE1B343D9E34AD
330
7DE1B343D9E35C6
100
AcDbEntity
  8
TEXT
100
AcDbPolyline
 90
        2
 70
     0
 43
0.0
 10
1.243174173581389
 20
0.5245926677769597
 42
0.2901071551932823
 10
1.286250106449025
 20
0.4811017228265216
 42
5.328517124445801
  0
ARC
  5
7DE1B343D9E34B1
330
7DE1B343D9E35C6
100
AcDbEntity
  8
TEXT
100
AcDbCircle
 10
0.5997946502727394
 20
0.5408941141645714
 30
0.0
 40
0.0601160179737537
100
AcDbArc
 50
180.0000000000003
 51
264.0521544866073
  0
LINE
  5
7DE1B343D9E34B2
330
7DE1B343D9E35C6
100
AcDbEntity
  8
TEXT
100
AcDbLine
 10
0.6033100058982872
 20
0.7819626734091707
 30
0.0
 11
0.5432674010542802
 21
0.7819626734091707
 31
0.0
  0
ARC
  5
7DE1B343D9E34B3
330
7DE1B343D9E35C6
100
AcDbEntity
  8
TEXT
100
AcDbCircle
 10
0.3675356481557688
 20
0.6654872963685308
 30
0.0
 40
0.0820874594465043
100
AcDbArc
 50
90.0
 51
270.0
  0
LWPOLYLINE
  5
7DE1B343D9E34B4
330
7DE1B343D9E35C6
100
AcDbEntity
  8
TEXT
100
AcDbPolyline
 90
        2
 70
     0
 43
0.0001332181640625
 10
-0.0405506849451958
 20
0.6743047655806565
 10
-0.0505420472498863
 20
0.7475747558150361
  0
LWPOLYLINE
  5
7DE1B343D9E34B8
330
7DE1B343D9E35C6
100
AcDbEntity
  8
TEXT
100
AcDbPolyline
 90
        2
 70
     0
 43
0.0001332181640625
 10
-0.0505420472498863
 20
0.7209311230025351
 10
-0.0405506849451958
 20
0.6609829491744095
  0
LWPOLYLINE
  5
7DE1B343D9E34BC
330
7DE1B343D9E35C6
100
AcDbEntity
  8
TEXT
100
AcDbPolyline
 90
        3
 70
     0
 43
0.0006660908203125
 10
0.1026588414219911
 20
0.6343393163619085
 10
0.1026588414219911
 20
0.7475747558150361
 10
-0.0105765980311348
 20
0.7475747558150361
  0
LWPOLYLINE
  5
7DE1B343D9E34C1
330
7DE1B343D9E35C6
100
AcDbEntity
  8
TEXT
100
AcDbPolyline
 90
        3
 70
     0
 43
0.0006660908203125
 10
0.0760152086094901
 20
0.6343393163619085
 10
0.0760152086094901
 20
0.7209311230025351
 10
-0.0105765980311348
 20
0.7209311230025351
  0
LWPOLYLINE
  5
7DE1B343D9E34C6
330
7DE1B343D9E35C6
100
AcDbEntity
  8
TEXT
100
AcDbPolyline
 90
        2
 70
     0
 43
0.0001332181640625
 10
0.0760152086094901
 20
0.7209311230025351
 10
0.0160670347813663
 20
0.6609829491744095
  0
LWPOLYLINE
  5
7DE1B343D9E34CA
330
7DE1B343D9E35C6
100
AcDbEntity
  8
TEXT
100
AcDbPolyline
 90
        2
 70
     0
 43
0.0001332181640625
 10
-0.0105765980311348
 20
0.7209311230025351
 10
-0.0205679603358235
 20
0.6609829491744095
  0
LWPOLYLINE
  5
7DE1B343D9E34CE
330
7DE1B343D9E35C6
100
AcDbEntity
  8
TEXT
100
AcDbPolyline
 90
        2
 70
     0
 43
0.0001332181640625
 10
-0.0105765980311348
 20
0.7475747558150361
 10
-0.0205679603358235
 20
0.6743047655806565
  0
LWPOLYLINE
  5
7DE1B343D9E34D2
330
7DE1B343D9E35C6
100
AcDbEntity
  8
TEXT
100
AcDbPolyline
 90
        2
 70
     0
 43
0.0001332181640625
 10
0.029388851187615
 20
0.6243479540572197
 10
0.1026588414219911
 20
0.6343393163619085
  0
LWPOLYLINE
  5
7DE1B343D9E34D6
330
7DE1B343D9E35C6
100
AcDbEntity
  8
TEXT
100
AcDbPolyline
 90
        2
 70
     0
 43
0.0001332181640625
 10
0.0760152086094901
 20
0.6343393163619085
 10
0.0160670347813663
 20
0.6243479540572197
  0
LWPOLYLINE
  5
7DE1B343D9E34DA
330
7DE1B343D9E35C6
100
AcDbEntity
  8
TEXT
100
AcDbPolyline
 90
        2
 70
     0
 43
0.0001332181640625
 10
0.1026588414219911
 20
0.5943738671431605
 10
0.029388851187615
 20
0.6043652294478457
  0
LWPOLYLINE
  5
7DE1B343D9E34DE
330
7DE1B343D9E35C6
100
AcDbEntity
  8
TEXT
100
AcDbPolyline
 90
        2
 70
     0
 43
0.0001332181640625
 10
0.0760152086094901
 20
0.5943738671431605
 10
0.0160670347813663
 20
0.6043652294478457
  0
LWPOLYLINE
  5
7DE1B343D9E34E2
330
7DE1B343D9E35C6
100
AcDbEntity
  8
TEXT
100
AcDbPolyline
 90
        2
 70
     0
 43
0.0001332181640625
 10
0.0760152086094901
 20
0.5077820605025339
 10
0.0160670347813663
 20
0.5677302343306594
  0
LWPOLYLINE
  5
7DE1B343D9E34E6
330
7DE1B343D9E35C6
100
AcDbEntity
  8
TEXT
100
AcDbPolyline
 90
        3
 70
     0
 43
0.0006660908203125
 10
-0.0105765980311348
 20
0.5077820605025339
 10
0.0760152086094901
 20
0.5077820605025339
 10
0.0760152086094901
 20
0.5943738671431605
  0
LWPOLYLINE
  5
7DE1B343D9E34EB
330
7DE1B343D9E35C6
100
AcDbEntity
  8
TEXT
100
AcDbPolyline
 90
        3
 70
     0
 43
0.0006660908203125
 10
-0.0105765980311348
 20
0.4811384276900328
 10
0.1026588414219911
 20
0.4811384276900328
 10
0.1026588414219911
 20
0.5943738671431605
  0
LWPOLYLINE
  5
7DE1B343D9E34F0
330
7DE1B343D9E35C6
100
AcDbEntity
  8
TEXT
100
AcDbPolyline
 90
        5
 70
     0
 43
0.0001332181640625
 10
-0.0405506849451958
 20
0.5544084179244089
 10
-0.0405506849451958
 20
0.5677302343306594
 10
-0.0771856800623838
 20
0.5677302343306594
 10
-0.0771856800623838
 20
0.6043652294478457
 10
-0.0905074964686343
 20
0.6043652294478457
  0
LWPOLYLINE
  5
7DE1B343D9E34F7
330
7DE1B343D9E35C6
100
AcDbEntity
  8
TEXT
100
AcDbPolyline
 90
        2
 70
     0
 43
0.0006660908203125
 10
-0.0505420472498863
 20
0.5077820605025339
 10
-0.0505420472498863
 20
0.4811384276900328
  0
LWPOLYLINE
  5
7DE1B343D9E34FB
330
7DE1B343D9E35C6
100
AcDbEntity
  8
TEXT
100
AcDbPolyline
 90
        2
 70
     0
 43
0.0001332181640625
 10
-0.0505420472498863
 20
0.5077820605025339
 10
-0.0405506849451958
 20
0.5677302343306594
  0
LWPOLYLINE
  5
7DE1B343D9E34FF
330
7DE1B343D9E35C6
100
AcDbEntity
  8
TEXT
100
AcDbPolyline
 90
        2
 70
     0
 43
0.0001332181640625
 10
-0.0505420472498863
 20
0.4811384276900328
 10
-0.0405506849451958
 20
0.5544084179244089
  0
LWPOLYLINE
  5
7DE1B343D9E3503
330
7DE1B343D9E35C6
100
AcDbEntity
  8
TEXT
100
AcDbPolyline
 90
        5
 70
     0
 43
0.0001332181640625
 10
-0.0905074964686343
 20
0.6243479540572197
 10
-0.0771856800623856
 20
0.6243479540572197
 10
-0.0771856800623856
 20
0.6609829491744095
 10
-0.0405506849451958
 20
0.6609829491744095
 10
-0.0405506849451958
 20
0.6743047655806565
  0
LWPOLYLINE
  5
7DE1B343D9E350A
330
7DE1B343D9E35C6
100
AcDbEntity
  8
TEXT
100
AcDbPolyline
 90
        5
 70
     0
 43
0.0001332181640625
 10
-0.0205679603358235
 20
0.6743047655806565
 10
-0.0205679603358235
 20
0.6609829491744095
 10
0.0160670347813663
 20
0.6609829491744095
 10
0.0160670347813663
 20
0.6243479540572197
 10
0.029388851187615
 20
0.6243479540572197
  0
LWPOLYLINE
  5
7DE1B343D9E3511
330
7DE1B343D9E35C6
100
AcDbEntity
  8
TEXT
100
AcDbPolyline
 90
        2
 70
     0
 43
0.0001332181640625
 10
-0.0105765980311348
 20
0.5077820605025339
 10
-0.0205679603358235
 20
0.5677302343306594
  0
LWPOLYLINE
  5
7DE1B343D9E3515
330
7DE1B343D9E35C6
100
AcDbEntity
  8
TEXT
100
AcDbPolyline
 90
        2
 70
     0
 43
0.0001332181640625
 10
-0.0205679603358235
 20
0.5544084179244089
 10
-0.0105765980311348
 20
0.4811384276900328
  0
LWPOLYLINE
  5
7DE1B343D9E3519
330
7DE1B343D9E35C6
100
AcDbEntity
  8
TEXT
100
AcDbPolyline
 90
        2
 70
     0
 43
0.0006660908203125
 10
-0.0105765980311348
 20
0.5077820605025339
 10
-0.0105765980311348
 20
0.4811384276900328
  0
LWPOLYLINE
  5
7DE1B343D9E351D
330
7DE1B343D9E35C6
100
AcDbEntity
  8
TEXT
100
AcDbPolyline
 90
        5
 70
     0
 43
0.0001332181640625
 10
0.029388851187615
 20
0.6043652294478457
 10
0.0160670347813663
 20
0.6043652294478457
 10
0.0160670347813663
 20
0.5677302343306594
 10
-0.0205679603358235
 20
0.5677302343306594
 10
-0.0205679603358235
 20
0.5544084179244089
  0
LWPOLYLINE
  5
7DE1B343D9E3524
330
7DE1B343D9E35C6
100
AcDbEntity
  8
TEXT
100
AcDbPolyline
 90
        2
 70
     0
 43
0.0006660908203125
 10
0.0760152086094901
 20
0.6343393163619085
 10
0.1026588414219911
 20
0.6343393163619085
  0
LWPOLYLINE
  5
7DE1B343D9E3528
330
7DE1B343D9E35C6
100
AcDbEntity
  8
TEXT
100
AcDbPolyline
 90
        2
 70
     0
 43
0.0006660908203125
 10
0.0760152086094901
 20
0.5943738671431605
 10
0.1026588414219911
 20
0.5943738671431605
  0
LINE
  5
7DE1B343D9E352C
330
7DE1B343D9E35C6
100
AcDbEntity
  8
TEXT
100
AcDbLine
 10
0.372772978270016
 20
0.6832980611582671
 30
0.0
 11
0.5396786322989873
 21
0.6832980611582671
 31
0.0
  0
LINE
  5
7DE1B343D9E352D
330
7DE1B343D9E35C6
100
AcDbEntity
  8
TEXT
100
AcDbLine
 10
0.4383731145143171
 20
0.6474933395476393
 30
0.0
 11
0.372772978270016
 21
0.6474933395476393
 31
0.0
  0
LINE
  5
7DE1B343D9E352E
330
7DE1B343D9E35C6
100
AcDbEntity
  8
TEXT
100
AcDbLine
 10
0.2854481887092644
 20
0.4811017228265216
 30
0.0
 11
0.4383731145143171
 21
0.4811017228265216
 31
0.0
  0
LINE
  5
7DE1B343D9E352F
330
7DE1B343D9E35C6
100
AcDbEntity
  8
TEXT
100
AcDbLine
 10
0.4433134884205967
 20
0.5494587291599609
 30
0.0
 11
0.2854481887092626
 21
0.5494587291599609
 31
0.0
  0
LINE
  5
7DE1B343D9E3530
330
7DE1B343D9E35C6
100
AcDbEntity
  8
TEXT
100
AcDbLine
 10
0.3675356481557679
 20
0.5833998369220255
 30
0.0
 11
0.4433134884205967
 21
0.5833998369220255
 31
0.0
  0
ARC
  5
7DE1B343D9E3531
330
7DE1B343D9E35C6
100
AcDbEntity
  8
TEXT
100
AcDbCircle
 10
0.3727729782700169
 20
0.665395700352955
 30
0.0
 40
0.017902360805315
100
AcDbArc
 50
90.0
 51
270.0
  0
LINE
  5
7DE1B343D9E3532
330
7DE1B343D9E35C6
100
AcDbEntity
  8
TEXT
100
AcDbLine
 10
0.2854481887092626
 20
0.5494587291599609
 30
0.0
 11
0.2854481887092644
 21
0.4811017228265216
 31
0.0
  0
LINE
  5
7DE1B343D9E3533
330
7DE1B343D9E35C6
100
AcDbEntity
  8
TEXT
100
AcDbLine
 10
0.5396786322989873
 20
0.6832980611582671
 30
0.0
 11
0.5396786322989873
 21
0.5408941141645714
 31
0.0
  0
ARC
  5
7DE1B343D9E3534
330
7DE1B343D9E35C6
100
AcDbEntity
  8
TEXT
100
AcDbCircle
 10
0.438373114514318
 20
0.5642975311870786
 30
0.0
 40
0.0831958083605586
100
AcDbArc
 50
270.0
 51
90.0
  0
ARC
  5
7DE1B343D9E3535
330
7DE1B343D9E35C6
100
AcDbEntity
  8
TEXT
100
AcDbCircle
 10
0.4433134884205976
 20
0.566429283040995
 30
0.0
 40
0.0169705538810321
100
AcDbArc
 50
270.0
 51
90.0
  0
LWPOLYLINE
  5
7DE1B343D9E3536
330
7DE1B343D9E35C6
100
AcDbEntity
  8
TEXT
100
AcDbPolyline
 90
        2
 70
     0
 43
0.0006660908203125
 10
-0.0505420472498863
 20
0.7209311230025351
 10
-0.0505420472498863
 20
0.7475747558150361
  0
LWPOLYLINE
  5
7DE1B343D9E353A
330
7DE1B343D9E35C6
100
AcDbEntity
  8
TEXT
100
AcDbPolyline
 90
        2
 70
     0
 43
0.0006660908203125
 10
-0.0105765980311348
 20
0.7209311230025351
 10
-0.0105765980311348
 20
0.7475747558150361
  0
LINE
  5
7DE1B343D9E353E
330
7DE1B343D9E35C6
100
AcDbEntity
  8
TEXT
100
AcDbLine
 10
0.5432674010542802
 20
0.7475747558150326
 30
0.0
 11
0.3675356481557679
 21
0.7475747558150326
 31
0.0
  0
LINE
  5
7DE1B343D9E353F
330
7DE1B343D9E35C6
100
AcDbEntity
  8
TEXT
100
AcDbLine
 10
0.5432674010542802
 20
0.7819626734091707
 30
0.0
 11
0.5432674010542802
 21
0.7475747558150326
 31
0.0
  0
LINE
  5
7DE1B343D9E3540
330
7DE1B343D9E35C6
100
AcDbEntity
  8
TEXT
100
AcDbLine
 10
0.7337392930741325
 20
0.646702759701912
 30
0.0
 11
0.6751089720421946
 21
0.7475747558150326
 31
0.0
  0
LINE
  5
7DE1B343D9E3541
330
7DE1B343D9E35C6
100
AcDbEntity
  8
TEXT
100
AcDbLine
 10
0.792487855879998
 20
0.7475747558150326
 30
0.0
 11
0.7337392930741325
 21
0.646702759701912
 31
0.0
  0
LINE
  5
7DE1B343D9E3542
330
7DE1B343D9E35C6
100
AcDbEntity
  8
TEXT
100
AcDbLine
 10
0.8894184812397391
 20
0.5634895609295208
 30
0.0
 11
0.8894184812397391
 21
0.8155862335538429
 31
0.0
  0
LINE
  5
7DE1B343D9E3543
330
7DE1B343D9E35C6
100
AcDbEntity
  8
TEXT
100
AcDbLine
 10
0.9217303353773992
 20
0.7475747558150326
 30
0.0
 11
0.9217303353773992
 21
0.5467105490826243
 31
0.0
  0
LINE
  5
7DE1B343D9E3544
330
7DE1B343D9E35C6
100
AcDbEntity
  8
TEXT
100
AcDbLine
 10
0.9217303353773992
 20
0.5467105490826243
 30
0.0
 11
0.9047366984927979
 21
0.5467105490826243
 31
0.0
  0
LINE
  5
7DE1B343D9E3545
330
7DE1B343D9E35C6
100
AcDbEntity
  8
TEXT
100
AcDbLine
 10
0.8905580547359338
 20
0.4811017228265216
 30
0.0
 11
0.9885613884353684
 21
0.4811017228265216
 31
0.0
  0
LINE
  5
7DE1B343D9E3546
330
7DE1B343D9E35C6
100
AcDbEntity
  8
TEXT
100
AcDbLine
 10
0.7241390560771781
 20
0.5010602289315345
 30
0.0
 11
0.8214387621706226
 21
0.6654104398668026
 31
0.0
  0
ARC
  5
7DE1B343D9E3547
330
7DE1B343D9E35C6
100
AcDbEntity
  8
TEXT
100
AcDbCircle
 10
0.6900954961649642
 20
0.5206494451002173
 30
0.0
 40
0.0392772371940762
100
AcDbArc
 50
270.1604552698595
 51
330.0831797321295
  0
LINE
  5
7DE1B343D9E3548
330
7DE1B343D9E35C6
100
AcDbEntity
  8
TEXT
100
AcDbLine
 10
0.593565239779093
 20
0.4811017228265216
 30
0.0
 11
0.6902054908540874
 21
0.4813723619248039
 31
0.0
  0
LWPOLYLINE
  5
7DE1B343D9E3549
330
7DE1B343D9E35C6
100
AcDbEntity
  8
TEXT
100
AcDbPolyline
 90
        6
 70
     1
 43
0.0
 10
0.6360890433542426
 20
0.6832980611582671
 10
0.6057724491340344
 20
0.6832980611582671
 10
0.6057724491340344
 20
0.5601870631033728
 42
0.407328721240804
 10
0.6173161002955108
 20
0.5483681484269867
 10
0.6779377993402416
 20
0.5483681484269867
 10
0.6954031397475596
 20
0.5811803774704658
  0
LINE
  5
7DE1B343D9E3551
330
7DE1B343D9E35C6
100
AcDbEntity
  8
TEXT
100
AcDbLine
 10
0.8214387621706226
 20
0.6654104398668026
 30
0.0
 11
0.8214387621706226
 21
0.5326530650414463
 31
0.0
  0
ARC
  5
7DE1B343D9E3552
330
7DE1B343D9E35C6
100
AcDbEntity
  8
TEXT
100
AcDbCircle
 10
0.9047366984927961
 20
0.5620923553260498
 30
0.0
 40
0.0153818062434269
100
AcDbArc
 50
174.7883570302258
 51
270.0
  0
LWPOLYLINE
  5
7DE1B343D9E3553
330
7DE1B343D9E35C6
100
AcDbEntity
  8
TEXT
100
AcDbPolyline
 90
        2
 70
     0
 43
0.0
 10
0.8214387621706208
 20
0.5326530650414499
 42
0.3318488747599744
 10
0.8905580547359338
 20
0.4811017228265216
 42
-6.868794160588311
  0
LINE
  5
7DE1B343D9E3557
330
7DE1B343D9E35C6
100
AcDbEntity
  8
TEXT
100
AcDbLine
 10
1.045950457424629
 20
0.4811017228265216
 30
0.0
 11
1.113008504206469
 21
0.4811017228265216
 31
0.0
  0
LINE
  5
7DE1B343D9E3558
330
7DE1B343D9E35C6
100
AcDbEntity
  8
TEXT
100
AcDbLine
 10
1.045950457424629
 20
0.6757442719921572
 30
0.0
 11
1.045950457424629
 21
0.4811017228265216
 31
0.0
  0
LINE
  5
7DE1B343D9E3559
330
7DE1B343D9E35C6
100
AcDbEntity
  8
TEXT
100
AcDbLine
 10
0.9885613884353684
 20
0.6832980611582671
 30
0.0
 11
1.038396668258516
 21
0.6832980611582671
 31
0.0
  0
LINE
  5
7DE1B343D9E355A
330
7DE1B343D9E35C6
100
AcDbEntity
  8
TEXT
100
AcDbLine
 10
0.9885613884353684
 20
0.4811017228265216
 30
0.0
 11
0.9885613884353684
 21
0.6832980611582671
 31
0.0
  0
LWPOLYLINE
  5
7DE1B343D9E355B
330
7DE1B343D9E35C6
100
AcDbEntity
  8
TEXT
100
AcDbPolyline
 90
        2
 70
     0
 43
0.0
 10
1.038396668258514
 20
0.6832980611582671
 42
-0.4142135623731017
 10
1.045950457424627
 20
0.6757442719921572
 42
-0.9999999999999998
  0
LINE
  5
7DE1B343D9E355F
330
7DE1B343D9E35C6
100
AcDbEntity
  8
TEXT
100
AcDbLine
 10
1.244206669036199
 20
0.6832980611582671
 30
0.0
 11
1.244206669036199
 21
0.6082456550840605
 31
0.0
  0
LINE
  5
7DE1B343D9E3560
330
7DE1B343D9E35C6
100
AcDbEntity
  8
TEXT
100
AcDbLine
 10
1.113008504206469
 20
0.6832980611582671
 30
0.0
 11
1.167142101127419
 21
0.6832980611582671
 31
0.0
  0
LINE
  5
7DE1B343D9E3561
330
7DE1B343D9E35C6
100
AcDbEntity
  8
TEXT
100
AcDbLine
 10
1.113008504206469
 20
0.4811017228265216
 30
0.0
 11
1.113008504206469
 21
0.6832980611582671
 31
0.0
  0
LWPOLYLINE
  5
7DE1B343D9E3562
330
7DE1B343D9E35C6
100
AcDbEntity
  8
TEXT
100
AcDbPolyline
 90
        2
 70
     0
 43
0.0
 10
1.167142101127418
 20
0.6832980611582671
 42
-0.4142135623731017
 10
1.174695890293531
 20
0.6757442719921572
 42
-0.9999999999999998
  0
LWPOLYLINE
  5
7DE1B343D9E3566
330
7DE1B343D9E35C6
100
AcDbEntity
  8
TEXT
100
AcDbPolyline
 90
        4
 70
     0
 43
0.0
 10
1.174695890293531
 20
0.6757442719921572
 10
1.174695890293531
 20
0.4811017228265216
 10
1.243174173581389
 20
0.4811017228265216
 10
1.243174173581389
 20
0.5245926677769597
 42
-1.714843617202739
  0
LINE
  5
7DE1B343D9E356C
330
7DE1B343D9E35C6
100
AcDbEntity
  8
TEXT
100
AcDbLine
 10
0.6033100058982872
 20
0.7475747558150326
 30
0.0
 11
0.6033100058982872
 21
0.7819626734091707
 31
0.0
  0
LINE
  5
7DE1B343D9E356D
330
7DE1B343D9E35C6
100
AcDbEntity
  8
TEXT
100
AcDbLine
 10
0.6751089720421946
 20
0.7475747558150326
 30
0.0
 11
0.6033100058982872
 21
0.7475747558150326
 31
0.0
  0
LINE
  5
7DE1B343D9E356E
330
7DE1B343D9E35C6
100
AcDbEntity
  8
TEXT
100
AcDbLine
 10
0.8226097686733741
 20
0.7475747558150326
 30
0.0
 11
0.792487855879998
 21
0.7475747558150326
 31
0.0
  0
LINE
  5
7DE1B343D9E356F
330
7DE1B343D9E35C6
100
AcDbEntity
  8
TEXT
100
AcDbLine
 10
0.8226097686733741
 20
0.8155862335538429
 30
0.0
 11
0.8226097686733741
 21
0.7475747558150326
 31
0.0
  0
LINE
  5
7DE1B343D9E3570
330
7DE1B343D9E35C6
100
AcDbEntity
  8
TEXT
100
AcDbLine
 10
0.8894184812397391
 20
0.8155862335538429
 30
0.0
 11
0.8226097686733741
 21
0.8155862335538429
 31
0.0
  0
LWPOLYLINE
  5
7DE1B343D9E3571
330
7DE1B343D9E35C6
100
AcDbEntity
  8
TEXT
100
AcDbPolyline
 90
        3
 70
     0
 43
0.0
 10
1.209830240837741
 20
0.7475747558150361
 10
1.091530082021697
 20
0.7475747558150361
 10
1.091530082021697
 20
0.7204072590541402
 42
-1.960274751411753
  0
LINE
  5
7DE1B343D9E3576
330
7DE1B343D9E35C6
100
AcDbEntity
  8
TEXT
100
AcDbLine
 10
1.055748391308535
 20
0.7475747558150326
 30
0.0
 11
0.9217303353773992
 21
0.7475747558150326
 31
0.0
  0
LWPOLYLINE
  5
7DE1B343D9E3577
330
7DE1B343D9E35C6
100
AcDbEntity
  8
TEXT
100
AcDbPolyline
 90
        2
 70
     0
 43
0.0
 10
1.055748391308535
 20
0.7475747558150361
 42
-0.3328679258950098
 10
1.091530082021697
 20
0.7204072590541402
 42
6.772930709997214
  0
LINE
  5
7DE1B343D9E357B
330
7DE1B343D9E35C6
100
AcDbEntity
  8
TEXT
100
AcDbLine
 10
1.245611931550908
 20
0.7475747558150326
 30
0.0
 11
1.245611931550908
 21
0.7192522100453887
 31
0.0
  0
LWPOLYLINE
  5
7DE1B343D9E357C
330
7DE1B343D9E35C6
100
AcDbEntity
  8
TEXT
100
AcDbPolyline
 90
        2
 70
     0
 43
0.0
 10
1.209830240837741
 20
0.7475747558150361
 42
-0.3277054968067132
 10
1.245611931550906
 20
0.7192522100453922
 42
6.667889725900311
  0
LINE
  5
7DE1B343D9E3580
330
7DE1B343D9E35C6
100
AcDbEntity
  8
TEXT
100
AcDbLine
 10
1.459403779643008
 20
0.6423627772616052
 30
0.0
 11
1.415653008461106
 21
0.7246130532577504
 31
0.0
  0
LINE
  5
7DE1B343D9E3581
330
7DE1B343D9E35C6
100
AcDbEntity
  8
TEXT
100
AcDbLine
 10
1.459403779643008
 20
0.7475747558150326
 30
0.0
 11
1.459403779643008
 21
0.6423627772616052
 31
0.0
  0
LINE
  5
7DE1B343D9E3582
330
7DE1B343D9E35C6
100
AcDbEntity
  8
TEXT
100
AcDbLine
 10
1.687087518581377
 20
0.6717094294034945
 30
0.0
 11
1.687087518581377
 21
0.8130389615826331
 31
0.0
  0
LINE
  5
7DE1B343D9E3583
330
7DE1B343D9E35C6
100
AcDbEntity
  8
TEXT
100
AcDbLine
 10
1.734185677137361
 20
0.7475747558150326
 30
0.0
 11
1.687087518581377
 21
0.6717094294034945
 31
0.0
  0
LINE
  5
7DE1B343D9E3584
330
7DE1B343D9E35C6
100
AcDbEntity
  8
TEXT
100
AcDbLine
 10
1.744620393901284
 20
0.637681512874059
 30
0.0
 11
1.809177509866989
 21
0.7475747558150326
 31
0.0
  0
LINE
  5
7DE1B343D9E3585
330
7DE1B343D9E35C6
100
AcDbEntity
  8
TEXT
100
AcDbLine
 10
1.623252527358604
 20
0.4811017228265216
 30
0.0
 11
1.687630711677224
 21
0.4811017228265216
 31
0.0
  0
LWPOLYLINE
  5
7DE1B343D9E3586
330
7DE1B343D9E35C6
100
AcDbEntity
  8
TEXT
100
AcDbPolyline
 90
        2
 70
     0
 43
0.0
 10
1.463343456948046
 20
0.5245926677769597
 42
-0.2901071551932486
 10
1.420267524080401
 20
0.4811017228265216
 42
-5.328517124445184
  0
ARC
  5
7DE1B343D9E358A
330
7DE1B343D9E35C6
100
AcDbEntity
  8
TEXT
100
AcDbCircle
 10
1.351412942423487
 20
0.6549386861582698
 30
0.0
 40
0.028359375
100
AcDbArc
 50
25.78218179591245
 51
90.0
  0
LINE
  5
7DE1B343D9E358B
330
7DE1B343D9E35C6
100
AcDbEntity
  8
TEXT
100
AcDbLine
 10
1.38721401772761
 20
0.6460230876961349
 30
0.0
 11
1.376949257314045
 21
0.6672736272688291
 31
0.0
  0
LINE
  5
7DE1B343D9E358C
330
7DE1B343D9E35C6
100
AcDbEntity
  8
TEXT
100
AcDbLine
 10
1.304926027944226
 20
0.6460230876961349
 30
0.0
 11
1.38721401772761
 21
0.6460230876961349
 31
0.0
  0
LWPOLYLINE
  5
7DE1B343D9E358D
330
7DE1B343D9E35C6
100
AcDbEntity
  8
TEXT
100
AcDbPolyline
 90
        4
 70
     1
 43
0.0
 10
1.400145059010509
 20
0.5840657008105468
 10
1.31148474035065
 20
0.5840657008105468
 42
0.9999999999999998
 10
1.31148474035065
 20
0.5416671603066861
 10
1.400145059010509
 20
0.5416671603066861
 42
1.0
  0
LWPOLYLINE
  5
7DE1B343D9E3593
330
7DE1B343D9E35C6
100
AcDbEntity
  8
TEXT
100
AcDbPolyline
 90
        2
 70
     0
 43
0.0
 10
1.286250106449025
 20
0.4811017228265216
 10
1.420267524080401
 20
0.4811017228265216
 42
0.9999999999999998
  0
LINE
  5
7DE1B343D9E3597
330
7DE1B343D9E35C6
100
AcDbEntity
  8
TEXT
100
AcDbLine
 10
1.546604546066041
 20
0.6832980611582671
 30
0.0
 11
1.623252527358598
 21
0.6832980611582671
 31
0.0
  0
LINE
  5
7DE1B343D9E3598
330
7DE1B343D9E35C6
100
AcDbEntity
  8
TEXT
100
AcDbLine
 10
1.623252527358598
 20
0.6832980611582671
 30
0.0
 11
1.623252527358604
 21
0.4811017228265216
 31
0.0
  0
ARC
  5
7DE1B343D9E3599
330
7DE1B343D9E35C6
100
AcDbEntity
  8
TEXT
100
AcDbCircle
 10
1.546604546066039
 20
0.6583921858756044
 30
0.0
 40
0.0249058752826653
100
AcDbArc
 50
89.99971217465335
 51
179.9999999999985
  0
LINE
  5
7DE1B343D9E359A
330
7DE1B343D9E35C6
100
AcDbEntity
  8
TEXT
100
AcDbLine
 10
1.521698670783381
 20
0.4811017228265216
 30
0.0
 11
1.521698670783376
 21
0.65839222825799
 31
0.0
  0
LWPOLYLINE
  5
7DE1B343D9E359B
330
7DE1B343D9E35C6
100
AcDbEntity
  8
TEXT
100
AcDbPolyline
 90
        2
 70
     0
 43
0.0
 10
1.463343456948046
 20
0.4811017228265216
 10
1.52169867078338
 20
0.4811017228265216
  0
LWPOLYLINE
  5
7DE1B343D9E359F
330
7DE1B343D9E35C6
100
AcDbEntity
  8
TEXT
100
AcDbPolyline
 90
        2
 70
     0
 43
0.0
 10
1.463343456948046
 20
0.5245926677769597
 10
1.463343456948046
 20
0.4811017228265216
  0
LINE
  5
7DE1B343D9E35A3
330
7DE1B343D9E35C6
100
AcDbEntity
  8
TEXT
100
AcDbLine
 10
1.840112617264895
 20
0.4811017228265216
 30
0.0
 11
1.744620393901284
 21
0.637681512874059
 31
0.0
  0
LINE
  5
7DE1B343D9E35A4
330
7DE1B343D9E35C6
100
AcDbEntity
  8
TEXT
100
AcDbLine
 10
1.763534244888689
 20
0.4811017228265216
 30
0.0
 11
1.840112617264895
 21
0.4811017228265216
 31
0.0
  0
LINE
  5
7DE1B343D9E35A5
330
7DE1B343D9E35C6
100
AcDbEntity
  8
TEXT
100
AcDbLine
 10
1.687630711677224
 20
0.6126812913027018
 30
0.0
 11
1.763534244888689
 21
0.4811017228265216
 31
0.0
  0
LINE
  5
7DE1B343D9E35A6
330
7DE1B343D9E35C6
100
AcDbEntity
  8
TEXT
100
AcDbLine
 10
1.687630711677224
 20
0.4811017228265216
 30
0.0
 11
1.687630711677224
 21
0.6126812913027018
 31
0.0
  0
LINE
  5
7DE1B343D9E35A7
330
7DE1B343D9E35C6
100
AcDbEntity
  8
TEXT
100
AcDbLine
 10
1.687087518581377
 20
0.8130389615826331
 30
0.0
 11
1.618772640032104
 21
0.8130389615826331
 31
0.0
  0
ARC
  5
7DE1B343D9E35A8
330
7DE1B343D9E35C6
100
AcDbEntity
  8
TEXT
100
AcDbCircle
 10
1.378416900990897
 20
0.7059911886941302
 30
0.0
 40
0.0416329381542859
100
AcDbArc
 50
26.56974201007528
 51
87.20939649401342
  0
LINE
  5
7DE1B343D9E35A9
330
7DE1B343D9E35C6
100
AcDbEntity
  8
TEXT
100
AcDbLine
 10
1.523300685942509
 20
0.7475747558150326
 30
0.0
 11
1.459403779643008
 21
0.7475747558150326
 31
0.0
  0
LINE
  5
7DE1B343D9E35AA
330
7DE1B343D9E35C6
100
AcDbEntity
  8
TEXT
100
AcDbLine
 10
1.523300685942509
 20
0.7200271059541579
 30
0.0
 11
1.523300685942509
 21
0.7475747558150326
 31
0.0
  0
ARC
  5
7DE1B343D9E35AB
330
7DE1B343D9E35C6
100
AcDbEntity
  8
TEXT
100
AcDbCircle
 10
1.554493503005617
 20
0.7163290285327677
 30
0.0
 40
0.0314112657011332
100
AcDbArc
 50
95.88484768694724
 51
173.2388340632136
  0
LINE
  5
7DE1B343D9E35AC
330
7DE1B343D9E35C6
100
AcDbEntity
  8
TEXT
100
AcDbLine
 10
1.618772640032098
 20
0.7475747558150326
 30
0.0
 11
1.551272922382582
 21
0.7475747558150326
 31
0.0
  0
LINE
  5
7DE1B343D9E35AD
330
7DE1B343D9E35C6
100
AcDbEntity
  8
TEXT
100
AcDbLine
 10
1.618772640032104
 20
0.8130389615826331
 30
0.0
 11
1.618772640032098
 21
0.7475747558150326
 31
0.0
  0
LINE
  5
7DE1B343D9E35AE
330
7DE1B343D9E35C6
100
AcDbEntity
  8
TEXT
100
AcDbLine
 10
1.809177509866989
 20
0.7475747558150326
 30
0.0
 11
1.734185677137363
 21
0.7475747558150326
 31
0.0
  0
ENDSEC
  0
SECTION
  2
OBJECTS
  0
DICTIONARY
  5
7DE1B343D9E35BA
330
0
100
AcDbDictionary
  3
ACAD_GROUP
350
7DE1B343D9E35BB
  3
ACAD_LAYOUT
350
7DE1B343D9E35E6
  3
ACAD_MLINESTYLE
350
7DE1B343D9E35BC
  3
ACAD_PLOTSETTINGS
350
7DE1B343D9E35E7
  3
ACAD_PLOTSTYLENAME
350
7DE1B343D9E35E4
  3
ACDBHEADERROUNDTRIPXREC
350
7DE1B343D9E35F1
  3
ACDBVARIABLEDICTIONARY
350
7DE1B343D9E35EE
  0
DICTIONARY
  5
7DE1B343D9E3613
330
7DE1B343D9E35C6
100
AcDbDictionary
280
     1
  3
ACAD_LAYOUTSELFREF
360
7DE1B343D9E3614
  0
DICTIONARY
  5
7DE1B343D9E3611
330
7DE1B343D9E35C3
100
AcDbDictionary
280
     1
  3
ACAD_LAYOUTSELFREF
360
7DE1B343D9E3612
  0
DICTIONARY
  5
7DE1B343D9E35BB
102
{ACAD_REACTORS
330
7DE1B343D9E35BA
102
}
330
7DE1B343D9E35BA
100
AcDbDictionary
  0
DICTIONARY
  5
7DE1B343D9E35E6
102
{ACAD_REACTORS
330
7DE1B343D9E35BA
102
}
330
7DE1B343D9E35BA
100
AcDbDictionary
  0
DICTIONARY
  5
7DE1B343D9E35BC
102
{ACAD_REACTORS
330
7DE1B343D9E35BA
102
}
330
7DE1B343D9E35BA
100
AcDbDictionary
  3
STANDARD
350
7DE1B343D9E35C9
  0
DICTIONARY
  5
7DE1B343D9E35E7
102
{ACAD_REACTORS
330
7DE1B343D9E35BA
102
}
330
7DE1B343D9E35BA
100
AcDbDictionary
  0
ACDBDICTIONARYWDFLT
  5
7DE1B343D9E35E4
102
{ACAD_REACTORS
330
7DE1B343D9E35BA
102
}
330
7DE1B343D9E35BA
100
AcDbDictionary
281
     1
  3
Normal
350
7DE1B343D9E35E5
100
AcDbDictionaryWithDefault
340
7DE1B343D9E35E5
  0
DICTIONARY
  5
7DE1B343D9E35F1
102
{ACAD_REACTORS
330
7DE1B343D9E35BA
102
}
330
7DE1B343D9E35BA
100
AcDbDictionary
  3
CEPSNTYPE
350
7DE1B343D9E35FB
  3
FINGERPRINTGUID
350
7DE1B343D9E35FC
  3
HYPERLINKBASE
350
7DE1B343D9E35F4
  3
INSUNITS
350
7DE1B343D9E35FA
  3
LAYOUTDICT
350
7DE1B343D9E35F6
  3
LWETCUNION
350
7DE1B343D9E35F9
  3
PLOTSETDICT
350
7DE1B343D9E35F7
  3
PLOTSTYLNAMDICT
350
7DE1B343D9E35F8
  3
PSVPSCALE
350
7DE1B343D9E35FE
  3
PUCSBASE
350
7DE1B343D9E3601
  3
PUCSORGBACK
350
7DE1B343D9E3607
  3
PUCSORGBOTTOM
350
7DE1B343D9E3603
  3
PUCSORGFRONT
350
7DE1B343D9E3606
  3
PUCSORGLEFT
350
7DE1B343D9E3604
  3
PUCSORGRIGHT
350
7DE1B343D9E3605
  3
PUCSORGTOP
350
7DE1B343D9E3602
  3
PUCSORTHOREF
350
7DE1B343D9E35FF
  3
PUCSORTHOVIEW
350
7DE1B343D9E3600
  3
STYLESHEET
350
7DE1B343D9E35F5
  3
TSTACKALIGN
350
7DE1B343D9E35F2
  3
TSTACKSIZE
350
7DE1B343D9E35F3
  3
UCSBASE
350
7DE1B343D9E360A
  3
UCSORGBACK
350
7DE1B343D9E3610
  3
UCSORGBOTTOM
350
7DE1B343D9E360C
  3
UCSORGFRONT
350
7DE1B343D9E360F
  3
UCSORGLEFT
350
7DE1B343D9E360D
  3
UCSORGRIGHT
350
7DE1B343D9E360E
  3
UCSORGTOP
350
7DE1B343D9E360B
  3
UCSORTHOREF
350
7DE1B343D9E3608
  3
UCSORTHOVIEW
350
7DE1B343D9E3609
  3
VERSIONGUID
350
7DE1B343D9E35FD
  0
DICTIONARY
  5
7DE1B343D9E35EE
102
{ACAD_REACTORS
330
7DE1B343D9E35BA
102
}
330
7DE1B343D9E35BA
100
AcDbDictionary
  3
DIMASSOC
350
7DE1B343D9E35EF
  0
XRECORD
  5
7DE1B343D9E3614
102
{ACAD_REACTORS
330
7DE1B343D9E3613
102
}
330
7DE1B343D9E3613
100
AcDbXrecord
340
7DE1B343D9E35C6
  0
XRECORD
  5
7DE1B343D9E3612
102
{ACAD_REACTORS
330
7DE1B343D9E3611
102
}
330
7DE1B343D9E3611
100
AcDbXrecord
340
7DE1B343D9E35C3
  0
MLINESTYLE
  5
7DE1B343D9E35C9
102
{ACAD_REACTORS
330
7DE1B343D9E35BC
102
}
330
7DE1B343D9E35BC
100
AcDbMlineStyle
  2
STANDARD
 70
     0
  3

 62
     0
 51
90.0
 52
90.0
 71
     2
 49
0.5
 62
   256
  6
BYLAYER
 49
-0.5
 62
   256
  6
BYLAYER
  0
ACDBPLACEHOLDER
  5
7DE1B343D9E35E5
102
{ACAD_REACTORS
330
7DE1B343D9E35E4
102
}
330
7DE1B343D9E35E4
100
AcDbPlaceHolder
280
     0
  0
XRECORD
  5
7DE1B343D9E35FB
102
{ACAD_REACTORS
330
7DE1B343D9E35F1
102
}
330
7DE1B343D9E35F1
100
AcDbXrecord
 90
        0
  0
XRECORD
  5
7DE1B343D9E35FC
102
{ACAD_REACTORS
330
7DE1B343D9E35F1
102
}
330
7DE1B343D9E35F1
100
AcDbXrecord
  1
{835DAF60-8DB9-11D6-88E6-0090279574E7}
  0
XRECORD
  5
7DE1B343D9E35F4
102
{ACAD_REACTORS
330
7DE1B343D9E35F1
102
}
330
7DE1B343D9E35F1
100
AcDbXrecord
  1

  0
XRECORD
  5
7DE1B343D9E35FA
102
{ACAD_REACTORS
330
7DE1B343D9E35F1
102
}
330
7DE1B343D9E35F1
100
AcDbXrecord
 90
        0
  0
XRECORD
  5
7DE1B343D9E35F6
102
{ACAD_REACTORS
330
7DE1B343D9E35F1
102
}
330
7DE1B343D9E35F1
100
AcDbXrecord
340
7DE1B343D9E35E6
  0
XRECORD
  5
7DE1B343D9E35F9
102
{ACAD_REACTORS
330
7DE1B343D9E35F1
102
}
330
7DE1B343D9E35F1
100
AcDbXrecord
 90
    14877
  0
XRECORD
  5
7DE1B343D9E35F7
102
{ACAD_REACTORS
330
7DE1B343D9E35F1
102
}
330
7DE1B343D9E35F1
100
AcDbXrecord
340
7DE1B343D9E35E7
  0
XRECORD
  5
7DE1B343D9E35F8
102
{ACAD_REACTORS
330
7DE1B343D9E35F1
102
}
330
7DE1B343D9E35F1
100
AcDbXrecord
340
7DE1B343D9E35E4
  0
XRECORD
  5
7DE1B343D9E35FE
102
{ACAD_REACTORS
330
7DE1B343D9E35F1
102
}
330
7DE1B343D9E35F1
100
AcDbXrecord
 40
0.0
  0
XRECORD
  5
7DE1B343D9E3601
102
{ACAD_REACTORS
330
7DE1B343D9E35F1
102
}
330
7DE1B343D9E35F1
100
AcDbXrecord
340
0
  0
XRECORD
  5
7DE1B343D9E3607
102
{ACAD_REACTORS
330
7DE1B343D9E35F1
102
}
330
7DE1B343D9E35F1
100
AcDbXrecord
 10
0.0
 20
0.0
 30
0.0
  0
XRECORD
  5
7DE1B343D9E3603
102
{ACAD_REACTORS
330
7DE1B343D9E35F1
102
}
330
7DE1B343D9E35F1
100
AcDbXrecord
 10
0.0
 20
0.0
 30
0.0
  0
XRECORD
  5
7DE1B343D9E3606
102
{ACAD_REACTORS
330
7DE1B343D9E35F1
102
}
330
7DE1B343D9E35F1
100
AcDbXrecord
 10
0.0
 20
0.0
 30
0.0
  0
XRECORD
  5
7DE1B343D9E3604
102
{ACAD_REACTORS
330
7DE1B343D9E35F1
102
}
330
7DE1B343D9E35F1
100
AcDbXrecord
 10
0.0
 20
0.0
 30
0.0
  0
XRECORD
  5
7DE1B343D9E3605
102
{ACAD_REACTORS
330
7DE1B343D9E35F1
102
}
330
7DE1B343D9E35F1
100
AcDbXrecord
 10
0.0
 20
0.0
 30
0.0
  0
XRECORD
  5
7DE1B343D9E3602
102
{ACAD_REACTORS
330
7DE1B343D9E35F1
102
}
330
7DE1B343D9E35F1
100
AcDbXrecord
 10
0.0
 20
0.0
 30
0.0
  0
XRECORD
  5
7DE1B343D9E35FF
102
{ACAD_REACTORS
330
7DE1B343D9E35F1
102
}
330
7DE1B343D9E35F1
100
AcDbXrecord
340
0
  0
XRECORD
  5
7DE1B343D9E3600
102
{ACAD_REACTORS
330
7DE1B343D9E35F1
102
}
330
7DE1B343D9E35F1
100
AcDbXrecord
 70
     0
  0
XRECORD
  5
7DE1B343D9E35F5
102
{ACAD_REACTORS
330
7DE1B343D9E35F1
102
}
330
7DE1B343D9E35F1
100
AcDbXrecord
  1

  0
XRECORD
  5
7DE1B343D9E35F2
102
{ACAD_REACTORS
330
7DE1B343D9E35F1
102
}
330
7DE1B343D9E35F1
100
AcDbXrecord
 90
        1
  0
XRECORD
  5
7DE1B343D9E35F3
102
{ACAD_REACTORS
330
7DE1B343D9E35F1
102
}
330
7DE1B343D9E35F1
100
AcDbXrecord
 90
       70
  0
XRECORD
  5
7DE1B343D9E360A
102
{ACAD_REACTORS
330
7DE1B343D9E35F1
102
}
330
7DE1B343D9E35F1
100
AcDbXrecord
340
0
  0
XRECORD
  5
7DE1B343D9E3610
102
{ACAD_REACTORS
330
7DE1B343D9E35F1
102
}
330
7DE1B343D9E35F1
100
AcDbXrecord
 10
0.0
 20
0.0
 30
0.0
  0
XRECORD
  5
7DE1B343D9E360C
102
{ACAD_REACTORS
330
7DE1B343D9E35F1
102
}
330
7DE1B343D9E35F1
100
AcDbXrecord
 10
0.0
 20
0.0
 30
0.0
  0
XRECORD
  5
7DE1B343D9E360F
102
{ACAD_REACTORS
330
7DE1B343D9E35F1
102
}
330
7DE1B343D9E35F1
100
AcDbXrecord
 10
0.0
 20
0.0
 30
0.0
  0
XRECORD
  5
7DE1B343D9E360D
102
{ACAD_REACTORS
330
7DE1B343D9E35F1
102
}
330
7DE1B343D9E35F1
100
AcDbXrecord
 10
0.0
 20
0.0
 30
0.0
  0
XRECORD
  5
7DE1B343D9E360E
102
{ACAD_REACTORS
330
7DE1B343D9E35F1
102
}
330
7DE1B343D9E35F1
100
AcDbXrecord
 10
0.0
 20
0.0
 30
0.0
  0
XRECORD
  5
7DE1B343D9E360B
102
{ACAD_REACTORS
330
7DE1B343D9E35F1
102
}
330
7DE1B343D9E35F1
100
AcDbXrecord
 10
0.0
 20
0.0
 30
0.0
  0
XRECORD
  5
7DE1B343D9E3608
102
{ACAD_REACTORS
330
7DE1B343D9E35F1
102
}
330
7DE1B343D9E35F1
100
AcDbXrecord
340
0
  0
XRECORD
  5
7DE1B343D9E3609
102
{ACAD_REACTORS
330
7DE1B343D9E35F1
102
}
330
7DE1B343D9E35F1
100
AcDbXrecord
 70
     0
  0
XRECORD
  5
7DE1B343D9E35FD
102
{ACAD_REACTORS
330
7DE1B343D9E35F1
102
}
330
7DE1B343D9E35F1
100
AcDbXrecord
  1
{835DAF62-8DB9-11D6-88E6-0090279574E7}
  0
DICTIONARYVAR
  5
7DE1B343D9E35EF
102
{ACAD_REACTORS
330
7DE1B343D9E35EE
102
}
330
7DE1B343D9E35EE
100
DictionaryVariables
280
     0
  1
1
  0
ENDSEC
  0
EOF
