  0
SECTION
  2
HEADER
  9
$ACADVER
  1
AC1014
  9
$ACADMAINTVER
 70
     9
  9
$DWGCODEPAGE
  3
ANSI_1252
  9
$INSBASE
 10
1.179878049814026
 20
2.335055347618965
 30
0.0
  9
$EXTMIN
 10
-0.3287285294131171
 20
0.3277353395333498
 30
0.0
  9
$EXTMAX
 10
3.15649079233401
 20
2.341193584651361
 30
0.0
  9
$LIMMIN
 10
0.0
 20
0.0
  9
$LIMMAX
 10
18.0
 20
12.0
  9
$ORTHOMODE
 70
     1
  9
$REGENMODE
 70
     1
  9
$FILLMODE
 70
     1
  9
$QTEXTMODE
 70
     0
  9
$MIRRTEXT
 70
     0
  9
$DRAGMODE
 70
     2
  9
$LTSCALE
 40
1.0
  9
$OSMODE
 70
    39
  9
$ATTMODE
 70
     1
  9
$TEXTSIZE
 40
0.125
  9
$TRACEWID
 40
0.05
  9
$TEXTSTYLE
  7
ROMANS
  9
$CLAYER
  8
0
  9
$CELTYPE
  6
BYLAYER
  9
$CECOLOR
 62
   256
  9
$CELTSCALE
 40
1.0
  9
$DELOBJ
 70
     1
  9
$DISPSILH
 70
     1
  9
$DIMSCALE
 40
1.0
  9
$DIMASZ
 40
0.125
  9
$DIMEXO
 40
0.125
  9
$DIMDLI
 40
0.375
  9
$DIMRND
 40
0.0
  9
$DIMDLE
 40
0.0
  9
$DIMEXE
 40
0.125
  9
$DIMTP
 40
0.0
  9
$DIMTM
 40
0.0
  9
$DIMTXT
 40
0.125
  9
$DIMCEN
 40
-0.125
  9
$DIMTSZ
 40
0.0
  9
$DIMTOL
 70
     0
  9
$DIMLIM
 70
     0
  9
$DIMTIH
 70
     1
  9
$DIMTOH
 70
     1
  9
$DIMSE1
 70
     0
  9
$DIMSE2
 70
     0
  9
$DIMTAD
 70
     0
  9
$DIMZIN
 70
     4
  9
$DIMBLK
  1

  9
$DIMASO
 70
     1
  9
$DIMSHO
 70
     1
  9
$DIMPOST
  1

  9
$DIMAPOST
  1

  9
$DIMALT
 70
     0
  9
$DIMALTD
 70
     2
  9
$DIMALTF
 40
25.4
  9
$DIMLFAC
 40
1.0
  9
$DIMTOFL
 70
     0
  9
$DIMTVP
 40
0.0
  9
$DIMTIX
 70
     1
  9
$DIMSOXD
 70
     0
  9
$DIMSAH
 70
     0
  9
$DIMBLK1
  1

  9
$DIMBLK2
  1

  9
$DIMSTYLE
  2
STANDARD
  9
$DIMCLRD
 70
     0
  9
$DIMCLRE
 70
     0
  9
$DIMCLRT
 70
     0
  9
$DIMTFAC
 40
1.0
  9
$DIMGAP
 40
0.09
  9
$DIMJUST
 70
     0
  9
$DIMSD1
 70
     0
  9
$DIMSD2
 70
     0
  9
$DIMTOLJ
 70
     1
  9
$DIMTZIN
 70
     4
  9
$DIMALTZ
 70
     0
  9
$DIMALTTZ
 70
     0
  9
$DIMFIT
 70
     3
  9
$DIMUPT
 70
     0
  9
$DIMUNIT
 70
     2
  9
$DIMDEC
 70
     3
  9
$DIMTDEC
 70
     3
  9
$DIMALTU
 70
     2
  9
$DIMALTTD
 70
     2
  9
$DIMTXSTY
  7
ROMANS
  9
$DIMAUNIT
 70
     0
  9
$LUNITS
 70
     2
  9
$LUPREC
 70
     3
  9
$SKETCHINC
 40
0.1
  9
$FILLETRAD
 40
0.03125
  9
$AUNITS
 70
     0
  9
$AUPREC
 70
     0
  9
$MENU
  1
ACAD
  9
$ELEVATION
 40
0.0
  9
$PELEVATION
 40
0.0
  9
$THICKNESS
 40
0.0
  9
$LIMCHECK
 70
     0
  9
$BLIPMODE
 70
     0
  9
$CHAMFERA
 40
0.0
  9
$CHAMFERB
 40
0.0
  9
$CHAMFERC
 40
0.0
  9
$CHAMFERD
 40
0.0
  9
$SKPOLY
 70
     0
  9
$TDCREATE
 40
2448994.686002778
  9
$TDUPDATE
 40
2452458.322815081
  9
$TDINDWG
 40
0.0004858796
  9
$TDUSRTIMER
 40
0.0004858796
  9
$USRTIMER
 70
     1
  9
$ANGBASE
 50
0.0
  9
$ANGDIR
 70
     0
  9
$PDMODE
 70
     0
  9
$PDSIZE
 40
0.0
  9
$PLINEWID
 40
0.0
  9
$COORDS
 70
     2
  9
$SPLFRAME
 70
     0
  9
$SPLINETYPE
 70
     6
  9
$SPLINESEGS
 70
     8
  9
$ATTDIA
 70
     0
  9
$ATTREQ
 70
     1
  9
$HANDLING
 70
 22529
  9
$HANDSEED
  5
7DE1B343D9E31E8
  9
$SURFTAB1
 70
     6
  9
$SURFTAB2
 70
     6
  9
$SURFTYPE
 70
     6
  9
$SURFU
 70
     6
  9
$SURFV
 70
     6
  9
$UCSNAME
  2

  9
$UCSORG
 10
0.0
 20
0.0
 30
0.0
  9
$UCSXDIR
 10
1.0
 20
0.0
 30
0.0
  9
$UCSYDIR
 10
0.0
 20
1.0
 30
0.0
  9
$PUCSNAME
  2

  9
$PUCSORG
 10
0.0
 20
0.0
 30
0.0
  9
$PUCSXDIR
 10
1.0
 20
0.0
 30
0.0
  9
$PUCSYDIR
 10
0.0
 20
1.0
 30
0.0
  9
$USERI1
 70
     0
  9
$USERI2
 70
     0
  9
$USERI3
 70
     0
  9
$USERI4
 70
     0
  9
$USERI5
 70
     0
  9
$USERR1
 40
0.0
  9
$USERR2
 40
0.0
  9
$USERR3
 40
0.0
  9
$USERR4
 40
0.0
  9
$USERR5
 40
0.0
  9
$WORLDVIEW
 70
     1
  9
$SHADEDGE
 70
     3
  9
$SHADEDIF
 70
    70
  9
$TILEMODE
 70
     1
  9
$MAXACTVP
 70
    16
  9
$PINSBASE
 10
0.4905225867718012
 20
50.00000000000001
 30
0.4298780463556393
  9
$PLIMCHECK
 70
     0
  9
$PEXTMIN
 10
1.000000000000000E+20
 20
1.000000000000000E+20
 30
1.000000000000000E+20
  9
$PEXTMAX
 10
-1.000000000000000E+20
 20
-1.000000000000000E+20
 30
-1.000000000000000E+20
  9
$PLIMMIN
 10
0.0
 20
0.0
  9
$PLIMMAX
 10
12.0
 20
9.0
  9
$UNITMODE
 70
     0
  9
$VISRETAIN
 70
     0
  9
$PLINEGEN
 70
     1
  9
$PSLTSCALE
 70
     0
  9
$TREEDEPTH
 70
  3020
  9
$PICKSTYLE
 70
     1
  9
$CMLSTYLE
  2
STANDARD
  9
$CMLJUST
 70
     0
  9
$CMLSCALE
 40
1.0
  9
$PROXYGRAPHICS
 70
     1
  9
$MEASUREMENT
 70
     0
  0
ENDSEC
  0
SECTION
  2
CLASSES
  0
CLASS
  1
LWPOLYLINE
  2
AcDbPolyline
  3
AutoCAD 2000
 90
        0
280
     0
281
     1
  0
CLASS
  1
ACDBDICTIONARYWDFLT
  2
AcDbDictionaryWithDefault
  3
AutoCAD 2000
 90
        0
280
     0
281
     0
  0
CLASS
  1
ACDBPLACEHOLDER
  2
AcDbPlaceHolder
  3
AutoCAD 2000
 90
        0
280
     0
281
     0
  0
CLASS
  1
LAYOUT
  2
AcDbLayout
  3
AutoCAD 2000
 90
        0
280
     0
281
     0
  0
CLASS
  1
DICTIONARYVAR
  2
AcDbDictionaryVar
  3
AutoCAD 2000
 90
        0
280
     0
281
     0
  0
CLASS
  1
LONG_TRANSACTION
  2
AcDbLongTransaction
  3
AutoCAD 2000
 90
        0
280
     0
281
     0
  0
CLASS
  1
LWPOLYLINE
  2
AcDbPolyline
  3
AutoCAD 2000
 90
        0
280
     0
281
     1
  0
CLASS
  1
HATCH
  2
AcDbHatch
  3
AutoCAD 2000
 90
        0
280
     0
281
     1
  0
CLASS
  1
XRECORD
  2
AcDbXrecord
  3
AutoCAD 2000
 90
        0
280
     0
281
     0
  0
ENDSEC
  0
SECTION
  2
TABLES
  0
TABLE
  2
VPORT
  5
7DE1B343D9E3189
330
0
100
AcDbSymbolTable
 70
     2
  0
VPORT
  5
7DE1B343D9E31C3
330
7DE1B343D9E3189
100
AcDbSymbolTableRecord
100
AcDbViewportTableRecord
  2
*ACTIVE
 70
     0
 10
0.0
 20
0.0
 11
1.0
 21
1.0
 12
4.391043240571641
 22
1.334472678758288
 13
0.0
 23
0.0
 14
0.015625
 24
0.015625
 15
0.0
 25
0.0
 16
0.0
 26
0.0
 36
1.0
 17
0.0
 27
0.0
 37
0.0
 40
2.283208804497764
 41
4.320930232558139
 42
50.0
 43
0.0
 44
0.0
 50
0.0
 51
0.0
 71
     0
 72
  2000
 73
     1
 74
     0
 75
     0
 76
     0
 77
     0
 78
     0
  0
ENDTAB
  0
TABLE
  2
LTYPE
  5
7DE1B343D9E3186
330
0
100
AcDbSymbolTable
 70
     1
  0
LTYPE
  5
7DE1B343D9E3193
330
7DE1B343D9E3186
100
AcDbSymbolTableRecord
100
AcDbLinetypeTableRecord
  2
BYBLOCK
 70
     0
  3

 72
    65
 73
     0
 40
0.0
  0
LTYPE
  5
7DE1B343D9E3194
330
7DE1B343D9E3186
100
AcDbSymbolTableRecord
100
AcDbLinetypeTableRecord
  2
BYLAYER
 70
     0
  3

 72
    65
 73
     0
 40
0.0
  0
LTYPE
  5
7DE1B343D9E3195
330
7DE1B343D9E3186
100
AcDbSymbolTableRecord
100
AcDbLinetypeTableRecord
  2
CONTINUOUS
 70
     0
  3
Solid line
 72
    65
 73
     0
 40
0.0
  0
ENDTAB
  0
TABLE
  2
LAYER
  5
7DE1B343D9E3183
330
0
100
AcDbSymbolTable
 70
     2
  0
LAYER
  5
7DE1B343D9E3190
330
7DE1B343D9E3183
100
AcDbSymbolTableRecord
100
AcDbLayerTableRecord
  2
0
 70
     0
 62
     7
  6
CONTINUOUS
  0
LAYER
  5
7DE1B343D9E31A0
330
7DE1B343D9E3183
100
AcDbSymbolTableRecord
100
AcDbLayerTableRecord
  2
TEXT
 70
     0
 62
     3
  6
CONTINUOUS
  0
ENDTAB
  0
TABLE
  2
STYLE
  5
7DE1B343D9E3184
330
0
100
AcDbSymbolTable
 70
     3
  0
STYLE
  5
7DE1B343D9E3191
330
7DE1B343D9E3184
100
AcDbSymbolTableRecord
100
AcDbTextStyleTableRecord
  2
STANDARD
 70
     0
 40
0.0
 41
1.0
 50
0.0
 71
     0
 42
0.3125
  3
txt
  4

  0
STYLE
  5
7DE1B343D9E319D
330
7DE1B343D9E3184
100
AcDbSymbolTableRecord
100
AcDbTextStyleTableRecord
  2
ITALICC
 70
     0
 40
0.0
 41
1.0
 50
0.0
 71
     0
 42
0.125
  3
italicc
  4

  0
STYLE
  5
7DE1B343D9E31AD
330
7DE1B343D9E3184
100
AcDbSymbolTableRecord
100
AcDbTextStyleTableRecord
  2
ROMANS
 70
     0
 40
0.0
 41
1.0
 50
0.0
 71
     0
 42
0.125
  3
romans.shx
  4

  0
ENDTAB
  0
TABLE
  2
VIEW
  5
7DE1B343D9E3187
330
0
100
AcDbSymbolTable
 70
     0
  0
ENDTAB
  0
TABLE
  2
UCS
  5
7DE1B343D9E3188
330
0
100
AcDbSymbolTable
 70
     0
  0
ENDTAB
  0
TABLE
  2
APPID
  5
7DE1B343D9E318A
330
0
100
AcDbSymbolTable
 70
     1
  0
APPID
  5
7DE1B343D9E3192
330
7DE1B343D9E318A
100
AcDbSymbolTableRecord
100
AcDbRegAppTableRecord
  2
ACAD
 70
     0
  0
ENDTAB
  0
TABLE
  2
DIMSTYLE
  5
7DE1B343D9E318B
330
0
100
AcDbSymbolTable
 70
     1
  0
DIMSTYLE
105
7DE1B343D9E31A5
330
7DE1B343D9E318B
100
AcDbSymbolTableRecord
100
AcDbDimStyleTableRecord
  2
STANDARD
 70
     0
  3

  4

  5

  6

  7

 40
1.0
 41
0.125
 42
0.125
 43
0.375
 44
0.125
 45
0.0
 46
0.0
 47
0.0
 48
0.0
140
0.125
141
-0.125
142
0.0
143
25.4
144
1.0
145
0.0
146
1.0
147
0.09
 71
     0
 72
     0
 73
     1
 74
     1
 75
     0
 76
     0
 77
     0
 78
     4
170
     0
171
     2
172
     0
173
     0
174
     1
175
     0
176
     0
177
     0
178
     0
270
     2
271
     3
272
     3
273
     2
274
     2
340
7DE1B343D9E31AD
275
     0
280
     0
281
     0
282
     0
283
     1
284
     4
285
     0
286
     0
287
     3
288
     0
  0
ENDTAB
  0
TABLE
  2
BLOCK_RECORD
  5
7DE1B343D9E3182
330
0
100
AcDbSymbolTable
 70
     0
  0
BLOCK_RECORD
  5
7DE1B343D9E3199
102
{ACAD_XDICTIONARY
360
7DE1B343D9E31E6
102
}
330
7DE1B343D9E3182
100
AcDbSymbolTableRecord
100
AcDbBlockTableRecord
  2
*MODEL_SPACE
  0
BLOCK_RECORD
  5
7DE1B343D9E3196
102
{ACAD_XDICTIONARY
360
7DE1B343D9E31E4
102
}
330
7DE1B343D9E3182
100
AcDbSymbolTableRecord
100
AcDbBlockTableRecord
  2
*PAPER_SPACE
  0
ENDTAB
  0
ENDSEC
  0
SECTION
  2
BLOCKS
  0
BLOCK
  5
7DE1B343D9E31A3
330
7DE1B343D9E3199
100
AcDbEntity
  8
0
100
AcDbBlockBegin
  2
*MODEL_SPACE
 70
     0
 10
0.0
 20
0.0
 30
0.0
  3
*MODEL_SPACE
  1

  0
ENDBLK
  5
7DE1B343D9E31A4
330
7DE1B343D9E3199
100
AcDbEntity
  8
0
100
AcDbBlockEnd
  0
BLOCK
  5
7DE1B343D9E31A1
330
7DE1B343D9E3196
100
AcDbEntity
 67
     1
  8
0
100
AcDbBlockBegin
  2
*PAPER_SPACE
 70
     0
 10
0.0
 20
0.0
 30
0.0
  3
*PAPER_SPACE
  1

  0
ENDBLK
  5
7DE1B343D9E31A2
330
7DE1B343D9E3196
100
AcDbEntity
 67
     1
  8
0
100
AcDbBlockEnd
  0
ENDSEC
  0
SECTION
  2
ENTITIES
  0
LWPOLYLINE
  5
7DE1B343D9E1DB7
330
7DE1B343D9E3199
100
AcDbEntity
  8
0
100
AcDbPolyline
 90
       16
 70
     1
 43
0.0
 10
1.586128049814026
 20
1.733492847618965
 42
0.9655624660004534
 10
1.632945528993194
 20
1.731851817506013
 42
0.0350685012336732
 10
1.632926208052878
 20
2.305995485837302
 42
0.3938155374161765
 10
1.601753049814026
 20
2.335055347618965
 10
1.179878049814026
 20
2.335055347618965
 10
1.179878049814026
 20
1.108492847618965
 42
1.0
 10
1.226753049814026
 20
1.108492847618965
 10
1.226753049814025
 20
1.387555347618964
 10
1.216753049814025
 20
1.397555347618965
 10
1.226753049814025
 20
1.407555347618965
 10
1.226753049814026
 20
1.647555347618965
 10
1.283942388746155
 20
1.792323766611182
 42
0.5292270190804213
 10
1.254878049814026
 20
1.835055347618965
 10
1.242378049814026
 20
1.835055347618965
 10
1.242378049814026
 20
2.272555347618965
 10
1.586128049814026
 20
2.272555347618965
  0
TEXT
  5
7DE1B343D9E3044
330
7DE1B343D9E3199
100
AcDbEntity
  8
TEXT
100
AcDbText
 10
0.6583006688616452
 20
0.7857539436159314
 30
0.0
 40
0.125
  1
PART #120055
  7
ITALICC
 72
     1
 11
1.414253049814026
 21
0.7857539436159314
 31
0.0
100
AcDbText
  0
TEXT
  5
7DE1B343D9E3045
330
7DE1B343D9E3199
100
AcDbEntity
  8
TEXT
100
AcDbText
 10
1.827558208064346
 20
0.3388313009435562
 30
0.0
 40
0.0522247191011236
  1
Phone  1-800-328-2495
 41
1.272321428571429
 72
     5
 11
3.15649079233401
 21
0.3388313009435562
 31
0.0
100
AcDbText
  0
TEXT
  5
7DE1B343D9E3046
330
7DE1B343D9E3199
100
AcDbEntity
  8
TEXT
100
AcDbText
 10
1.827558208064346
 20
0.6186065818424327
 30
0.0
 40
0.0522247191011236
  1
Stylmark  Incorporated
 41
1.221428571428571
 72
     5
 11
3.15649079233401
 21
0.6186065818424327
 31
0.0
100
AcDbText
  0
TEXT
  5
7DE1B343D9E3047
330
7DE1B343D9E3199
100
AcDbEntity
  8
TEXT
100
AcDbText
 10
1.827558208064346
 20
0.5253481548761405
 30
0.0
 40
0.0522247191011236
  1
6536 Main St. N.E. * P.O. Box 32008
 41
0.8388932496075355
 72
     5
 11
3.15649079233401
 21
0.5253481548761405
 31
0.0
100
AcDbText
  0
TEXT
  5
7DE1B343D9E3048
330
7DE1B343D9E3199
100
AcDbEntity
  8
TEXT
100
AcDbText
 10
1.827558208064346
 20
0.4320897279098484
 30
0.0
 40
0.0522247191011236
  1
Minneapolis, MN 55432-0008
 41
1.11444212721585
 72
     5
 11
3.15649079233401
 21
0.4320897279098484
 31
0.0
100
AcDbText
  0
LWPOLYLINE
  5
7DE1B343D9E3049
330
7DE1B343D9E3199
100
AcDbEntity
  8
TEXT
100
AcDbPolyline
 90
        3
 70
     0
 43
0.0006660908203125
 10
-0.3283954840029608
 20
0.4524760635809911
 10
-0.3283954840029608
 20
0.3392406241278634
 10
-0.2151600445498385
 20
0.3392406241278634
  0
LWPOLYLINE
  5
7DE1B343D9E304E
330
7DE1B343D9E3199
100
AcDbEntity
  8
TEXT
100
AcDbPolyline
 90
        3
 70
     0
 43
0.0006660908203125
 10
-0.3017518511904633
 20
0.4524760635809911
 10
-0.3017518511904633
 20
0.3658842569403644
 10
-0.2151600445498385
 20
0.3658842569403644
  0
LWPOLYLINE
  5
7DE1B343D9E3053
330
7DE1B343D9E3199
100
AcDbEntity
  8
TEXT
100
AcDbPolyline
 90
        2
 70
     0
 43
0.0001332181640625
 10
-0.2551254937685865
 20
0.4624674258856763
 10
-0.3283954840029608
 20
0.4524760635809911
  0
LWPOLYLINE
  5
7DE1B343D9E3057
330
7DE1B343D9E3199
100
AcDbEntity
  8
TEXT
100
AcDbPolyline
 90
        2
 70
     0
 43
0.0001332181640625
 10
-0.3017518511904633
 20
0.4524760635809911
 10
-0.241803677362336
 20
0.4624674258856763
  0
LWPOLYLINE
  5
7DE1B343D9E305B
330
7DE1B343D9E3199
100
AcDbEntity
  8
TEXT
100
AcDbPolyline
 90
        2
 70
     0
 43
0.0001332181640625
 10
-0.3017518511904633
 20
0.3658842569403644
 10
-0.241803677362336
 20
0.42583243076849
  0
LWPOLYLINE
  5
7DE1B343D9E305F
330
7DE1B343D9E3199
100
AcDbEntity
  8
TEXT
100
AcDbPolyline
 90
        3
 70
     0
 43
0.0006660908203125
 10
-0.2151600445498385
 20
0.6056769522528667
 10
-0.3283954840029608
 20
0.6056769522528667
 10
-0.3283954840029608
 20
0.4924415127997391
  0
LWPOLYLINE
  5
7DE1B343D9E3064
330
7DE1B343D9E3199
100
AcDbEntity
  8
TEXT
100
AcDbPolyline
 90
        3
 70
     0
 43
0.0006660908203125
 10
-0.2151600445498385
 20
0.5790333194403657
 10
-0.3017518511904633
 20
0.5790333194403657
 10
-0.3017518511904633
 20
0.4924415127997391
  0
LWPOLYLINE
  5
7DE1B343D9E3069
330
7DE1B343D9E3199
100
AcDbEntity
  8
TEXT
100
AcDbPolyline
 90
        2
 70
     0
 43
0.0001332181640625
 10
-0.3017518511904633
 20
0.5790333194403657
 10
-0.2418036773623378
 20
0.5190851456122401
  0
LWPOLYLINE
  5
7DE1B343D9E306D
330
7DE1B343D9E3199
100
AcDbEntity
  8
TEXT
100
AcDbPolyline
 90
        2
 70
     0
 43
0.0001332181640625
 10
-0.3017518511904633
 20
0.4924415127997391
 10
-0.2418036773623378
 20
0.4824501504950503
  0
LWPOLYLINE
  5
7DE1B343D9E3071
330
7DE1B343D9E3199
100
AcDbEntity
  8
TEXT
100
AcDbPolyline
 90
        2
 70
     0
 43
0.0001332181640625
 10
-0.3283954840029608
 20
0.4924415127997391
 10
-0.2551254937685865
 20
0.4824501504950503
  0
LWPOLYLINE
  5
7DE1B343D9E3075
330
7DE1B343D9E3199
100
AcDbEntity
  8
TEXT
100
AcDbPolyline
 90
        2
 70
     0
 43
0.0006660908203125
 10
-0.3017518511904633
 20
0.4524760635809911
 10
-0.3283954840029608
 20
0.4524760635809911
  0
LWPOLYLINE
  5
7DE1B343D9E3079
330
7DE1B343D9E3199
100
AcDbEntity
  8
TEXT
100
AcDbPolyline
 90
        2
 70
     0
 43
0.0006660908203125
 10
-0.3017518511904633
 20
0.4924415127997391
 10
-0.3283954840029608
 20
0.4924415127997391
  0
LINE
  5
7DE1B343D9E307D
330
7DE1B343D9E3199
100
AcDbEntity
  8
TEXT
100
AcDbLine
 10
1.186794945123536
 20
0.5414002575960977
 30
0.0
 11
1.079588671736247
 21
0.5414002575960977
 31
0.0
  0
LINE
  5
7DE1B343D9E307E
330
7DE1B343D9E3199
100
AcDbEntity
  8
TEXT
100
AcDbLine
 10
1.215825843468015
 20
0.6056769522528631
 30
0.0
 11
1.080993934250956
 21
0.6056769522528631
 31
0.0
  0
ARC
  5
7DE1B343D9E307F
330
7DE1B343D9E3199
100
AcDbEntity
  8
TEXT
100
AcDbCircle
 10
1.140308030644272
 20
0.4364397029898468
 30
0.0
 40
0.0676855811441166
100
AcDbArc
 50
90.0
 51
153.7768192527749
  0
LWPOLYLINE
  5
7DE1B343D9E3080
330
7DE1B343D9E3199
100
AcDbEntity
  8
TEXT
100
AcDbPolyline
 90
        2
 70
     0
 43
0.0
 10
1.078556176281437
 20
0.3826948642147903
 42
0.2901071551932823
 10
1.121632109149072
 20
0.3392039192643521
 42
5.328517124445801
  0
ARC
  5
7DE1B343D9E3084
330
7DE1B343D9E3199
100
AcDbEntity
  8
TEXT
100
AcDbCircle
 10
0.4351766529727872
 20
0.3989963106024019
 30
0.0
 40
0.0601160179737537
100
AcDbArc
 50
180.0000000000003
 51
264.0521544866073
  0
LINE
  5
7DE1B343D9E3085
330
7DE1B343D9E3199
100
AcDbEntity
  8
TEXT
100
AcDbLine
 10
0.4386920085983351
 20
0.6400648698470013
 30
0.0
 11
0.378649403754328
 21
0.6400648698470013
 31
0.0
  0
ARC
  5
7DE1B343D9E3086
330
7DE1B343D9E3199
100
AcDbEntity
  8
TEXT
100
AcDbCircle
 10
0.2029176508558166
 20
0.5235894928063614
 30
0.0
 40
0.0820874594465043
100
AcDbArc
 50
90.0
 51
270.0
  0
LWPOLYLINE
  5
7DE1B343D9E3087
330
7DE1B343D9E3199
100
AcDbEntity
  8
TEXT
100
AcDbPolyline
 90
        2
 70
     0
 43
0.0001332181640625
 10
-0.2051686822451479
 20
0.5324069620184871
 10
-0.2151600445498385
 20
0.6056769522528667
  0
LWPOLYLINE
  5
7DE1B343D9E308B
330
7DE1B343D9E3199
100
AcDbEntity
  8
TEXT
100
AcDbPolyline
 90
        2
 70
     0
 43
0.0001332181640625
 10
-0.2151600445498385
 20
0.5790333194403657
 10
-0.2051686822451479
 20
0.5190851456122401
  0
LWPOLYLINE
  5
7DE1B343D9E308F
330
7DE1B343D9E3199
100
AcDbEntity
  8
TEXT
100
AcDbPolyline
 90
        3
 70
     0
 43
0.0006660908203125
 10
-0.0619591558779611
 20
0.4924415127997391
 10
-0.0619591558779611
 20
0.6056769522528667
 10
-0.1751945953310869
 20
0.6056769522528667
  0
LWPOLYLINE
  5
7DE1B343D9E3094
330
7DE1B343D9E3199
100
AcDbEntity
  8
TEXT
100
AcDbPolyline
 90
        3
 70
     0
 43
0.0006660908203125
 10
-0.0886027886904621
 20
0.4924415127997391
 10
-0.0886027886904621
 20
0.5790333194403657
 10
-0.1751945953310869
 20
0.5790333194403657
  0
LWPOLYLINE
  5
7DE1B343D9E3099
330
7DE1B343D9E3199
100
AcDbEntity
  8
TEXT
100
AcDbPolyline
 90
        2
 70
     0
 43
0.0001332181640625
 10
-0.0886027886904621
 20
0.5790333194403657
 10
-0.1485509625185859
 20
0.5190851456122401
  0
LWPOLYLINE
  5
7DE1B343D9E309D
330
7DE1B343D9E3199
100
AcDbEntity
  8
TEXT
100
AcDbPolyline
 90
        2
 70
     0
 43
0.0001332181640625
 10
-0.1751945953310869
 20
0.5790333194403657
 10
-0.1851859576357757
 20
0.5190851456122401
  0
LWPOLYLINE
  5
7DE1B343D9E30A1
330
7DE1B343D9E3199
100
AcDbEntity
  8
TEXT
100
AcDbPolyline
 90
        2
 70
     0
 43
0.0001332181640625
 10
-0.1751945953310869
 20
0.6056769522528667
 10
-0.1851859576357757
 20
0.5324069620184871
  0
LWPOLYLINE
  5
7DE1B343D9E30A5
330
7DE1B343D9E3199
100
AcDbEntity
  8
TEXT
100
AcDbPolyline
 90
        2
 70
     0
 43
0.0001332181640625
 10
-0.1352291461123372
 20
0.4824501504950503
 10
-0.0619591558779611
 20
0.4924415127997391
  0
LWPOLYLINE
  5
7DE1B343D9E30A9
330
7DE1B343D9E3199
100
AcDbEntity
  8
TEXT
100
AcDbPolyline
 90
        2
 70
     0
 43
0.0001332181640625
 10
-0.0886027886904621
 20
0.4924415127997391
 10
-0.1485509625185859
 20
0.4824501504950503
  0
LWPOLYLINE
  5
7DE1B343D9E30AD
330
7DE1B343D9E3199
100
AcDbEntity
  8
TEXT
100
AcDbPolyline
 90
        2
 70
     0
 43
0.0001332181640625
 10
-0.0619591558779611
 20
0.4524760635809911
 10
-0.1352291461123372
 20
0.4624674258856763
  0
LWPOLYLINE
  5
7DE1B343D9E30B1
330
7DE1B343D9E3199
100
AcDbEntity
  8
TEXT
100
AcDbPolyline
 90
        2
 70
     0
 43
0.0001332181640625
 10
-0.0886027886904621
 20
0.4524760635809911
 10
-0.1485509625185859
 20
0.4624674258856763
  0
LWPOLYLINE
  5
7DE1B343D9E30B5
330
7DE1B343D9E3199
100
AcDbEntity
  8
TEXT
100
AcDbPolyline
 90
        2
 70
     0
 43
0.0001332181640625
 10
-0.0886027886904621
 20
0.3658842569403644
 10
-0.1485509625185859
 20
0.42583243076849
  0
LWPOLYLINE
  5
7DE1B343D9E30B9
330
7DE1B343D9E3199
100
AcDbEntity
  8
TEXT
100
AcDbPolyline
 90
        3
 70
     0
 43
0.0006660908203125
 10
-0.1751945953310869
 20
0.3658842569403644
 10
-0.0886027886904621
 20
0.3658842569403644
 10
-0.0886027886904621
 20
0.4524760635809911
  0
LWPOLYLINE
  5
7DE1B343D9E30BE
330
7DE1B343D9E3199
100
AcDbEntity
  8
TEXT
100
AcDbPolyline
 90
        3
 70
     0
 43
0.0006660908203125
 10
-0.1751945953310869
 20
0.3392406241278634
 10
-0.0619591558779611
 20
0.3392406241278634
 10
-0.0619591558779611
 20
0.4524760635809911
  0
LWPOLYLINE
  5
7DE1B343D9E30C3
330
7DE1B343D9E3199
100
AcDbEntity
  8
TEXT
100
AcDbPolyline
 90
        5
 70
     0
 43
0.0001332181640625
 10
-0.2051686822451479
 20
0.4125106143622395
 10
-0.2051686822451479
 20
0.42583243076849
 10
-0.241803677362336
 20
0.42583243076849
 10
-0.241803677362336
 20
0.4624674258856763
 10
-0.2551254937685865
 20
0.4624674258856763
  0
LWPOLYLINE
  5
7DE1B343D9E30CA
330
7DE1B343D9E3199
100
AcDbEntity
  8
TEXT
100
AcDbPolyline
 90
        2
 70
     0
 43
0.0006660908203125
 10
-0.2151600445498385
 20
0.3658842569403644
 10
-0.2151600445498385
 20
0.3392406241278634
  0
LWPOLYLINE
  5
7DE1B343D9E30CE
330
7DE1B343D9E3199
100
AcDbEntity
  8
TEXT
100
AcDbPolyline
 90
        2
 70
     0
 43
0.0001332181640625
 10
-0.2151600445498385
 20
0.3658842569403644
 10
-0.2051686822451479
 20
0.42583243076849
  0
LWPOLYLINE
  5
7DE1B343D9E30D2
330
7DE1B343D9E3199
100
AcDbEntity
  8
TEXT
100
AcDbPolyline
 90
        2
 70
     0
 43
0.0001332181640625
 10
-0.2151600445498385
 20
0.3392406241278634
 10
-0.2051686822451479
 20
0.4125106143622395
  0
LWPOLYLINE
  5
7DE1B343D9E30D6
330
7DE1B343D9E3199
100
AcDbEntity
  8
TEXT
100
AcDbPolyline
 90
        5
 70
     0
 43
0.0001332181640625
 10
-0.2551254937685865
 20
0.4824501504950503
 10
-0.2418036773623378
 20
0.4824501504950503
 10
-0.2418036773623378
 20
0.5190851456122401
 10
-0.2051686822451479
 20
0.5190851456122401
 10
-0.2051686822451479
 20
0.5324069620184871
  0
LWPOLYLINE
  5
7DE1B343D9E30DD
330
7DE1B343D9E3199
100
AcDbEntity
  8
TEXT
100
AcDbPolyline
 90
        5
 70
     0
 43
0.0001332181640625
 10
-0.1851859576357757
 20
0.5324069620184871
 10
-0.1851859576357757
 20
0.5190851456122401
 10
-0.1485509625185859
 20
0.5190851456122401
 10
-0.1485509625185859
 20
0.4824501504950503
 10
-0.1352291461123372
 20
0.4824501504950503
  0
LWPOLYLINE
  5
7DE1B343D9E30E4
330
7DE1B343D9E3199
100
AcDbEntity
  8
TEXT
100
AcDbPolyline
 90
        2
 70
     0
 43
0.0001332181640625
 10
-0.1751945953310869
 20
0.3658842569403644
 10
-0.1851859576357757
 20
0.42583243076849
  0
LWPOLYLINE
  5
7DE1B343D9E30E8
330
7DE1B343D9E3199
100
AcDbEntity
  8
TEXT
100
AcDbPolyline
 90
        2
 70
     0
 43
0.0001332181640625
 10
-0.1851859576357757
 20
0.4125106143622395
 10
-0.1751945953310869
 20
0.3392406241278634
  0
LWPOLYLINE
  5
7DE1B343D9E30EC
330
7DE1B343D9E3199
100
AcDbEntity
  8
TEXT
100
AcDbPolyline
 90
        2
 70
     0
 43
0.0006660908203125
 10
-0.1751945953310869
 20
0.3658842569403644
 10
-0.1751945953310869
 20
0.3392406241278634
  0
LWPOLYLINE
  5
7DE1B343D9E30F0
330
7DE1B343D9E3199
100
AcDbEntity
  8
TEXT
100
AcDbPolyline
 90
        5
 70
     0
 43
0.0001332181640625
 10
-0.1352291461123372
 20
0.4624674258856763
 10
-0.1485509625185859
 20
0.4624674258856763
 10
-0.1485509625185859
 20
0.42583243076849
 10
-0.1851859576357757
 20
0.42583243076849
 10
-0.1851859576357757
 20
0.4125106143622395
  0
LWPOLYLINE
  5
7DE1B343D9E30F7
330
7DE1B343D9E3199
100
AcDbEntity
  8
TEXT
100
AcDbPolyline
 90
        2
 70
     0
 43
0.0006660908203125
 10
-0.0886027886904621
 20
0.4924415127997391
 10
-0.0619591558779611
 20
0.4924415127997391
  0
LWPOLYLINE
  5
7DE1B343D9E30FB
330
7DE1B343D9E3199
100
AcDbEntity
  8
TEXT
100
AcDbPolyline
 90
        2
 70
     0
 43
0.0006660908203125
 10
-0.0886027886904621
 20
0.4524760635809911
 10
-0.0619591558779611
 20
0.4524760635809911
  0
LINE
  5
7DE1B343D9E30FF
330
7DE1B343D9E3199
100
AcDbEntity
  8
TEXT
100
AcDbLine
 10
0.2081549809700638
 20
0.5414002575960977
 30
0.0
 11
0.3750606349990351
 21
0.5414002575960977
 31
0.0
  0
LINE
  5
7DE1B343D9E3100
330
7DE1B343D9E3199
100
AcDbEntity
  8
TEXT
100
AcDbLine
 10
0.2737551172143648
 20
0.5055955359854698
 30
0.0
 11
0.2081549809700638
 21
0.5055955359854698
 31
0.0
  0
LINE
  5
7DE1B343D9E3101
330
7DE1B343D9E3199
100
AcDbEntity
  8
TEXT
100
AcDbLine
 10
0.1208301914093122
 20
0.3392039192643521
 30
0.0
 11
0.2737551172143648
 21
0.3392039192643521
 31
0.0
  0
LINE
  5
7DE1B343D9E3102
330
7DE1B343D9E3199
100
AcDbEntity
  8
TEXT
100
AcDbLine
 10
0.2786954911206445
 20
0.4075609255977915
 30
0.0
 11
0.1208301914093104
 21
0.4075609255977915
 31
0.0
  0
LINE
  5
7DE1B343D9E3103
330
7DE1B343D9E3199
100
AcDbEntity
  8
TEXT
100
AcDbLine
 10
0.2029176508558157
 20
0.4415020333598561
 30
0.0
 11
0.2786954911206445
 21
0.4415020333598561
 31
0.0
  0
ARC
  5
7DE1B343D9E3104
330
7DE1B343D9E3199
100
AcDbEntity
  8
TEXT
100
AcDbCircle
 10
0.2081549809700647
 20
0.5234978967907855
 30
0.0
 40
0.017902360805315
100
AcDbArc
 50
90.0
 51
270.0
  0
LINE
  5
7DE1B343D9E3105
330
7DE1B343D9E3199
100
AcDbEntity
  8
TEXT
100
AcDbLine
 10
0.1208301914093104
 20
0.4075609255977915
 30
0.0
 11
0.1208301914093122
 21
0.3392039192643521
 31
0.0
  0
LINE
  5
7DE1B343D9E3106
330
7DE1B343D9E3199
100
AcDbEntity
  8
TEXT
100
AcDbLine
 10
0.3750606349990351
 20
0.5414002575960977
 30
0.0
 11
0.3750606349990351
 21
0.3989963106024019
 31
0.0
  0
ARC
  5
7DE1B343D9E3107
330
7DE1B343D9E3199
100
AcDbEntity
  8
TEXT
100
AcDbCircle
 10
0.2737551172143657
 20
0.4223997276249092
 30
0.0
 40
0.0831958083605586
100
AcDbArc
 50
270.0
 51
90.0
  0
ARC
  5
7DE1B343D9E3108
330
7DE1B343D9E3199
100
AcDbEntity
  8
TEXT
100
AcDbCircle
 10
0.2786954911206454
 20
0.4245314794788256
 30
0.0
 40
0.0169705538810321
100
AcDbArc
 50
270.0
 51
90.0
  0
LWPOLYLINE
  5
7DE1B343D9E3109
330
7DE1B343D9E3199
100
AcDbEntity
  8
TEXT
100
AcDbPolyline
 90
        2
 70
     0
 43
0.0006660908203125
 10
-0.2151600445498385
 20
0.5790333194403657
 10
-0.2151600445498385
 20
0.6056769522528667
  0
LWPOLYLINE
  5
7DE1B343D9E310D
330
7DE1B343D9E3199
100
AcDbEntity
  8
TEXT
100
AcDbPolyline
 90
        2
 70
     0
 43
0.0006660908203125
 10
-0.1751945953310869
 20
0.5790333194403657
 10
-0.1751945953310869
 20
0.6056769522528667
  0
LINE
  5
7DE1B343D9E3111
330
7DE1B343D9E3199
100
AcDbEntity
  8
TEXT
100
AcDbLine
 10
0.378649403754328
 20
0.6056769522528631
 30
0.0
 11
0.2029176508558157
 21
0.6056769522528631
 31
0.0
  0
LINE
  5
7DE1B343D9E3112
330
7DE1B343D9E3199
100
AcDbEntity
  8
TEXT
100
AcDbLine
 10
0.378649403754328
 20
0.6400648698470013
 30
0.0
 11
0.378649403754328
 21
0.6056769522528631
 31
0.0
  0
LINE
  5
7DE1B343D9E3113
330
7DE1B343D9E3199
100
AcDbEntity
  8
TEXT
100
AcDbLine
 10
0.5691212957741803
 20
0.5048049561397426
 30
0.0
 11
0.5104909747422424
 21
0.6056769522528631
 31
0.0
  0
LINE
  5
7DE1B343D9E3114
330
7DE1B343D9E3199
100
AcDbEntity
  8
TEXT
100
AcDbLine
 10
0.6278698585800458
 20
0.6056769522528631
 30
0.0
 11
0.5691212957741803
 21
0.5048049561397426
 31
0.0
  0
LINE
  5
7DE1B343D9E3115
330
7DE1B343D9E3199
100
AcDbEntity
  8
TEXT
100
AcDbLine
 10
0.7248004839397871
 20
0.4215917573673514
 30
0.0
 11
0.7248004839397871
 21
0.6736884299916737
 31
0.0
  0
LINE
  5
7DE1B343D9E3116
330
7DE1B343D9E3199
100
AcDbEntity
  8
TEXT
100
AcDbLine
 10
0.7571123380774472
 20
0.6056769522528631
 30
0.0
 11
0.7571123380774472
 21
0.4048127455204549
 31
0.0
  0
LINE
  5
7DE1B343D9E3117
330
7DE1B343D9E3199
100
AcDbEntity
  8
TEXT
100
AcDbLine
 10
0.7571123380774472
 20
0.4048127455204549
 30
0.0
 11
0.7401187011928459
 21
0.4048127455204549
 31
0.0
  0
LINE
  5
7DE1B343D9E3118
330
7DE1B343D9E3199
100
AcDbEntity
  8
TEXT
100
AcDbLine
 10
0.7259400574359818
 20
0.3392039192643521
 30
0.0
 11
0.8239433911354163
 21
0.3392039192643521
 31
0.0
  0
LINE
  5
7DE1B343D9E3119
330
7DE1B343D9E3199
100
AcDbEntity
  8
TEXT
100
AcDbLine
 10
0.5595210587772259
 20
0.359162425369365
 30
0.0
 11
0.6568207648706706
 21
0.5235126363046332
 31
0.0
  0
ARC
  5
7DE1B343D9E311A
330
7DE1B343D9E3199
100
AcDbEntity
  8
TEXT
100
AcDbCircle
 10
0.525477498865012
 20
0.3787516415380479
 30
0.0
 40
0.0392772371940762
100
AcDbArc
 50
270.1604552698595
 51
330.0831797321295
  0
LINE
  5
7DE1B343D9E311B
330
7DE1B343D9E3199
100
AcDbEntity
  8
TEXT
100
AcDbLine
 10
0.4289472424791408
 20
0.3392039192643521
 30
0.0
 11
0.5255874935541352
 21
0.3394745583626344
 31
0.0
  0
LWPOLYLINE
  5
7DE1B343D9E311C
330
7DE1B343D9E3199
100
AcDbEntity
  8
TEXT
100
AcDbPolyline
 90
        6
 70
     1
 43
0.0
 10
0.4714710460542904
 20
0.5414002575960977
 10
0.4411544518340822
 20
0.5414002575960977
 10
0.4411544518340822
 20
0.4182892595412034
 42
0.407328721240804
 10
0.4526981029955586
 20
0.4064703448648173
 10
0.5133198020402894
 20
0.4064703448648173
 10
0.5307851424476074
 20
0.4392825739082964
  0
LINE
  5
7DE1B343D9E3124
330
7DE1B343D9E3199
100
AcDbEntity
  8
TEXT
100
AcDbLine
 10
0.6568207648706706
 20
0.5235126363046332
 30
0.0
 11
0.6568207648706706
 21
0.3907552614792768
 31
0.0
  0
ARC
  5
7DE1B343D9E3125
330
7DE1B343D9E3199
100
AcDbEntity
  8
TEXT
100
AcDbCircle
 10
0.7401187011928441
 20
0.4201945517638804
 30
0.0
 40
0.0153818062434269
100
AcDbArc
 50
174.7883570302258
 51
270.0
  0
LWPOLYLINE
  5
7DE1B343D9E3126
330
7DE1B343D9E3199
100
AcDbEntity
  8
TEXT
100
AcDbPolyline
 90
        2
 70
     0
 43
0.0
 10
0.6568207648706688
 20
0.3907552614792804
 42
0.3318488747599744
 10
0.7259400574359818
 20
0.3392039192643521
 42
-6.868794160588311
  0
LINE
  5
7DE1B343D9E312A
330
7DE1B343D9E3199
100
AcDbEntity
  8
TEXT
100
AcDbLine
 10
0.8813324601246774
 20
0.3392039192643521
 30
0.0
 11
0.9483905069065174
 21
0.3392039192643521
 31
0.0
  0
LINE
  5
7DE1B343D9E312B
330
7DE1B343D9E3199
100
AcDbEntity
  8
TEXT
100
AcDbLine
 10
0.8813324601246774
 20
0.5338464684299878
 30
0.0
 11
0.8813324601246774
 21
0.3392039192643521
 31
0.0
  0
LINE
  5
7DE1B343D9E312C
330
7DE1B343D9E3199
100
AcDbEntity
  8
TEXT
100
AcDbLine
 10
0.8239433911354163
 20
0.5414002575960977
 30
0.0
 11
0.8737786709585639
 21
0.5414002575960977
 31
0.0
  0
LINE
  5
7DE1B343D9E312D
330
7DE1B343D9E3199
100
AcDbEntity
  8
TEXT
100
AcDbLine
 10
0.8239433911354163
 20
0.3392039192643521
 30
0.0
 11
0.8239433911354163
 21
0.5414002575960977
 31
0.0
  0
LWPOLYLINE
  5
7DE1B343D9E312E
330
7DE1B343D9E3199
100
AcDbEntity
  8
TEXT
100
AcDbPolyline
 90
        2
 70
     0
 43
0.0
 10
0.8737786709585622
 20
0.5414002575960977
 42
-0.4142135623731017
 10
0.8813324601246756
 20
0.5338464684299878
 42
-0.9999999999999998
  0
LINE
  5
7DE1B343D9E3132
330
7DE1B343D9E3199
100
AcDbEntity
  8
TEXT
100
AcDbLine
 10
1.079588671736247
 20
0.5414002575960977
 30
0.0
 11
1.079588671736247
 21
0.4663478515218911
 31
0.0
  0
LINE
  5
7DE1B343D9E3133
330
7DE1B343D9E3199
100
AcDbEntity
  8
TEXT
100
AcDbLine
 10
0.9483905069065174
 20
0.5414002575960977
 30
0.0
 11
1.002524103827467
 21
0.5414002575960977
 31
0.0
  0
LINE
  5
7DE1B343D9E3134
330
7DE1B343D9E3199
100
AcDbEntity
  8
TEXT
100
AcDbLine
 10
0.9483905069065174
 20
0.3392039192643521
 30
0.0
 11
0.9483905069065174
 21
0.5414002575960977
 31
0.0
  0
LWPOLYLINE
  5
7DE1B343D9E3135
330
7DE1B343D9E3199
100
AcDbEntity
  8
TEXT
100
AcDbPolyline
 90
        2
 70
     0
 43
0.0
 10
1.002524103827465
 20
0.5414002575960977
 42
-0.4142135623731017
 10
1.010077892993579
 20
0.5338464684299878
 42
-0.9999999999999998
  0
LWPOLYLINE
  5
7DE1B343D9E3139
330
7DE1B343D9E3199
100
AcDbEntity
  8
TEXT
100
AcDbPolyline
 90
        4
 70
     0
 43
0.0
 10
1.010077892993579
 20
0.5338464684299878
 10
1.010077892993579
 20
0.3392039192643521
 10
1.078556176281437
 20
0.3392039192643521
 10
1.078556176281437
 20
0.3826948642147903
 42
-1.714843617202739
  0
LINE
  5
7DE1B343D9E313F
330
7DE1B343D9E3199
100
AcDbEntity
  8
TEXT
100
AcDbLine
 10
0.4386920085983351
 20
0.6056769522528631
 30
0.0
 11
0.4386920085983351
 21
0.6400648698470013
 31
0.0
  0
LINE
  5
7DE1B343D9E3140
330
7DE1B343D9E3199
100
AcDbEntity
  8
TEXT
100
AcDbLine
 10
0.5104909747422424
 20
0.6056769522528631
 30
0.0
 11
0.4386920085983351
 21
0.6056769522528631
 31
0.0
  0
LINE
  5
7DE1B343D9E3141
330
7DE1B343D9E3199
100
AcDbEntity
  8
TEXT
100
AcDbLine
 10
0.6579917713734221
 20
0.6056769522528631
 30
0.0
 11
0.6278698585800458
 21
0.6056769522528631
 31
0.0
  0
LINE
  5
7DE1B343D9E3142
330
7DE1B343D9E3199
100
AcDbEntity
  8
TEXT
100
AcDbLine
 10
0.6579917713734221
 20
0.6736884299916737
 30
0.0
 11
0.6579917713734221
 21
0.6056769522528631
 31
0.0
  0
LINE
  5
7DE1B343D9E3143
330
7DE1B343D9E3199
100
AcDbEntity
  8
TEXT
100
AcDbLine
 10
0.7248004839397871
 20
0.6736884299916737
 30
0.0
 11
0.6579917713734221
 21
0.6736884299916737
 31
0.0
  0
LWPOLYLINE
  5
7DE1B343D9E3144
330
7DE1B343D9E3199
100
AcDbEntity
  8
TEXT
100
AcDbPolyline
 90
        3
 70
     0
 43
0.0
 10
1.045212243537789
 20
0.6056769522528667
 10
0.9269120847217449
 20
0.6056769522528667
 10
0.9269120847217449
 20
0.5785094554919708
 42
-1.960274751411753
  0
LINE
  5
7DE1B343D9E3149
330
7DE1B343D9E3199
100
AcDbEntity
  8
TEXT
100
AcDbLine
 10
0.8911303940085835
 20
0.6056769522528631
 30
0.0
 11
0.7571123380774472
 21
0.6056769522528631
 31
0.0
  0
LWPOLYLINE
  5
7DE1B343D9E314A
330
7DE1B343D9E3199
100
AcDbEntity
  8
TEXT
100
AcDbPolyline
 90
        2
 70
     0
 43
0.0
 10
0.8911303940085835
 20
0.6056769522528667
 42
-0.3328679258950098
 10
0.9269120847217449
 20
0.5785094554919708
 42
6.772930709997214
  0
LINE
  5
7DE1B343D9E314E
330
7DE1B343D9E3199
100
AcDbEntity
  8
TEXT
100
AcDbLine
 10
1.080993934250956
 20
0.6056769522528631
 30
0.0
 11
1.080993934250956
 21
0.5773544064832193
 31
0.0
  0
LWPOLYLINE
  5
7DE1B343D9E314F
330
7DE1B343D9E3199
100
AcDbEntity
  8
TEXT
100
AcDbPolyline
 90
        2
 70
     0
 43
0.0
 10
1.045212243537789
 20
0.6056769522528667
 42
-0.3277054968067132
 10
1.080993934250954
 20
0.5773544064832228
 42
6.667889725900311
  0
LINE
  5
7DE1B343D9E3153
330
7DE1B343D9E3199
100
AcDbEntity
  8
TEXT
100
AcDbLine
 10
1.294785782343056
 20
0.5004649736994358
 30
0.0
 11
1.251035011161154
 21
0.582715249695581
 31
0.0
  0
LINE
  5
7DE1B343D9E3154
330
7DE1B343D9E3199
100
AcDbEntity
  8
TEXT
100
AcDbLine
 10
1.294785782343056
 20
0.6056769522528631
 30
0.0
 11
1.294785782343056
 21
0.5004649736994358
 31
0.0
  0
LINE
  5
7DE1B343D9E3155
330
7DE1B343D9E3199
100
AcDbEntity
  8
TEXT
100
AcDbLine
 10
1.522469521281425
 20
0.5298116258413251
 30
0.0
 11
1.522469521281425
 21
0.6711411580204639
 31
0.0
  0
LINE
  5
7DE1B343D9E3156
330
7DE1B343D9E3199
100
AcDbEntity
  8
TEXT
100
AcDbLine
 10
1.569567679837409
 20
0.6056769522528631
 30
0.0
 11
1.522469521281425
 21
0.5298116258413251
 31
0.0
  0
LINE
  5
7DE1B343D9E3157
330
7DE1B343D9E3199
100
AcDbEntity
  8
TEXT
100
AcDbLine
 10
1.580002396601332
 20
0.4957837093118896
 30
0.0
 11
1.644559512567037
 21
0.6056769522528631
 31
0.0
  0
LINE
  5
7DE1B343D9E3158
330
7DE1B343D9E3199
100
AcDbEntity
  8
TEXT
100
AcDbLine
 10
1.458634530058652
 20
0.3392039192643521
 30
0.0
 11
1.523012714377272
 21
0.3392039192643521
 31
0.0
  0
LWPOLYLINE
  5
7DE1B343D9E3159
330
7DE1B343D9E3199
100
AcDbEntity
  8
TEXT
100
AcDbPolyline
 90
        2
 70
     0
 43
0.0
 10
1.298725459648093
 20
0.3826948642147903
 42
-0.2901071551932486
 10
1.255649526780449
 20
0.3392039192643521
 42
-5.328517124445184
  0
ARC
  5
7DE1B343D9E315D
330
7DE1B343D9E3199
100
AcDbEntity
  8
TEXT
100
AcDbCircle
 10
1.186794945123534
 20
0.5130408825961004
 30
0.0
 40
0.028359375
100
AcDbArc
 50
25.78218179591245
 51
90.0
  0
LINE
  5
7DE1B343D9E315E
330
7DE1B343D9E3199
100
AcDbEntity
  8
TEXT
100
AcDbLine
 10
1.222596020427658
 20
0.5041252841339654
 30
0.0
 11
1.212331260014093
 21
0.5253758237066597
 31
0.0
  0
LINE
  5
7DE1B343D9E315F
330
7DE1B343D9E3199
100
AcDbEntity
  8
TEXT
100
AcDbLine
 10
1.140308030644274
 20
0.5041252841339654
 30
0.0
 11
1.222596020427658
 21
0.5041252841339654
 31
0.0
  0
LWPOLYLINE
  5
7DE1B343D9E3160
330
7DE1B343D9E3199
100
AcDbEntity
  8
TEXT
100
AcDbPolyline
 90
        4
 70
     1
 43
0.0
 10
1.235527061710556
 20
0.4421678972483774
 10
1.146866743050698
 20
0.4421678972483774
 42
0.9999999999999998
 10
1.146866743050698
 20
0.3997693567445166
 10
1.235527061710556
 20
0.3997693567445166
 42
1.0
  0
LWPOLYLINE
  5
7DE1B343D9E3166
330
7DE1B343D9E3199
100
AcDbEntity
  8
TEXT
100
AcDbPolyline
 90
        2
 70
     0
 43
0.0
 10
1.121632109149072
 20
0.3392039192643521
 10
1.255649526780449
 20
0.3392039192643521
 42
0.9999999999999998
  0
LINE
  5
7DE1B343D9E316A
330
7DE1B343D9E3199
100
AcDbEntity
  8
TEXT
100
AcDbLine
 10
1.381986548766088
 20
0.5414002575960977
 30
0.0
 11
1.458634530058646
 21
0.5414002575960977
 31
0.0
  0
LINE
  5
7DE1B343D9E316B
330
7DE1B343D9E3199
100
AcDbEntity
  8
TEXT
100
AcDbLine
 10
1.458634530058646
 20
0.5414002575960977
 30
0.0
 11
1.458634530058652
 21
0.3392039192643521
 31
0.0
  0
ARC
  5
7DE1B343D9E316C
330
7DE1B343D9E3199
100
AcDbEntity
  8
TEXT
100
AcDbCircle
 10
1.381986548766087
 20
0.516494382313435
 30
0.0
 40
0.0249058752826653
100
AcDbArc
 50
89.99971217465335
 51
179.9999999999985
  0
LINE
  5
7DE1B343D9E316D
330
7DE1B343D9E3199
100
AcDbEntity
  8
TEXT
100
AcDbLine
 10
1.357080673483429
 20
0.3392039192643521
 30
0.0
 11
1.357080673483424
 21
0.5164944246958206
 31
0.0
  0
LWPOLYLINE
  5
7DE1B343D9E316E
330
7DE1B343D9E3199
100
AcDbEntity
  8
TEXT
100
AcDbPolyline
 90
        2
 70
     0
 43
0.0
 10
1.298725459648093
 20
0.3392039192643521
 10
1.357080673483427
 20
0.3392039192643521
  0
LWPOLYLINE
  5
7DE1B343D9E3172
330
7DE1B343D9E3199
100
AcDbEntity
  8
TEXT
100
AcDbPolyline
 90
        2
 70
     0
 43
0.0
 10
1.298725459648093
 20
0.3826948642147903
 10
1.298725459648093
 20
0.3392039192643521
  0
LINE
  5
7DE1B343D9E3176
330
7DE1B343D9E3199
100
AcDbEntity
  8
TEXT
100
AcDbLine
 10
1.675494619964942
 20
0.3392039192643521
 30
0.0
 11
1.580002396601332
 21
0.4957837093118896
 31
0.0
  0
LINE
  5
7DE1B343D9E3177
330
7DE1B343D9E3199
100
AcDbEntity
  8
TEXT
100
AcDbLine
 10
1.598916247588737
 20
0.3392039192643521
 30
0.0
 11
1.675494619964942
 21
0.3392039192643521
 31
0.0
  0
LINE
  5
7DE1B343D9E3178
330
7DE1B343D9E3199
100
AcDbEntity
  8
TEXT
100
AcDbLine
 10
1.523012714377272
 20
0.4707834877405324
 30
0.0
 11
1.598916247588737
 21
0.3392039192643521
 31
0.0
  0
LINE
  5
7DE1B343D9E3179
330
7DE1B343D9E3199
100
AcDbEntity
  8
TEXT
100
AcDbLine
 10
1.523012714377272
 20
0.3392039192643521
 30
0.0
 11
1.523012714377272
 21
0.4707834877405324
 31
0.0
  0
LINE
  5
7DE1B343D9E317A
330
7DE1B343D9E3199
100
AcDbEntity
  8
TEXT
100
AcDbLine
 10
1.522469521281425
 20
0.6711411580204639
 30
0.0
 11
1.454154642732151
 21
0.6711411580204639
 31
0.0
  0
ARC
  5
7DE1B343D9E317B
330
7DE1B343D9E3199
100
AcDbEntity
  8
TEXT
100
AcDbCircle
 10
1.213798903690945
 20
0.5640933851319608
 30
0.0
 40
0.0416329381542859
100
AcDbArc
 50
26.56974201007528
 51
87.20939649401342
  0
LINE
  5
7DE1B343D9E317C
330
7DE1B343D9E3199
100
AcDbEntity
  8
TEXT
100
AcDbLine
 10
1.358682688642557
 20
0.6056769522528631
 30
0.0
 11
1.294785782343056
 21
0.6056769522528631
 31
0.0
  0
LINE
  5
7DE1B343D9E317D
330
7DE1B343D9E3199
100
AcDbEntity
  8
TEXT
100
AcDbLine
 10
1.358682688642557
 20
0.5781293023919885
 30
0.0
 11
1.358682688642557
 21
0.6056769522528631
 31
0.0
  0
ARC
  5
7DE1B343D9E317E
330
7DE1B343D9E3199
100
AcDbEntity
  8
TEXT
100
AcDbCircle
 10
1.389875505705664
 20
0.5744312249705983
 30
0.0
 40
0.0314112657011332
100
AcDbArc
 50
95.88484768694724
 51
173.2388340632136
  0
LINE
  5
7DE1B343D9E317F
330
7DE1B343D9E3199
100
AcDbEntity
  8
TEXT
100
AcDbLine
 10
1.454154642732146
 20
0.6056769522528631
 30
0.0
 11
1.38665492508263
 21
0.6056769522528631
 31
0.0
  0
LINE
  5
7DE1B343D9E3180
330
7DE1B343D9E3199
100
AcDbEntity
  8
TEXT
100
AcDbLine
 10
1.454154642732151
 20
0.6711411580204639
 30
0.0
 11
1.454154642732146
 21
0.6056769522528631
 31
0.0
  0
LINE
  5
7DE1B343D9E3181
330
7DE1B343D9E3199
100
AcDbEntity
  8
TEXT
100
AcDbLine
 10
1.644559512567037
 20
0.6056769522528631
 30
0.0
 11
1.569567679837411
 21
0.6056769522528631
 31
0.0
  0
ENDSEC
  0
SECTION
  2
OBJECTS
  0
DICTIONARY
  5
7DE1B343D9E318D
330
0
100
AcDbDictionary
  3
ACAD_GROUP
350
7DE1B343D9E318E
  3
ACAD_LAYOUT
350
7DE1B343D9E31B9
  3
ACAD_MLINESTYLE
350
7DE1B343D9E318F
  3
ACAD_PLOTSETTINGS
350
7DE1B343D9E31BA
  3
ACAD_PLOTSTYLENAME
350
7DE1B343D9E31B7
  3
ACDBHEADERROUNDTRIPXREC
350
7DE1B343D9E31C4
  3
ACDBVARIABLEDICTIONARY
350
7DE1B343D9E31C1
  0
DICTIONARY
  5
7DE1B343D9E31E6
330
7DE1B343D9E3199
100
AcDbDictionary
280
     1
  3
ACAD_LAYOUTSELFREF
360
7DE1B343D9E31E7
  0
DICTIONARY
  5
7DE1B343D9E31E4
330
7DE1B343D9E3196
100
AcDbDictionary
280
     1
  3
ACAD_LAYOUTSELFREF
360
7DE1B343D9E31E5
  0
DICTIONARY
  5
7DE1B343D9E318E
102
{ACAD_REACTORS
330
7DE1B343D9E318D
102
}
330
7DE1B343D9E318D
100
AcDbDictionary
  0
DICTIONARY
  5
7DE1B343D9E31B9
102
{ACAD_REACTORS
330
7DE1B343D9E318D
102
}
330
7DE1B343D9E318D
100
AcDbDictionary
  0
DICTIONARY
  5
7DE1B343D9E318F
102
{ACAD_REACTORS
330
7DE1B343D9E318D
102
}
330
7DE1B343D9E318D
100
AcDbDictionary
  3
STANDARD
350
7DE1B343D9E319C
  0
DICTIONARY
  5
7DE1B343D9E31BA
102
{ACAD_REACTORS
330
7DE1B343D9E318D
102
}
330
7DE1B343D9E318D
100
AcDbDictionary
  0
ACDBDICTIONARYWDFLT
  5
7DE1B343D9E31B7
102
{ACAD_REACTORS
330
7DE1B343D9E318D
102
}
330
7DE1B343D9E318D
100
AcDbDictionary
281
     1
  3
Normal
350
7DE1B343D9E31B8
100
AcDbDictionaryWithDefault
340
7DE1B343D9E31B8
  0
DICTIONARY
  5
7DE1B343D9E31C4
102
{ACAD_REACTORS
330
7DE1B343D9E318D
102
}
330
7DE1B343D9E318D
100
AcDbDictionary
  3
CEPSNTYPE
350
7DE1B343D9E31CE
  3
FINGERPRINTGUID
350
7DE1B343D9E31CF
  3
HYPERLINKBASE
350
7DE1B343D9E31C7
  3
INSUNITS
350
7DE1B343D9E31CD
  3
LAYOUTDICT
350
7DE1B343D9E31C9
  3
LWETCUNION
350
7DE1B343D9E31CC
  3
PLOTSETDICT
350
7DE1B343D9E31CA
  3
PLOTSTYLNAMDICT
350
7DE1B343D9E31CB
  3
PSVPSCALE
350
7DE1B343D9E31D1
  3
PUCSBASE
350
7DE1B343D9E31D4
  3
PUCSORGBACK
350
7DE1B343D9E31DA
  3
PUCSORGBOTTOM
350
7DE1B343D9E31D6
  3
PUCSORGFRONT
350
7DE1B343D9E31D9
  3
PUCSORGLEFT
350
7DE1B343D9E31D7
  3
PUCSORGRIGHT
350
7DE1B343D9E31D8
  3
PUCSORGTOP
350
7DE1B343D9E31D5
  3
PUCSORTHOREF
350
7DE1B343D9E31D2
  3
PUCSORTHOVIEW
350
7DE1B343D9E31D3
  3
STYLESHEET
350
7DE1B343D9E31C8
  3
TSTACKALIGN
350
7DE1B343D9E31C5
  3
TSTACKSIZE
350
7DE1B343D9E31C6
  3
UCSBASE
350
7DE1B343D9E31DD
  3
UCSORGBACK
350
7DE1B343D9E31E3
  3
UCSORGBOTTOM
350
7DE1B343D9E31DF
  3
UCSORGFRONT
350
7DE1B343D9E31E2
  3
UCSORGLEFT
350
7DE1B343D9E31E0
  3
UCSORGRIGHT
350
7DE1B343D9E31E1
  3
UCSORGTOP
350
7DE1B343D9E31DE
  3
UCSORTHOREF
350
7DE1B343D9E31DB
  3
UCSORTHOVIEW
350
7DE1B343D9E31DC
  3
VERSIONGUID
350
7DE1B343D9E31D0
  0
DICTIONARY
  5
7DE1B343D9E31C1
102
{ACAD_REACTORS
330
7DE1B343D9E318D
102
}
330
7DE1B343D9E318D
100
AcDbDictionary
  3
DIMASSOC
350
7DE1B343D9E31C2
  0
XRECORD
  5
7DE1B343D9E31E7
102
{ACAD_REACTORS
330
7DE1B343D9E31E6
102
}
330
7DE1B343D9E31E6
100
AcDbXrecord
340
7DE1B343D9E3199
  0
XRECORD
  5
7DE1B343D9E31E5
102
{ACAD_REACTORS
330
7DE1B343D9E31E4
102
}
330
7DE1B343D9E31E4
100
AcDbXrecord
340
7DE1B343D9E3196
  0
MLINESTYLE
  5
7DE1B343D9E319C
102
{ACAD_REACTORS
330
7DE1B343D9E318F
102
}
330
7DE1B343D9E318F
100
AcDbMlineStyle
  2
STANDARD
 70
     0
  3

 62
     0
 51
90.0
 52
90.0
 71
     2
 49
0.5
 62
   256
  6
BYLAYER
 49
-0.5
 62
   256
  6
BYLAYER
  0
ACDBPLACEHOLDER
  5
7DE1B343D9E31B8
102
{ACAD_REACTORS
330
7DE1B343D9E31B7
102
}
330
7DE1B343D9E31B7
100
AcDbPlaceHolder
280
     0
  0
XRECORD
  5
7DE1B343D9E31CE
102
{ACAD_REACTORS
330
7DE1B343D9E31C4
102
}
330
7DE1B343D9E31C4
100
AcDbXrecord
 90
        0
  0
XRECORD
  5
7DE1B343D9E31CF
102
{ACAD_REACTORS
330
7DE1B343D9E31C4
102
}
330
7DE1B343D9E31C4
100
AcDbXrecord
  1
{7E6AE8F0-8DB9-11D6-88E6-0090279574E7}
  0
XRECORD
  5
7DE1B343D9E31C7
102
{ACAD_REACTORS
330
7DE1B343D9E31C4
102
}
330
7DE1B343D9E31C4
100
AcDbXrecord
  1

  0
XRECORD
  5
7DE1B343D9E31CD
102
{ACAD_REACTORS
330
7DE1B343D9E31C4
102
}
330
7DE1B343D9E31C4
100
AcDbXrecord
 90
        0
  0
XRECORD
  5
7DE1B343D9E31C9
102
{ACAD_REACTORS
330
7DE1B343D9E31C4
102
}
330
7DE1B343D9E31C4
100
AcDbXrecord
340
7DE1B343D9E31B9
  0
XRECORD
  5
7DE1B343D9E31CC
102
{ACAD_REACTORS
330
7DE1B343D9E31C4
102
}
330
7DE1B343D9E31C4
100
AcDbXrecord
 90
    14877
  0
XRECORD
  5
7DE1B343D9E31CA
102
{ACAD_REACTORS
330
7DE1B343D9E31C4
102
}
330
7DE1B343D9E31C4
100
AcDbXrecord
340
7DE1B343D9E31BA
  0
XRECORD
  5
7DE1B343D9E31CB
102
{ACAD_REACTORS
330
7DE1B343D9E31C4
102
}
330
7DE1B343D9E31C4
100
AcDbXrecord
340
7DE1B343D9E31B7
  0
XRECORD
  5
7DE1B343D9E31D1
102
{ACAD_REACTORS
330
7DE1B343D9E31C4
102
}
330
7DE1B343D9E31C4
100
AcDbXrecord
 40
0.0
  0
XRECORD
  5
7DE1B343D9E31D4
102
{ACAD_REACTORS
330
7DE1B343D9E31C4
102
}
330
7DE1B343D9E31C4
100
AcDbXrecord
340
0
  0
XRECORD
  5
7DE1B343D9E31DA
102
{ACAD_REACTORS
330
7DE1B343D9E31C4
102
}
330
7DE1B343D9E31C4
100
AcDbXrecord
 10
0.0
 20
0.0
 30
0.0
  0
XRECORD
  5
7DE1B343D9E31D6
102
{ACAD_REACTORS
330
7DE1B343D9E31C4
102
}
330
7DE1B343D9E31C4
100
AcDbXrecord
 10
0.0
 20
0.0
 30
0.0
  0
XRECORD
  5
7DE1B343D9E31D9
102
{ACAD_REACTORS
330
7DE1B343D9E31C4
102
}
330
7DE1B343D9E31C4
100
AcDbXrecord
 10
0.0
 20
0.0
 30
0.0
  0
XRECORD
  5
7DE1B343D9E31D7
102
{ACAD_REACTORS
330
7DE1B343D9E31C4
102
}
330
7DE1B343D9E31C4
100
AcDbXrecord
 10
0.0
 20
0.0
 30
0.0
  0
XRECORD
  5
7DE1B343D9E31D8
102
{ACAD_REACTORS
330
7DE1B343D9E31C4
102
}
330
7DE1B343D9E31C4
100
AcDbXrecord
 10
0.0
 20
0.0
 30
0.0
  0
XRECORD
  5
7DE1B343D9E31D5
102
{ACAD_REACTORS
330
7DE1B343D9E31C4
102
}
330
7DE1B343D9E31C4
100
AcDbXrecord
 10
0.0
 20
0.0
 30
0.0
  0
XRECORD
  5
7DE1B343D9E31D2
102
{ACAD_REACTORS
330
7DE1B343D9E31C4
102
}
330
7DE1B343D9E31C4
100
AcDbXrecord
340
0
  0
XRECORD
  5
7DE1B343D9E31D3
102
{ACAD_REACTORS
330
7DE1B343D9E31C4
102
}
330
7DE1B343D9E31C4
100
AcDbXrecord
 70
     0
  0
XRECORD
  5
7DE1B343D9E31C8
102
{ACAD_REACTORS
330
7DE1B343D9E31C4
102
}
330
7DE1B343D9E31C4
100
AcDbXrecord
  1

  0
XRECORD
  5
7DE1B343D9E31C5
102
{ACAD_REACTORS
330
7DE1B343D9E31C4
102
}
330
7DE1B343D9E31C4
100
AcDbXrecord
 90
        1
  0
XRECORD
  5
7DE1B343D9E31C6
102
{ACAD_REACTORS
330
7DE1B343D9E31C4
102
}
330
7DE1B343D9E31C4
100
AcDbXrecord
 90
       70
  0
XRECORD
  5
7DE1B343D9E31DD
102
{ACAD_REACTORS
330
7DE1B343D9E31C4
102
}
330
7DE1B343D9E31C4
100
AcDbXrecord
340
0
  0
XRECORD
  5
7DE1B343D9E31E3
102
{ACAD_REACTORS
330
7DE1B343D9E31C4
102
}
330
7DE1B343D9E31C4
100
AcDbXrecord
 10
0.0
 20
0.0
 30
0.0
  0
XRECORD
  5
7DE1B343D9E31DF
102
{ACAD_REACTORS
330
7DE1B343D9E31C4
102
}
330
7DE1B343D9E31C4
100
AcDbXrecord
 10
0.0
 20
0.0
 30
0.0
  0
XRECORD
  5
7DE1B343D9E31E2
102
{ACAD_REACTORS
330
7DE1B343D9E31C4
102
}
330
7DE1B343D9E31C4
100
AcDbXrecord
 10
0.0
 20
0.0
 30
0.0
  0
XRECORD
  5
7DE1B343D9E31E0
102
{ACAD_REACTORS
330
7DE1B343D9E31C4
102
}
330
7DE1B343D9E31C4
100
AcDbXrecord
 10
0.0
 20
0.0
 30
0.0
  0
XRECORD
  5
7DE1B343D9E31E1
102
{ACAD_REACTORS
330
7DE1B343D9E31C4
102
}
330
7DE1B343D9E31C4
100
AcDbXrecord
 10
0.0
 20
0.0
 30
0.0
  0
XRECORD
  5
7DE1B343D9E31DE
102
{ACAD_REACTORS
330
7DE1B343D9E31C4
102
}
330
7DE1B343D9E31C4
100
AcDbXrecord
 10
0.0
 20
0.0
 30
0.0
  0
XRECORD
  5
7DE1B343D9E31DB
102
{ACAD_REACTORS
330
7DE1B343D9E31C4
102
}
330
7DE1B343D9E31C4
100
AcDbXrecord
340
0
  0
XRECORD
  5
7DE1B343D9E31DC
102
{ACAD_REACTORS
330
7DE1B343D9E31C4
102
}
330
7DE1B343D9E31C4
100
AcDbXrecord
 70
     0
  0
XRECORD
  5
7DE1B343D9E31D0
102
{ACAD_REACTORS
330
7DE1B343D9E31C4
102
}
330
7DE1B343D9E31C4
100
AcDbXrecord
  1
{7E6AE8F2-8DB9-11D6-88E6-0090279574E7}
  0
DICTIONARYVAR
  5
7DE1B343D9E31C2
102
{ACAD_REACTORS
330
7DE1B343D9E31C1
102
}
330
7DE1B343D9E31C1
100
DictionaryVariables
280
     0
  1
1
  0
ENDSEC
  0
EOF
