  0
SECTION
  2
HEADER
  9
$ACADVER
  1
AC1014
  9
$ACADMAINTVER
 70
     9
  9
$DWGCODEPAGE
  3
ANSI_1252
  9
$INSBASE
 10
1.350609754189485
 20
1.398446391731879
 30
0.0
  9
$EXTMIN
 10
-0.3523565841165859
 20
0.340176221833795
 30
0.0
  9
$EXTMAX
 10
3.132862737630541
 20
1.832554236611903
 30
0.0
  9
$LIMMIN
 10
0.0
 20
0.0
  9
$LIMMAX
 10
18.0
 20
12.0
  9
$ORTHOMODE
 70
     1
  9
$REGENMODE
 70
     1
  9
$FILLMODE
 70
     1
  9
$QTEXTMODE
 70
     0
  9
$MIRRTEXT
 70
     0
  9
$DRAGMODE
 70
     2
  9
$LTSCALE
 40
1.0
  9
$OSMODE
 70
    39
  9
$ATTMODE
 70
     1
  9
$TEXTSIZE
 40
0.125
  9
$TRACEWID
 40
0.05
  9
$TEXTSTYLE
  7
ROMANS
  9
$CLAYER
  8
0
  9
$CELTYPE
  6
BYLAYER
  9
$CECOLOR
 62
   256
  9
$CELTSCALE
 40
1.0
  9
$DELOBJ
 70
     1
  9
$DISPSILH
 70
     1
  9
$DIMSCALE
 40
1.0
  9
$DIMASZ
 40
0.125
  9
$DIMEXO
 40
0.125
  9
$DIMDLI
 40
0.375
  9
$DIMRND
 40
0.0
  9
$DIMDLE
 40
0.0
  9
$DIMEXE
 40
0.125
  9
$DIMTP
 40
0.0
  9
$DIMTM
 40
0.0
  9
$DIMTXT
 40
0.125
  9
$DIMCEN
 40
-0.125
  9
$DIMTSZ
 40
0.0
  9
$DIMTOL
 70
     0
  9
$DIMLIM
 70
     0
  9
$DIMTIH
 70
     1
  9
$DIMTOH
 70
     1
  9
$DIMSE1
 70
     0
  9
$DIMSE2
 70
     0
  9
$DIMTAD
 70
     0
  9
$DIMZIN
 70
     4
  9
$DIMBLK
  1

  9
$DIMASO
 70
     1
  9
$DIMSHO
 70
     1
  9
$DIMPOST
  1

  9
$DIMAPOST
  1

  9
$DIMALT
 70
     0
  9
$DIMALTD
 70
     2
  9
$DIMALTF
 40
25.4
  9
$DIMLFAC
 40
1.0
  9
$DIMTOFL
 70
     0
  9
$DIMTVP
 40
0.0
  9
$DIMTIX
 70
     1
  9
$DIMSOXD
 70
     0
  9
$DIMSAH
 70
     0
  9
$DIMBLK1
  1

  9
$DIMBLK2
  1

  9
$DIMSTYLE
  2
STANDARD
  9
$DIMCLRD
 70
     0
  9
$DIMCLRE
 70
     0
  9
$DIMCLRT
 70
     0
  9
$DIMTFAC
 40
1.0
  9
$DIMGAP
 40
0.09
  9
$DIMJUST
 70
     0
  9
$DIMSD1
 70
     0
  9
$DIMSD2
 70
     0
  9
$DIMTOLJ
 70
     1
  9
$DIMTZIN
 70
     4
  9
$DIMALTZ
 70
     0
  9
$DIMALTTZ
 70
     0
  9
$DIMFIT
 70
     3
  9
$DIMUPT
 70
     0
  9
$DIMUNIT
 70
     2
  9
$DIMDEC
 70
     3
  9
$DIMTDEC
 70
     3
  9
$DIMALTU
 70
     2
  9
$DIMALTTD
 70
     2
  9
$DIMTXSTY
  7
ROMANS
  9
$DIMAUNIT
 70
     0
  9
$LUNITS
 70
     2
  9
$LUPREC
 70
     3
  9
$SKETCHINC
 40
0.1
  9
$FILLETRAD
 40
0.03125
  9
$AUNITS
 70
     0
  9
$AUPREC
 70
     0
  9
$MENU
  1
ACAD
  9
$ELEVATION
 40
0.0
  9
$PELEVATION
 40
0.0
  9
$THICKNESS
 40
0.0
  9
$LIMCHECK
 70
     0
  9
$BLIPMODE
 70
     0
  9
$CHAMFERA
 40
0.0
  9
$CHAMFERB
 40
0.0
  9
$CHAMFERC
 40
0.0
  9
$CHAMFERD
 40
0.0
  9
$SKPOLY
 70
     0
  9
$TDCREATE
 40
2448994.685354398
  9
$TDUPDATE
 40
2452458.322716678
  9
$TDINDWG
 40
0.0005308796
  9
$TDUSRTIMER
 40
0.0005308796
  9
$USRTIMER
 70
     1
  9
$ANGBASE
 50
0.0
  9
$ANGDIR
 70
     0
  9
$PDMODE
 70
     0
  9
$PDSIZE
 40
0.0
  9
$PLINEWID
 40
0.0
  9
$COORDS
 70
     2
  9
$SPLFRAME
 70
     0
  9
$SPLINETYPE
 70
     6
  9
$SPLINESEGS
 70
     8
  9
$ATTDIA
 70
     0
  9
$ATTREQ
 70
     1
  9
$HANDLING
 70
 22529
  9
$HANDSEED
  5
7DE1B343D9E2DB7
  9
$SURFTAB1
 70
     6
  9
$SURFTAB2
 70
     6
  9
$SURFTYPE
 70
     6
  9
$SURFU
 70
     6
  9
$SURFV
 70
     6
  9
$UCSNAME
  2

  9
$UCSORG
 10
0.0
 20
0.0
 30
0.0
  9
$UCSXDIR
 10
1.0
 20
0.0
 30
0.0
  9
$UCSYDIR
 10
0.0
 20
1.0
 30
0.0
  9
$PUCSNAME
  2

  9
$PUCSORG
 10
0.0
 20
0.0
 30
0.0
  9
$PUCSXDIR
 10
1.0
 20
0.0
 30
0.0
  9
$PUCSYDIR
 10
0.0
 20
1.0
 30
0.0
  9
$USERI1
 70
     0
  9
$USERI2
 70
     0
  9
$USERI3
 70
     0
  9
$USERI4
 70
     0
  9
$USERI5
 70
     0
  9
$USERR1
 40
0.0
  9
$USERR2
 40
0.0
  9
$USERR3
 40
0.0
  9
$USERR4
 40
0.0
  9
$USERR5
 40
0.0
  9
$WORLDVIEW
 70
     1
  9
$SHADEDGE
 70
     3
  9
$SHADEDIF
 70
    70
  9
$TILEMODE
 70
     1
  9
$MAXACTVP
 70
    16
  9
$PINSBASE
 10
0.0
 20
0.0
 30
0.0
  9
$PLIMCHECK
 70
     0
  9
$PEXTMIN
 10
1.000000000000000E+20
 20
1.000000000000000E+20
 30
1.000000000000000E+20
  9
$PEXTMAX
 10
-1.000000000000000E+20
 20
-1.000000000000000E+20
 30
-1.000000000000000E+20
  9
$PLIMMIN
 10
0.0
 20
0.0
  9
$PLIMMAX
 10
12.0
 20
9.0
  9
$UNITMODE
 70
     0
  9
$VISRETAIN
 70
     0
  9
$PLINEGEN
 70
     1
  9
$PSLTSCALE
 70
     0
  9
$TREEDEPTH
 70
  3020
  9
$PICKSTYLE
 70
     1
  9
$CMLSTYLE
  2
STANDARD
  9
$CMLJUST
 70
     0
  9
$CMLSCALE
 40
1.0
  9
$PROXYGRAPHICS
 70
     1
  9
$MEASUREMENT
 70
     0
  0
ENDSEC
  0
SECTION
  2
CLASSES
  0
CLASS
  1
LWPOLYLINE
  2
AcDbPolyline
  3
AutoCAD 2000
 90
        0
280
     0
281
     1
  0
CLASS
  1
ACDBDICTIONARYWDFLT
  2
AcDbDictionaryWithDefault
  3
AutoCAD 2000
 90
        0
280
     0
281
     0
  0
CLASS
  1
ACDBPLACEHOLDER
  2
AcDbPlaceHolder
  3
AutoCAD 2000
 90
        0
280
     0
281
     0
  0
CLASS
  1
LAYOUT
  2
AcDbLayout
  3
AutoCAD 2000
 90
        0
280
     0
281
     0
  0
CLASS
  1
DICTIONARYVAR
  2
AcDbDictionaryVar
  3
AutoCAD 2000
 90
        0
280
     0
281
     0
  0
CLASS
  1
LONG_TRANSACTION
  2
AcDbLongTransaction
  3
AutoCAD 2000
 90
        0
280
     0
281
     0
  0
CLASS
  1
LWPOLYLINE
  2
AcDbPolyline
  3
AutoCAD 2000
 90
        0
280
     0
281
     1
  0
CLASS
  1
HATCH
  2
AcDbHatch
  3
AutoCAD 2000
 90
        0
280
     0
281
     1
  0
CLASS
  1
XRECORD
  2
AcDbXrecord
  3
AutoCAD 2000
 90
        0
280
     0
281
     0
  0
ENDSEC
  0
SECTION
  2
TABLES
  0
TABLE
  2
VPORT
  5
7DE1B343D9E2D5E
330
0
100
AcDbSymbolTable
 70
     2
  0
VPORT
  5
7DE1B343D9E2D92
330
7DE1B343D9E2D5E
100
AcDbSymbolTableRecord
100
AcDbViewportTableRecord
  2
*ACTIVE
 70
     0
 10
0.0
 20
0.0
 11
1.0
 21
1.0
 12
4.366334247483501
 22
1.086364768313202
 13
0.0
 23
0.0
 14
0.015625
 24
0.015625
 15
0.0
 25
0.0
 16
0.0
 26
0.0
 36
1.0
 17
0.0
 27
0.0
 37
0.0
 40
2.282415858204213
 41
4.320930232558139
 42
50.0
 43
0.0
 44
0.0
 50
0.0
 51
0.0
 71
     0
 72
  2000
 73
     1
 74
     0
 75
     0
 76
     0
 77
     0
 78
     0
  0
ENDTAB
  0
TABLE
  2
LTYPE
  5
7DE1B343D9E2D5B
330
0
100
AcDbSymbolTable
 70
     1
  0
LTYPE
  5
7DE1B343D9E2D68
330
7DE1B343D9E2D5B
100
AcDbSymbolTableRecord
100
AcDbLinetypeTableRecord
  2
BYBLOCK
 70
     0
  3

 72
    65
 73
     0
 40
0.0
  0
LTYPE
  5
7DE1B343D9E2D69
330
7DE1B343D9E2D5B
100
AcDbSymbolTableRecord
100
AcDbLinetypeTableRecord
  2
BYLAYER
 70
     0
  3

 72
    65
 73
     0
 40
0.0
  0
LTYPE
  5
7DE1B343D9E2D6A
330
7DE1B343D9E2D5B
100
AcDbSymbolTableRecord
100
AcDbLinetypeTableRecord
  2
CONTINUOUS
 70
     0
  3
Solid line
 72
    65
 73
     0
 40
0.0
  0
ENDTAB
  0
TABLE
  2
LAYER
  5
7DE1B343D9E2D58
330
0
100
AcDbSymbolTable
 70
     2
  0
LAYER
  5
7DE1B343D9E2D65
330
7DE1B343D9E2D58
100
AcDbSymbolTableRecord
100
AcDbLayerTableRecord
  2
0
 70
     0
 62
     7
  6
CONTINUOUS
  0
LAYER
  5
7DE1B343D9E2D75
330
7DE1B343D9E2D58
100
AcDbSymbolTableRecord
100
AcDbLayerTableRecord
  2
TEXT
 70
     0
 62
     3
  6
CONTINUOUS
  0
ENDTAB
  0
TABLE
  2
STYLE
  5
7DE1B343D9E2D59
330
0
100
AcDbSymbolTable
 70
     3
  0
STYLE
  5
7DE1B343D9E2D66
330
7DE1B343D9E2D59
100
AcDbSymbolTableRecord
100
AcDbTextStyleTableRecord
  2
STANDARD
 70
     0
 40
0.0
 41
1.0
 50
0.0
 71
     0
 42
0.3125
  3
txt
  4

  0
STYLE
  5
7DE1B343D9E2D72
330
7DE1B343D9E2D59
100
AcDbSymbolTableRecord
100
AcDbTextStyleTableRecord
  2
ITALICC
 70
     0
 40
0.0
 41
1.0
 50
0.0
 71
     0
 42
0.125
  3
italicc
  4

  0
STYLE
  5
7DE1B343D9E2D82
330
7DE1B343D9E2D59
100
AcDbSymbolTableRecord
100
AcDbTextStyleTableRecord
  2
ROMANS
 70
     0
 40
0.0
 41
1.0
 50
0.0
 71
     0
 42
0.125
  3
romans.shx
  4

  0
ENDTAB
  0
TABLE
  2
VIEW
  5
7DE1B343D9E2D5C
330
0
100
AcDbSymbolTable
 70
     0
  0
ENDTAB
  0
TABLE
  2
UCS
  5
7DE1B343D9E2D5D
330
0
100
AcDbSymbolTable
 70
     0
  0
ENDTAB
  0
TABLE
  2
APPID
  5
7DE1B343D9E2D5F
330
0
100
AcDbSymbolTable
 70
     1
  0
APPID
  5
7DE1B343D9E2D67
330
7DE1B343D9E2D5F
100
AcDbSymbolTableRecord
100
AcDbRegAppTableRecord
  2
ACAD
 70
     0
  0
ENDTAB
  0
TABLE
  2
DIMSTYLE
  5
7DE1B343D9E2D60
330
0
100
AcDbSymbolTable
 70
     1
  0
DIMSTYLE
105
7DE1B343D9E2D7A
330
7DE1B343D9E2D60
100
AcDbSymbolTableRecord
100
AcDbDimStyleTableRecord
  2
STANDARD
 70
     0
  3

  4

  5

  6

  7

 40
1.0
 41
0.125
 42
0.125
 43
0.375
 44
0.125
 45
0.0
 46
0.0
 47
0.0
 48
0.0
140
0.125
141
-0.125
142
0.0
143
25.4
144
1.0
145
0.0
146
1.0
147
0.09
 71
     0
 72
     0
 73
     1
 74
     1
 75
     0
 76
     0
 77
     0
 78
     4
170
     0
171
     2
172
     0
173
     0
174
     1
175
     0
176
     0
177
     0
178
     0
270
     2
271
     3
272
     3
273
     2
274
     2
340
7DE1B343D9E2D82
275
     0
280
     0
281
     0
282
     0
283
     1
284
     4
285
     0
286
     0
287
     3
288
     0
  0
ENDTAB
  0
TABLE
  2
BLOCK_RECORD
  5
7DE1B343D9E2D57
330
0
100
AcDbSymbolTable
 70
     0
  0
BLOCK_RECORD
  5
7DE1B343D9E2D6E
102
{ACAD_XDICTIONARY
360
7DE1B343D9E2DB5
102
}
330
7DE1B343D9E2D57
100
AcDbSymbolTableRecord
100
AcDbBlockTableRecord
  2
*MODEL_SPACE
  0
BLOCK_RECORD
  5
7DE1B343D9E2D6B
102
{ACAD_XDICTIONARY
360
7DE1B343D9E2DB3
102
}
330
7DE1B343D9E2D57
100
AcDbSymbolTableRecord
100
AcDbBlockTableRecord
  2
*PAPER_SPACE
  0
ENDTAB
  0
ENDSEC
  0
SECTION
  2
BLOCKS
  0
BLOCK
  5
7DE1B343D9E2D78
330
7DE1B343D9E2D6E
100
AcDbEntity
  8
0
100
AcDbBlockBegin
  2
*MODEL_SPACE
 70
     0
 10
0.0
 20
0.0
 30
0.0
  3
*MODEL_SPACE
  1

  0
ENDBLK
  5
7DE1B343D9E2D79
330
7DE1B343D9E2D6E
100
AcDbEntity
  8
0
100
AcDbBlockEnd
  0
BLOCK
  5
7DE1B343D9E2D76
330
7DE1B343D9E2D6B
100
AcDbEntity
 67
     1
  8
0
100
AcDbBlockBegin
  2
*PAPER_SPACE
 70
     0
 10
0.0
 20
0.0
 30
0.0
  3
*PAPER_SPACE
  1

  0
ENDBLK
  5
7DE1B343D9E2D77
330
7DE1B343D9E2D6B
100
AcDbEntity
 67
     1
  8
0
100
AcDbBlockEnd
  0
ENDSEC
  0
SECTION
  2
ENTITIES
  0
LWPOLYLINE
  5
7DE1B343D9E1983
330
7DE1B343D9E2D6E
100
AcDbEntity
  8
0
100
AcDbPolyline
 90
       29
 70
     1
 43
0.0
 10
0.984432991130577
 20
1.142214247371494
 42
0.3811316847890111
 10
1.013959512786876
 20
1.112911654640468
 42
0.0266666666666665
 10
1.767290477434237
 20
1.112911654640468
 42
0.9736888257014758
 10
1.765624995110555
 20
1.175367241778503
 10
1.369374995110553
 20
1.175367241778503
 10
1.359374995110553
 20
1.165367241778503
 10
1.349374995110554
 20
1.175367241778503
 10
1.046874995110553
 20
1.175367241778503
 10
1.046874995110553
 20
1.214920714748527
 10
1.265624995110553
 20
1.253492241778503
 10
1.265624995110553
 20
1.534742241778503
 10
1.508937495110553
 20
1.534742241778503
 10
1.516749995110553
 20
1.526929741778503
 10
1.524562495110553
 20
1.534742241778503
 10
1.578124995110553
 20
1.534742241778503
 10
1.578124995110553
 20
1.517179741778504
 10
1.690240574946553
 20
1.527050146179419
 42
0.9158300843728037
 10
1.690240574946553
 20
1.589309337377588
 10
1.578124995110553
 20
1.599179741778503
 10
1.578124995110553
 20
1.581617241778503
 10
1.524562495110553
 20
1.581617241778503
 10
1.516749995110553
 20
1.589429741778503
 10
1.508937495110553
 20
1.581617241778503
 10
1.203124995110553
 20
1.581617241778503
 42
0.4142135623730951
 10
1.171874995110553
 20
1.550367241778503
 10
1.171874995110553
 20
1.300425750579944
 10
1.046874995110553
 20
1.278384877991385
 10
1.046874995110552
 20
1.800367241778503
 42
0.9699881008335665
 10
0.9844329911305756
 20
1.802270236185512
 42
0.0304761904761902
  0
TEXT
  5
7DE1B343D9E2C19
330
7DE1B343D9E2D6E
100
AcDbEntity
  8
TEXT
100
AcDbText
 10
0.6376488046343669
 20
0.7981948259163766
 30
0.0
 40
0.125
  1
PART #120054
  7
ITALICC
 72
     1
 11
1.390624995110557
 21
0.7981948259163766
 31
0.0
100
AcDbText
  0
TEXT
  5
7DE1B343D9E2C1A
330
7DE1B343D9E2D6E
100
AcDbEntity
  8
TEXT
100
AcDbText
 10
1.803930153360878
 20
0.3512721832440015
 30
0.0
 40
0.0522247191011236
  1
Phone  1-800-328-2495
 41
1.272321428571429
 72
     5
 11
3.132862737630541
 21
0.3512721832440015
 31
0.0
100
AcDbText
  0
TEXT
  5
7DE1B343D9E2C1B
330
7DE1B343D9E2D6E
100
AcDbEntity
  8
TEXT
100
AcDbText
 10
1.803930153360878
 20
0.631047464142878
 30
0.0
 40
0.0522247191011236
  1
Stylmark  Incorporated
 41
1.221428571428573
 72
     5
 11
3.132862737630541
 21
0.631047464142878
 31
0.0
100
AcDbText
  0
TEXT
  5
7DE1B343D9E2C1C
330
7DE1B343D9E2D6E
100
AcDbEntity
  8
TEXT
100
AcDbText
 10
1.803930153360878
 20
0.5377890371765858
 30
0.0
 40
0.0522247191011236
  1
6536 Main St. N.E. * P.O. Box 32008
 41
0.8388932496075366
 72
     5
 11
3.132862737630541
 21
0.5377890371765858
 31
0.0
100
AcDbText
  0
TEXT
  5
7DE1B343D9E2C1D
330
7DE1B343D9E2D6E
100
AcDbEntity
  8
TEXT
100
AcDbText
 10
1.803930153360878
 20
0.4445306102102937
 30
0.0
 40
0.0522247191011236
  1
Minneapolis, MN 55432-0008
 41
1.11444212721585
 72
     5
 11
3.132862737630541
 21
0.4445306102102937
 31
0.0
100
AcDbText
  0
LWPOLYLINE
  5
7DE1B343D9E2C1E
330
7DE1B343D9E2D6E
100
AcDbEntity
  8
TEXT
100
AcDbPolyline
 90
        3
 70
     0
 43
0.0006660908203125
 10
-0.3520235387064297
 20
0.4649169458814363
 10
-0.3520235387064297
 20
0.3516815064283087
 10
-0.2387880992533073
 20
0.3516815064283087
  0
LWPOLYLINE
  5
7DE1B343D9E2C23
330
7DE1B343D9E2D6E
100
AcDbEntity
  8
TEXT
100
AcDbPolyline
 90
        3
 70
     0
 43
0.0006660908203125
 10
-0.3253799058939322
 20
0.4649169458814363
 10
-0.3253799058939322
 20
0.3783251392408097
 10
-0.2387880992533073
 20
0.3783251392408097
  0
LWPOLYLINE
  5
7DE1B343D9E2C28
330
7DE1B343D9E2D6E
100
AcDbEntity
  8
TEXT
100
AcDbPolyline
 90
        2
 70
     0
 43
0.0001332181640625
 10
-0.2787535484720554
 20
0.4749083081861216
 10
-0.3520235387064297
 20
0.4649169458814363
  0
LWPOLYLINE
  5
7DE1B343D9E2C2C
330
7DE1B343D9E2D6E
100
AcDbEntity
  8
TEXT
100
AcDbPolyline
 90
        2
 70
     0
 43
0.0001332181640625
 10
-0.3253799058939322
 20
0.4649169458814363
 10
-0.2654317320658048
 20
0.4749083081861216
  0
LWPOLYLINE
  5
7DE1B343D9E2C30
330
7DE1B343D9E2D6E
100
AcDbEntity
  8
TEXT
100
AcDbPolyline
 90
        2
 70
     0
 43
0.0001332181640625
 10
-0.3253799058939322
 20
0.3783251392408097
 10
-0.2654317320658048
 20
0.4382733130689353
  0
LWPOLYLINE
  5
7DE1B343D9E2C34
330
7DE1B343D9E2D6E
100
AcDbEntity
  8
TEXT
100
AcDbPolyline
 90
        3
 70
     0
 43
0.0006660908203125
 10
-0.2387880992533073
 20
0.618117834553312
 10
-0.3520235387064297
 20
0.618117834553312
 10
-0.3520235387064297
 20
0.5048823951001844
  0
LWPOLYLINE
  5
7DE1B343D9E2C39
330
7DE1B343D9E2D6E
100
AcDbEntity
  8
TEXT
100
AcDbPolyline
 90
        3
 70
     0
 43
0.0006660908203125
 10
-0.2387880992533073
 20
0.591474201740811
 10
-0.3253799058939322
 20
0.591474201740811
 10
-0.3253799058939322
 20
0.5048823951001844
  0
LWPOLYLINE
  5
7DE1B343D9E2C3E
330
7DE1B343D9E2D6E
100
AcDbEntity
  8
TEXT
100
AcDbPolyline
 90
        2
 70
     0
 43
0.0001332181640625
 10
-0.3253799058939322
 20
0.591474201740811
 10
-0.2654317320658066
 20
0.5315260279126854
  0
LWPOLYLINE
  5
7DE1B343D9E2C42
330
7DE1B343D9E2D6E
100
AcDbEntity
  8
TEXT
100
AcDbPolyline
 90
        2
 70
     0
 43
0.0001332181640625
 10
-0.3253799058939322
 20
0.5048823951001844
 10
-0.2654317320658066
 20
0.4948910327954956
  0
LWPOLYLINE
  5
7DE1B343D9E2C46
330
7DE1B343D9E2D6E
100
AcDbEntity
  8
TEXT
100
AcDbPolyline
 90
        2
 70
     0
 43
0.0001332181640625
 10
-0.3520235387064297
 20
0.5048823951001844
 10
-0.2787535484720554
 20
0.4948910327954956
  0
LWPOLYLINE
  5
7DE1B343D9E2C4A
330
7DE1B343D9E2D6E
100
AcDbEntity
  8
TEXT
100
AcDbPolyline
 90
        2
 70
     0
 43
0.0006660908203125
 10
-0.3253799058939322
 20
0.4649169458814363
 10
-0.3520235387064297
 20
0.4649169458814363
  0
LWPOLYLINE
  5
7DE1B343D9E2C4E
330
7DE1B343D9E2D6E
100
AcDbEntity
  8
TEXT
100
AcDbPolyline
 90
        2
 70
     0
 43
0.0006660908203125
 10
-0.3253799058939322
 20
0.5048823951001844
 10
-0.3520235387064297
 20
0.5048823951001844
  0
LINE
  5
7DE1B343D9E2C52
330
7DE1B343D9E2D6E
100
AcDbEntity
  8
TEXT
100
AcDbLine
 10
1.163166890420067
 20
0.553841139896543
 30
0.0
 11
1.055960617032778
 21
0.553841139896543
 31
0.0
  0
LINE
  5
7DE1B343D9E2C53
330
7DE1B343D9E2D6E
100
AcDbEntity
  8
TEXT
100
AcDbLine
 10
1.192197788764546
 20
0.6181178345533084
 30
0.0
 11
1.057365879547487
 21
0.6181178345533084
 31
0.0
  0
ARC
  5
7DE1B343D9E2C54
330
7DE1B343D9E2D6E
100
AcDbEntity
  8
TEXT
100
AcDbCircle
 10
1.116679975940804
 20
0.4488805852902921
 30
0.0
 40
0.0676855811441166
100
AcDbArc
 50
90.0
 51
153.7768192527749
  0
LWPOLYLINE
  5
7DE1B343D9E2C55
330
7DE1B343D9E2D6E
100
AcDbEntity
  8
TEXT
100
AcDbPolyline
 90
        2
 70
     0
 43
0.0
 10
1.054928121577968
 20
0.3951357465152355
 42
0.2901071551932823
 10
1.098004054445604
 20
0.3516448015647974
 42
5.328517124445801
  0
ARC
  5
7DE1B343D9E2C59
330
7DE1B343D9E2D6E
100
AcDbEntity
  8
TEXT
100
AcDbCircle
 10
0.4115485982693184
 20
0.4114371929028473
 30
0.0
 40
0.0601160179737537
100
AcDbArc
 50
180.0000000000003
 51
264.0521544866073
  0
LINE
  5
7DE1B343D9E2C5A
330
7DE1B343D9E2D6E
100
AcDbEntity
  8
TEXT
100
AcDbLine
 10
0.4150639538948662
 20
0.6525057521474466
 30
0.0
 11
0.3550213490508591
 21
0.6525057521474466
 31
0.0
  0
ARC
  5
7DE1B343D9E2C5B
330
7DE1B343D9E2D6E
100
AcDbEntity
  8
TEXT
100
AcDbCircle
 10
0.1792895961523477
 20
0.5360303751068067
 30
0.0
 40
0.0820874594465043
100
AcDbArc
 50
90.0
 51
270.0
  0
LWPOLYLINE
  5
7DE1B343D9E2C5C
330
7DE1B343D9E2D6E
100
AcDbEntity
  8
TEXT
100
AcDbPolyline
 90
        2
 70
     0
 43
0.0001332181640625
 10
-0.2287967369486168
 20
0.5448478443189324
 10
-0.2387880992533073
 20
0.618117834553312
  0
LWPOLYLINE
  5
7DE1B343D9E2C60
330
7DE1B343D9E2D6E
100
AcDbEntity
  8
TEXT
100
AcDbPolyline
 90
        2
 70
     0
 43
0.0001332181640625
 10
-0.2387880992533073
 20
0.591474201740811
 10
-0.2287967369486168
 20
0.5315260279126854
  0
LWPOLYLINE
  5
7DE1B343D9E2C64
330
7DE1B343D9E2D6E
100
AcDbEntity
  8
TEXT
100
AcDbPolyline
 90
        3
 70
     0
 43
0.0006660908203125
 10
-0.0855872105814299
 20
0.5048823951001844
 10
-0.0855872105814299
 20
0.618117834553312
 10
-0.1988226500345558
 20
0.618117834553312
  0
LWPOLYLINE
  5
7DE1B343D9E2C69
330
7DE1B343D9E2D6E
100
AcDbEntity
  8
TEXT
100
AcDbPolyline
 90
        3
 70
     0
 43
0.0006660908203125
 10
-0.112230843393931
 20
0.5048823951001844
 10
-0.112230843393931
 20
0.591474201740811
 10
-0.1988226500345558
 20
0.591474201740811
  0
LWPOLYLINE
  5
7DE1B343D9E2C6E
330
7DE1B343D9E2D6E
100
AcDbEntity
  8
TEXT
100
AcDbPolyline
 90
        2
 70
     0
 43
0.0001332181640625
 10
-0.112230843393931
 20
0.591474201740811
 10
-0.1721790172220547
 20
0.5315260279126854
  0
LWPOLYLINE
  5
7DE1B343D9E2C72
330
7DE1B343D9E2D6E
100
AcDbEntity
  8
TEXT
100
AcDbPolyline
 90
        2
 70
     0
 43
0.0001332181640625
 10
-0.1988226500345558
 20
0.591474201740811
 10
-0.2088140123392446
 20
0.5315260279126854
  0
LWPOLYLINE
  5
7DE1B343D9E2C76
330
7DE1B343D9E2D6E
100
AcDbEntity
  8
TEXT
100
AcDbPolyline
 90
        2
 70
     0
 43
0.0001332181640625
 10
-0.1988226500345558
 20
0.618117834553312
 10
-0.2088140123392446
 20
0.5448478443189324
  0
LWPOLYLINE
  5
7DE1B343D9E2C7A
330
7DE1B343D9E2D6E
100
AcDbEntity
  8
TEXT
100
AcDbPolyline
 90
        2
 70
     0
 43
0.0001332181640625
 10
-0.158857200815806
 20
0.4948910327954956
 10
-0.0855872105814299
 20
0.5048823951001844
  0
LWPOLYLINE
  5
7DE1B343D9E2C7E
330
7DE1B343D9E2D6E
100
AcDbEntity
  8
TEXT
100
AcDbPolyline
 90
        2
 70
     0
 43
0.0001332181640625
 10
-0.112230843393931
 20
0.5048823951001844
 10
-0.1721790172220547
 20
0.4948910327954956
  0
LWPOLYLINE
  5
7DE1B343D9E2C82
330
7DE1B343D9E2D6E
100
AcDbEntity
  8
TEXT
100
AcDbPolyline
 90
        2
 70
     0
 43
0.0001332181640625
 10
-0.0855872105814299
 20
0.4649169458814363
 10
-0.158857200815806
 20
0.4749083081861216
  0
LWPOLYLINE
  5
7DE1B343D9E2C86
330
7DE1B343D9E2D6E
100
AcDbEntity
  8
TEXT
100
AcDbPolyline
 90
        2
 70
     0
 43
0.0001332181640625
 10
-0.112230843393931
 20
0.4649169458814363
 10
-0.1721790172220547
 20
0.4749083081861216
  0
LWPOLYLINE
  5
7DE1B343D9E2C8A
330
7DE1B343D9E2D6E
100
AcDbEntity
  8
TEXT
100
AcDbPolyline
 90
        2
 70
     0
 43
0.0001332181640625
 10
-0.112230843393931
 20
0.3783251392408097
 10
-0.1721790172220547
 20
0.4382733130689353
  0
LWPOLYLINE
  5
7DE1B343D9E2C8E
330
7DE1B343D9E2D6E
100
AcDbEntity
  8
TEXT
100
AcDbPolyline
 90
        3
 70
     0
 43
0.0006660908203125
 10
-0.1988226500345558
 20
0.3783251392408097
 10
-0.112230843393931
 20
0.3783251392408097
 10
-0.112230843393931
 20
0.4649169458814363
  0
LWPOLYLINE
  5
7DE1B343D9E2C93
330
7DE1B343D9E2D6E
100
AcDbEntity
  8
TEXT
100
AcDbPolyline
 90
        3
 70
     0
 43
0.0006660908203125
 10
-0.1988226500345558
 20
0.3516815064283087
 10
-0.0855872105814299
 20
0.3516815064283087
 10
-0.0855872105814299
 20
0.4649169458814363
  0
LWPOLYLINE
  5
7DE1B343D9E2C98
330
7DE1B343D9E2D6E
100
AcDbEntity
  8
TEXT
100
AcDbPolyline
 90
        5
 70
     0
 43
0.0001332181640625
 10
-0.2287967369486168
 20
0.4249514966626848
 10
-0.2287967369486168
 20
0.4382733130689353
 10
-0.2654317320658048
 20
0.4382733130689353
 10
-0.2654317320658048
 20
0.4749083081861216
 10
-0.2787535484720554
 20
0.4749083081861216
  0
LWPOLYLINE
  5
7DE1B343D9E2C9F
330
7DE1B343D9E2D6E
100
AcDbEntity
  8
TEXT
100
AcDbPolyline
 90
        2
 70
     0
 43
0.0006660908203125
 10
-0.2387880992533073
 20
0.3783251392408097
 10
-0.2387880992533073
 20
0.3516815064283087
  0
LWPOLYLINE
  5
7DE1B343D9E2CA3
330
7DE1B343D9E2D6E
100
AcDbEntity
  8
TEXT
100
AcDbPolyline
 90
        2
 70
     0
 43
0.0001332181640625
 10
-0.2387880992533073
 20
0.3783251392408097
 10
-0.2287967369486168
 20
0.4382733130689353
  0
LWPOLYLINE
  5
7DE1B343D9E2CA7
330
7DE1B343D9E2D6E
100
AcDbEntity
  8
TEXT
100
AcDbPolyline
 90
        2
 70
     0
 43
0.0001332181640625
 10
-0.2387880992533073
 20
0.3516815064283087
 10
-0.2287967369486168
 20
0.4249514966626848
  0
LWPOLYLINE
  5
7DE1B343D9E2CAB
330
7DE1B343D9E2D6E
100
AcDbEntity
  8
TEXT
100
AcDbPolyline
 90
        5
 70
     0
 43
0.0001332181640625
 10
-0.2787535484720554
 20
0.4948910327954956
 10
-0.2654317320658066
 20
0.4948910327954956
 10
-0.2654317320658066
 20
0.5315260279126854
 10
-0.2287967369486168
 20
0.5315260279126854
 10
-0.2287967369486168
 20
0.5448478443189324
  0
LWPOLYLINE
  5
7DE1B343D9E2CB2
330
7DE1B343D9E2D6E
100
AcDbEntity
  8
TEXT
100
AcDbPolyline
 90
        5
 70
     0
 43
0.0001332181640625
 10
-0.2088140123392446
 20
0.5448478443189324
 10
-0.2088140123392446
 20
0.5315260279126854
 10
-0.1721790172220547
 20
0.5315260279126854
 10
-0.1721790172220547
 20
0.4948910327954956
 10
-0.158857200815806
 20
0.4948910327954956
  0
LWPOLYLINE
  5
7DE1B343D9E2CB9
330
7DE1B343D9E2D6E
100
AcDbEntity
  8
TEXT
100
AcDbPolyline
 90
        2
 70
     0
 43
0.0001332181640625
 10
-0.1988226500345558
 20
0.3783251392408097
 10
-0.2088140123392446
 20
0.4382733130689353
  0
LWPOLYLINE
  5
7DE1B343D9E2CBD
330
7DE1B343D9E2D6E
100
AcDbEntity
  8
TEXT
100
AcDbPolyline
 90
        2
 70
     0
 43
0.0001332181640625
 10
-0.2088140123392446
 20
0.4249514966626848
 10
-0.1988226500345558
 20
0.3516815064283087
  0
LWPOLYLINE
  5
7DE1B343D9E2CC1
330
7DE1B343D9E2D6E
100
AcDbEntity
  8
TEXT
100
AcDbPolyline
 90
        2
 70
     0
 43
0.0006660908203125
 10
-0.1988226500345558
 20
0.3783251392408097
 10
-0.1988226500345558
 20
0.3516815064283087
  0
LWPOLYLINE
  5
7DE1B343D9E2CC5
330
7DE1B343D9E2D6E
100
AcDbEntity
  8
TEXT
100
AcDbPolyline
 90
        5
 70
     0
 43
0.0001332181640625
 10
-0.158857200815806
 20
0.4749083081861216
 10
-0.1721790172220547
 20
0.4749083081861216
 10
-0.1721790172220547
 20
0.4382733130689353
 10
-0.2088140123392446
 20
0.4382733130689353
 10
-0.2088140123392446
 20
0.4249514966626848
  0
LWPOLYLINE
  5
7DE1B343D9E2CCC
330
7DE1B343D9E2D6E
100
AcDbEntity
  8
TEXT
100
AcDbPolyline
 90
        2
 70
     0
 43
0.0006660908203125
 10
-0.112230843393931
 20
0.5048823951001844
 10
-0.0855872105814299
 20
0.5048823951001844
  0
LWPOLYLINE
  5
7DE1B343D9E2CD0
330
7DE1B343D9E2D6E
100
AcDbEntity
  8
TEXT
100
AcDbPolyline
 90
        2
 70
     0
 43
0.0006660908203125
 10
-0.112230843393931
 20
0.4649169458814363
 10
-0.0855872105814299
 20
0.4649169458814363
  0
LINE
  5
7DE1B343D9E2CD4
330
7DE1B343D9E2D6E
100
AcDbEntity
  8
TEXT
100
AcDbLine
 10
0.1845269262665949
 20
0.553841139896543
 30
0.0
 11
0.3514325802955662
 21
0.553841139896543
 31
0.0
  0
LINE
  5
7DE1B343D9E2CD5
330
7DE1B343D9E2D6E
100
AcDbEntity
  8
TEXT
100
AcDbLine
 10
0.250127062510896
 20
0.5180364182859151
 30
0.0
 11
0.1845269262665949
 21
0.5180364182859151
 31
0.0
  0
LINE
  5
7DE1B343D9E2CD6
330
7DE1B343D9E2D6E
100
AcDbEntity
  8
TEXT
100
AcDbLine
 10
0.0972021367058433
 20
0.3516448015647974
 30
0.0
 11
0.250127062510896
 21
0.3516448015647974
 31
0.0
  0
LINE
  5
7DE1B343D9E2CD7
330
7DE1B343D9E2D6E
100
AcDbEntity
  8
TEXT
100
AcDbLine
 10
0.2550674364171757
 20
0.4200018078982368
 30
0.0
 11
0.0972021367058416
 21
0.4200018078982368
 31
0.0
  0
LINE
  5
7DE1B343D9E2CD8
330
7DE1B343D9E2D6E
100
AcDbEntity
  8
TEXT
100
AcDbLine
 10
0.1792895961523468
 20
0.4539429156603014
 30
0.0
 11
0.2550674364171757
 21
0.4539429156603014
 31
0.0
  0
ARC
  5
7DE1B343D9E2CD9
330
7DE1B343D9E2D6E
100
AcDbEntity
  8
TEXT
100
AcDbCircle
 10
0.1845269262665958
 20
0.5359387790912308
 30
0.0
 40
0.017902360805315
100
AcDbArc
 50
90.0
 51
270.0
  0
LINE
  5
7DE1B343D9E2CDA
330
7DE1B343D9E2D6E
100
AcDbEntity
  8
TEXT
100
AcDbLine
 10
0.0972021367058416
 20
0.4200018078982368
 30
0.0
 11
0.0972021367058433
 21
0.3516448015647974
 31
0.0
  0
LINE
  5
7DE1B343D9E2CDB
330
7DE1B343D9E2D6E
100
AcDbEntity
  8
TEXT
100
AcDbLine
 10
0.3514325802955662
 20
0.553841139896543
 30
0.0
 11
0.3514325802955662
 21
0.4114371929028473
 31
0.0
  0
ARC
  5
7DE1B343D9E2CDC
330
7DE1B343D9E2D6E
100
AcDbEntity
  8
TEXT
100
AcDbCircle
 10
0.2501270625108969
 20
0.4348406099253545
 30
0.0
 40
0.0831958083605586
100
AcDbArc
 50
270.0
 51
90.0
  0
ARC
  5
7DE1B343D9E2CDD
330
7DE1B343D9E2D6E
100
AcDbEntity
  8
TEXT
100
AcDbCircle
 10
0.2550674364171765
 20
0.4369723617792709
 30
0.0
 40
0.0169705538810321
100
AcDbArc
 50
270.0
 51
90.0
  0
LWPOLYLINE
  5
7DE1B343D9E2CDE
330
7DE1B343D9E2D6E
100
AcDbEntity
  8
TEXT
100
AcDbPolyline
 90
        2
 70
     0
 43
0.0006660908203125
 10
-0.2387880992533073
 20
0.591474201740811
 10
-0.2387880992533073
 20
0.618117834553312
  0
LWPOLYLINE
  5
7DE1B343D9E2CE2
330
7DE1B343D9E2D6E
100
AcDbEntity
  8
TEXT
100
AcDbPolyline
 90
        2
 70
     0
 43
0.0006660908203125
 10
-0.1988226500345558
 20
0.591474201740811
 10
-0.1988226500345558
 20
0.618117834553312
  0
LINE
  5
7DE1B343D9E2CE6
330
7DE1B343D9E2D6E
100
AcDbEntity
  8
TEXT
100
AcDbLine
 10
0.3550213490508591
 20
0.6181178345533084
 30
0.0
 11
0.1792895961523468
 21
0.6181178345533084
 31
0.0
  0
LINE
  5
7DE1B343D9E2CE7
330
7DE1B343D9E2D6E
100
AcDbEntity
  8
TEXT
100
AcDbLine
 10
0.3550213490508591
 20
0.6525057521474466
 30
0.0
 11
0.3550213490508591
 21
0.6181178345533084
 31
0.0
  0
LINE
  5
7DE1B343D9E2CE8
330
7DE1B343D9E2D6E
100
AcDbEntity
  8
TEXT
100
AcDbLine
 10
0.5454932410707114
 20
0.5172458384401878
 30
0.0
 11
0.4868629200387736
 21
0.6181178345533084
 31
0.0
  0
LINE
  5
7DE1B343D9E2CE9
330
7DE1B343D9E2D6E
100
AcDbEntity
  8
TEXT
100
AcDbLine
 10
0.6042418038765769
 20
0.6181178345533084
 30
0.0
 11
0.5454932410707114
 21
0.5172458384401878
 31
0.0
  0
LINE
  5
7DE1B343D9E2CEA
330
7DE1B343D9E2D6E
100
AcDbEntity
  8
TEXT
100
AcDbLine
 10
0.7011724292363182
 20
0.4340326396677967
 30
0.0
 11
0.7011724292363182
 21
0.686129312292119
 31
0.0
  0
LINE
  5
7DE1B343D9E2CEB
330
7DE1B343D9E2D6E
100
AcDbEntity
  8
TEXT
100
AcDbLine
 10
0.7334842833739783
 20
0.6181178345533084
 30
0.0
 11
0.7334842833739783
 21
0.4172536278209002
 31
0.0
  0
LINE
  5
7DE1B343D9E2CEC
330
7DE1B343D9E2D6E
100
AcDbEntity
  8
TEXT
100
AcDbLine
 10
0.7334842833739783
 20
0.4172536278209002
 30
0.0
 11
0.716490646489377
 21
0.4172536278209002
 31
0.0
  0
LINE
  5
7DE1B343D9E2CED
330
7DE1B343D9E2D6E
100
AcDbEntity
  8
TEXT
100
AcDbLine
 10
0.702312002732513
 20
0.3516448015647974
 30
0.0
 11
0.8003153364319475
 21
0.3516448015647974
 31
0.0
  0
LINE
  5
7DE1B343D9E2CEE
330
7DE1B343D9E2D6E
100
AcDbEntity
  8
TEXT
100
AcDbLine
 10
0.5358930040737571
 20
0.3716033076698103
 30
0.0
 11
0.6331927101672017
 21
0.5359535186050785
 31
0.0
  0
ARC
  5
7DE1B343D9E2CEF
330
7DE1B343D9E2D6E
100
AcDbEntity
  8
TEXT
100
AcDbCircle
 10
0.5018494441615431
 20
0.3911925238384931
 30
0.0
 40
0.0392772371940762
100
AcDbArc
 50
270.1604552698595
 51
330.0831797321295
  0
LINE
  5
7DE1B343D9E2CF0
330
7DE1B343D9E2D6E
100
AcDbEntity
  8
TEXT
100
AcDbLine
 10
0.4053191877756719
 20
0.3516448015647974
 30
0.0
 11
0.5019594388506663
 21
0.3519154406630797
 31
0.0
  0
LWPOLYLINE
  5
7DE1B343D9E2CF1
330
7DE1B343D9E2D6E
100
AcDbEntity
  8
TEXT
100
AcDbPolyline
 90
        6
 70
     1
 43
0.0
 10
0.4478429913508215
 20
0.553841139896543
 10
0.4175263971306134
 20
0.553841139896543
 10
0.4175263971306134
 20
0.4307301418416487
 42
0.407328721240804
 10
0.4290700482920898
 20
0.4189112271652626
 10
0.4896917473368206
 20
0.4189112271652626
 10
0.5071570877441385
 20
0.4517234562087417
  0
LINE
  5
7DE1B343D9E2CF9
330
7DE1B343D9E2D6E
100
AcDbEntity
  8
TEXT
100
AcDbLine
 10
0.6331927101672017
 20
0.5359535186050785
 30
0.0
 11
0.6331927101672017
 21
0.4031961437797222
 31
0.0
  0
ARC
  5
7DE1B343D9E2CFA
330
7DE1B343D9E2D6E
100
AcDbEntity
  8
TEXT
100
AcDbCircle
 10
0.7164906464893753
 20
0.4326354340643256
 30
0.0
 40
0.0153818062434269
100
AcDbArc
 50
174.7883570302258
 51
270.0
  0
LWPOLYLINE
  5
7DE1B343D9E2CFB
330
7DE1B343D9E2D6E
100
AcDbEntity
  8
TEXT
100
AcDbPolyline
 90
        2
 70
     0
 43
0.0
 10
0.6331927101672
 20
0.4031961437797257
 42
0.3318488747599744
 10
0.702312002732513
 20
0.3516448015647974
 42
-6.868794160588311
  0
LINE
  5
7DE1B343D9E2CFF
330
7DE1B343D9E2D6E
100
AcDbEntity
  8
TEXT
100
AcDbLine
 10
0.8577044054212086
 20
0.3516448015647974
 30
0.0
 11
0.9247624522030486
 21
0.3516448015647974
 31
0.0
  0
LINE
  5
7DE1B343D9E2D00
330
7DE1B343D9E2D6E
100
AcDbEntity
  8
TEXT
100
AcDbLine
 10
0.8577044054212086
 20
0.5462873507304331
 30
0.0
 11
0.8577044054212086
 21
0.3516448015647974
 31
0.0
  0
LINE
  5
7DE1B343D9E2D01
330
7DE1B343D9E2D6E
100
AcDbEntity
  8
TEXT
100
AcDbLine
 10
0.8003153364319475
 20
0.553841139896543
 30
0.0
 11
0.8501506162550951
 21
0.553841139896543
 31
0.0
  0
LINE
  5
7DE1B343D9E2D02
330
7DE1B343D9E2D6E
100
AcDbEntity
  8
TEXT
100
AcDbLine
 10
0.8003153364319475
 20
0.3516448015647974
 30
0.0
 11
0.8003153364319475
 21
0.553841139896543
 31
0.0
  0
LWPOLYLINE
  5
7DE1B343D9E2D03
330
7DE1B343D9E2D6E
100
AcDbEntity
  8
TEXT
100
AcDbPolyline
 90
        2
 70
     0
 43
0.0
 10
0.8501506162550933
 20
0.553841139896543
 42
-0.4142135623731017
 10
0.8577044054212068
 20
0.5462873507304331
 42
-0.9999999999999998
  0
LINE
  5
7DE1B343D9E2D07
330
7DE1B343D9E2D6E
100
AcDbEntity
  8
TEXT
100
AcDbLine
 10
1.055960617032778
 20
0.553841139896543
 30
0.0
 11
1.055960617032778
 21
0.4787887338223364
 31
0.0
  0
LINE
  5
7DE1B343D9E2D08
330
7DE1B343D9E2D6E
100
AcDbEntity
  8
TEXT
100
AcDbLine
 10
0.9247624522030486
 20
0.553841139896543
 30
0.0
 11
0.9788960491239988
 21
0.553841139896543
 31
0.0
  0
LINE
  5
7DE1B343D9E2D09
330
7DE1B343D9E2D6E
100
AcDbEntity
  8
TEXT
100
AcDbLine
 10
0.9247624522030486
 20
0.3516448015647974
 30
0.0
 11
0.9247624522030486
 21
0.553841139896543
 31
0.0
  0
LWPOLYLINE
  5
7DE1B343D9E2D0A
330
7DE1B343D9E2D6E
100
AcDbEntity
  8
TEXT
100
AcDbPolyline
 90
        2
 70
     0
 43
0.0
 10
0.978896049123997
 20
0.553841139896543
 42
-0.4142135623731017
 10
0.9864498382901105
 20
0.5462873507304331
 42
-0.9999999999999998
  0
LWPOLYLINE
  5
7DE1B343D9E2D0E
330
7DE1B343D9E2D6E
100
AcDbEntity
  8
TEXT
100
AcDbPolyline
 90
        4
 70
     0
 43
0.0
 10
0.9864498382901105
 20
0.5462873507304331
 10
0.9864498382901105
 20
0.3516448015647974
 10
1.054928121577968
 20
0.3516448015647974
 10
1.054928121577968
 20
0.3951357465152355
 42
-1.714843617202739
  0
LINE
  5
7DE1B343D9E2D14
330
7DE1B343D9E2D6E
100
AcDbEntity
  8
TEXT
100
AcDbLine
 10
0.4150639538948662
 20
0.6181178345533084
 30
0.0
 11
0.4150639538948662
 21
0.6525057521474466
 31
0.0
  0
LINE
  5
7DE1B343D9E2D15
330
7DE1B343D9E2D6E
100
AcDbEntity
  8
TEXT
100
AcDbLine
 10
0.4868629200387736
 20
0.6181178345533084
 30
0.0
 11
0.4150639538948662
 21
0.6181178345533084
 31
0.0
  0
LINE
  5
7DE1B343D9E2D16
330
7DE1B343D9E2D6E
100
AcDbEntity
  8
TEXT
100
AcDbLine
 10
0.6343637166699532
 20
0.6181178345533084
 30
0.0
 11
0.6042418038765769
 21
0.6181178345533084
 31
0.0
  0
LINE
  5
7DE1B343D9E2D17
330
7DE1B343D9E2D6E
100
AcDbEntity
  8
TEXT
100
AcDbLine
 10
0.6343637166699532
 20
0.686129312292119
 30
0.0
 11
0.6343637166699532
 21
0.6181178345533084
 31
0.0
  0
LINE
  5
7DE1B343D9E2D18
330
7DE1B343D9E2D6E
100
AcDbEntity
  8
TEXT
100
AcDbLine
 10
0.7011724292363182
 20
0.686129312292119
 30
0.0
 11
0.6343637166699532
 21
0.686129312292119
 31
0.0
  0
LWPOLYLINE
  5
7DE1B343D9E2D19
330
7DE1B343D9E2D6E
100
AcDbEntity
  8
TEXT
100
AcDbPolyline
 90
        3
 70
     0
 43
0.0
 10
1.02158418883432
 20
0.618117834553312
 10
0.903284030018276
 20
0.618117834553312
 10
0.903284030018276
 20
0.5909503377924161
 42
-1.960274751411753
  0
LINE
  5
7DE1B343D9E2D1E
330
7DE1B343D9E2D6E
100
AcDbEntity
  8
TEXT
100
AcDbLine
 10
0.8675023393051146
 20
0.6181178345533084
 30
0.0
 11
0.7334842833739783
 21
0.6181178345533084
 31
0.0
  0
LWPOLYLINE
  5
7DE1B343D9E2D1F
330
7DE1B343D9E2D6E
100
AcDbEntity
  8
TEXT
100
AcDbPolyline
 90
        2
 70
     0
 43
0.0
 10
0.8675023393051146
 20
0.618117834553312
 42
-0.3328679258950098
 10
0.903284030018276
 20
0.5909503377924161
 42
6.772930709997214
  0
LINE
  5
7DE1B343D9E2D23
330
7DE1B343D9E2D6E
100
AcDbEntity
  8
TEXT
100
AcDbLine
 10
1.057365879547487
 20
0.6181178345533084
 30
0.0
 11
1.057365879547487
 21
0.5897952887836646
 31
0.0
  0
LWPOLYLINE
  5
7DE1B343D9E2D24
330
7DE1B343D9E2D6E
100
AcDbEntity
  8
TEXT
100
AcDbPolyline
 90
        2
 70
     0
 43
0.0
 10
1.02158418883432
 20
0.618117834553312
 42
-0.3277054968067132
 10
1.057365879547485
 20
0.5897952887836681
 42
6.667889725900311
  0
LINE
  5
7DE1B343D9E2D28
330
7DE1B343D9E2D6E
100
AcDbEntity
  8
TEXT
100
AcDbLine
 10
1.271157727639587
 20
0.5129058559998811
 30
0.0
 11
1.227406956457685
 21
0.5951561319960263
 31
0.0
  0
LINE
  5
7DE1B343D9E2D29
330
7DE1B343D9E2D6E
100
AcDbEntity
  8
TEXT
100
AcDbLine
 10
1.271157727639587
 20
0.6181178345533084
 30
0.0
 11
1.271157727639587
 21
0.5129058559998811
 31
0.0
  0
LINE
  5
7DE1B343D9E2D2A
330
7DE1B343D9E2D6E
100
AcDbEntity
  8
TEXT
100
AcDbLine
 10
1.498841466577956
 20
0.5422525081417703
 30
0.0
 11
1.498841466577956
 21
0.6835820403209091
 31
0.0
  0
LINE
  5
7DE1B343D9E2D2B
330
7DE1B343D9E2D6E
100
AcDbEntity
  8
TEXT
100
AcDbLine
 10
1.54593962513394
 20
0.6181178345533084
 30
0.0
 11
1.498841466577956
 21
0.5422525081417703
 31
0.0
  0
LINE
  5
7DE1B343D9E2D2C
330
7DE1B343D9E2D6E
100
AcDbEntity
  8
TEXT
100
AcDbLine
 10
1.556374341897863
 20
0.5082245916123349
 30
0.0
 11
1.620931457863568
 21
0.6181178345533084
 31
0.0
  0
LINE
  5
7DE1B343D9E2D2D
330
7DE1B343D9E2D6E
100
AcDbEntity
  8
TEXT
100
AcDbLine
 10
1.435006475355183
 20
0.3516448015647974
 30
0.0
 11
1.499384659673803
 21
0.3516448015647974
 31
0.0
  0
LWPOLYLINE
  5
7DE1B343D9E2D2E
330
7DE1B343D9E2D6E
100
AcDbEntity
  8
TEXT
100
AcDbPolyline
 90
        2
 70
     0
 43
0.0
 10
1.275097404944625
 20
0.3951357465152355
 42
-0.2901071551932486
 10
1.23202147207698
 20
0.3516448015647974
 42
-5.328517124445184
  0
ARC
  5
7DE1B343D9E2D32
330
7DE1B343D9E2D6E
100
AcDbEntity
  8
TEXT
100
AcDbCircle
 10
1.163166890420066
 20
0.5254817648965457
 30
0.0
 40
0.028359375
100
AcDbArc
 50
25.78218179591245
 51
90.0
  0
LINE
  5
7DE1B343D9E2D33
330
7DE1B343D9E2D6E
100
AcDbEntity
  8
TEXT
100
AcDbLine
 10
1.198967965724189
 20
0.5165661664344107
 30
0.0
 11
1.188703205310624
 21
0.537816706007105
 31
0.0
  0
LINE
  5
7DE1B343D9E2D34
330
7DE1B343D9E2D6E
100
AcDbEntity
  8
TEXT
100
AcDbLine
 10
1.116679975940805
 20
0.5165661664344107
 30
0.0
 11
1.198967965724189
 21
0.5165661664344107
 31
0.0
  0
LWPOLYLINE
  5
7DE1B343D9E2D35
330
7DE1B343D9E2D6E
100
AcDbEntity
  8
TEXT
100
AcDbPolyline
 90
        4
 70
     1
 43
0.0
 10
1.211899007007088
 20
0.4546087795488227
 10
1.123238688347229
 20
0.4546087795488227
 42
0.9999999999999998
 10
1.123238688347229
 20
0.412210239044962
 10
1.211899007007088
 20
0.412210239044962
 42
1.0
  0
LWPOLYLINE
  5
7DE1B343D9E2D3B
330
7DE1B343D9E2D6E
100
AcDbEntity
  8
TEXT
100
AcDbPolyline
 90
        2
 70
     0
 43
0.0
 10
1.098004054445604
 20
0.3516448015647974
 10
1.23202147207698
 20
0.3516448015647974
 42
0.9999999999999998
  0
LINE
  5
7DE1B343D9E2D3F
330
7DE1B343D9E2D6E
100
AcDbEntity
  8
TEXT
100
AcDbLine
 10
1.35835849406262
 20
0.553841139896543
 30
0.0
 11
1.435006475355177
 21
0.553841139896543
 31
0.0
  0
LINE
  5
7DE1B343D9E2D40
330
7DE1B343D9E2D6E
100
AcDbEntity
  8
TEXT
100
AcDbLine
 10
1.435006475355177
 20
0.553841139896543
 30
0.0
 11
1.435006475355183
 21
0.3516448015647974
 31
0.0
  0
ARC
  5
7DE1B343D9E2D41
330
7DE1B343D9E2D6E
100
AcDbEntity
  8
TEXT
100
AcDbCircle
 10
1.358358494062618
 20
0.5289352646138802
 30
0.0
 40
0.0249058752826653
100
AcDbArc
 50
89.99971217465335
 51
179.9999999999985
  0
LINE
  5
7DE1B343D9E2D42
330
7DE1B343D9E2D6E
100
AcDbEntity
  8
TEXT
100
AcDbLine
 10
1.33345261877996
 20
0.3516448015647974
 30
0.0
 11
1.333452618779955
 21
0.5289353069962658
 31
0.0
  0
LWPOLYLINE
  5
7DE1B343D9E2D43
330
7DE1B343D9E2D6E
100
AcDbEntity
  8
TEXT
100
AcDbPolyline
 90
        2
 70
     0
 43
0.0
 10
1.275097404944625
 20
0.3516448015647974
 10
1.333452618779959
 20
0.3516448015647974
  0
LWPOLYLINE
  5
7DE1B343D9E2D47
330
7DE1B343D9E2D6E
100
AcDbEntity
  8
TEXT
100
AcDbPolyline
 90
        2
 70
     0
 43
0.0
 10
1.275097404944625
 20
0.3951357465152355
 10
1.275097404944625
 20
0.3516448015647974
  0
LINE
  5
7DE1B343D9E2D4B
330
7DE1B343D9E2D6E
100
AcDbEntity
  8
TEXT
100
AcDbLine
 10
1.651866565261474
 20
0.3516448015647974
 30
0.0
 11
1.556374341897863
 21
0.5082245916123349
 31
0.0
  0
LINE
  5
7DE1B343D9E2D4C
330
7DE1B343D9E2D6E
100
AcDbEntity
  8
TEXT
100
AcDbLine
 10
1.575288192885268
 20
0.3516448015647974
 30
0.0
 11
1.651866565261474
 21
0.3516448015647974
 31
0.0
  0
LINE
  5
7DE1B343D9E2D4D
330
7DE1B343D9E2D6E
100
AcDbEntity
  8
TEXT
100
AcDbLine
 10
1.499384659673803
 20
0.4832243700409777
 30
0.0
 11
1.575288192885268
 21
0.3516448015647974
 31
0.0
  0
LINE
  5
7DE1B343D9E2D4E
330
7DE1B343D9E2D6E
100
AcDbEntity
  8
TEXT
100
AcDbLine
 10
1.499384659673803
 20
0.3516448015647974
 30
0.0
 11
1.499384659673803
 21
0.4832243700409777
 31
0.0
  0
LINE
  5
7DE1B343D9E2D4F
330
7DE1B343D9E2D6E
100
AcDbEntity
  8
TEXT
100
AcDbLine
 10
1.498841466577956
 20
0.6835820403209091
 30
0.0
 11
1.430526588028683
 21
0.6835820403209091
 31
0.0
  0
ARC
  5
7DE1B343D9E2D50
330
7DE1B343D9E2D6E
100
AcDbEntity
  8
TEXT
100
AcDbCircle
 10
1.190170848987476
 20
0.5765342674324061
 30
0.0
 40
0.0416329381542859
100
AcDbArc
 50
26.56974201007528
 51
87.20939649401342
  0
LINE
  5
7DE1B343D9E2D51
330
7DE1B343D9E2D6E
100
AcDbEntity
  8
TEXT
100
AcDbLine
 10
1.335054633939088
 20
0.6181178345533084
 30
0.0
 11
1.271157727639587
 21
0.6181178345533084
 31
0.0
  0
LINE
  5
7DE1B343D9E2D52
330
7DE1B343D9E2D6E
100
AcDbEntity
  8
TEXT
100
AcDbLine
 10
1.335054633939088
 20
0.5905701846924338
 30
0.0
 11
1.335054633939088
 21
0.6181178345533084
 31
0.0
  0
ARC
  5
7DE1B343D9E2D53
330
7DE1B343D9E2D6E
100
AcDbEntity
  8
TEXT
100
AcDbCircle
 10
1.366247451002196
 20
0.5868721072710436
 30
0.0
 40
0.0314112657011332
100
AcDbArc
 50
95.88484768694724
 51
173.2388340632136
  0
LINE
  5
7DE1B343D9E2D54
330
7DE1B343D9E2D6E
100
AcDbEntity
  8
TEXT
100
AcDbLine
 10
1.430526588028677
 20
0.6181178345533084
 30
0.0
 11
1.363026870379161
 21
0.6181178345533084
 31
0.0
  0
LINE
  5
7DE1B343D9E2D55
330
7DE1B343D9E2D6E
100
AcDbEntity
  8
TEXT
100
AcDbLine
 10
1.430526588028683
 20
0.6835820403209091
 30
0.0
 11
1.430526588028677
 21
0.6181178345533084
 31
0.0
  0
LINE
  5
7DE1B343D9E2D56
330
7DE1B343D9E2D6E
100
AcDbEntity
  8
TEXT
100
AcDbLine
 10
1.620931457863568
 20
0.6181178345533084
 30
0.0
 11
1.545939625133942
 21
0.6181178345533084
 31
0.0
  0
ENDSEC
  0
SECTION
  2
OBJECTS
  0
DICTIONARY
  5
7DE1B343D9E2D62
330
0
100
AcDbDictionary
  3
ACAD_GROUP
350
7DE1B343D9E2D63
  3
ACAD_LAYOUT
350
7DE1B343D9E2D88
  3
ACAD_MLINESTYLE
350
7DE1B343D9E2D64
  3
ACAD_PLOTSETTINGS
350
7DE1B343D9E2D89
  3
ACAD_PLOTSTYLENAME
350
7DE1B343D9E2D86
  3
ACDBHEADERROUNDTRIPXREC
350
7DE1B343D9E2D93
  3
ACDBVARIABLEDICTIONARY
350
7DE1B343D9E2D90
  0
DICTIONARY
  5
7DE1B343D9E2DB5
330
7DE1B343D9E2D6E
100
AcDbDictionary
280
     1
  3
ACAD_LAYOUTSELFREF
360
7DE1B343D9E2DB6
  0
DICTIONARY
  5
7DE1B343D9E2DB3
330
7DE1B343D9E2D6B
100
AcDbDictionary
280
     1
  3
ACAD_LAYOUTSELFREF
360
7DE1B343D9E2DB4
  0
DICTIONARY
  5
7DE1B343D9E2D63
102
{ACAD_REACTORS
330
7DE1B343D9E2D62
102
}
330
7DE1B343D9E2D62
100
AcDbDictionary
  0
DICTIONARY
  5
7DE1B343D9E2D88
102
{ACAD_REACTORS
330
7DE1B343D9E2D62
102
}
330
7DE1B343D9E2D62
100
AcDbDictionary
  0
DICTIONARY
  5
7DE1B343D9E2D64
102
{ACAD_REACTORS
330
7DE1B343D9E2D62
102
}
330
7DE1B343D9E2D62
100
AcDbDictionary
  3
STANDARD
350
7DE1B343D9E2D71
  0
DICTIONARY
  5
7DE1B343D9E2D89
102
{ACAD_REACTORS
330
7DE1B343D9E2D62
102
}
330
7DE1B343D9E2D62
100
AcDbDictionary
  0
ACDBDICTIONARYWDFLT
  5
7DE1B343D9E2D86
102
{ACAD_REACTORS
330
7DE1B343D9E2D62
102
}
330
7DE1B343D9E2D62
100
AcDbDictionary
281
     1
  3
Normal
350
7DE1B343D9E2D87
100
AcDbDictionaryWithDefault
340
7DE1B343D9E2D87
  0
DICTIONARY
  5
7DE1B343D9E2D93
102
{ACAD_REACTORS
330
7DE1B343D9E2D62
102
}
330
7DE1B343D9E2D62
100
AcDbDictionary
  3
CEPSNTYPE
350
7DE1B343D9E2D9D
  3
FINGERPRINTGUID
350
7DE1B343D9E2D9E
  3
HYPERLINKBASE
350
7DE1B343D9E2D96
  3
INSUNITS
350
7DE1B343D9E2D9C
  3
LAYOUTDICT
350
7DE1B343D9E2D98
  3
LWETCUNION
350
7DE1B343D9E2D9B
  3
PLOTSETDICT
350
7DE1B343D9E2D99
  3
PLOTSTYLNAMDICT
350
7DE1B343D9E2D9A
  3
PSVPSCALE
350
7DE1B343D9E2DA0
  3
PUCSBASE
350
7DE1B343D9E2DA3
  3
PUCSORGBACK
350
7DE1B343D9E2DA9
  3
PUCSORGBOTTOM
350
7DE1B343D9E2DA5
  3
PUCSORGFRONT
350
7DE1B343D9E2DA8
  3
PUCSORGLEFT
350
7DE1B343D9E2DA6
  3
PUCSORGRIGHT
350
7DE1B343D9E2DA7
  3
PUCSORGTOP
350
7DE1B343D9E2DA4
  3
PUCSORTHOREF
350
7DE1B343D9E2DA1
  3
PUCSORTHOVIEW
350
7DE1B343D9E2DA2
  3
STYLESHEET
350
7DE1B343D9E2D97
  3
TSTACKALIGN
350
7DE1B343D9E2D94
  3
TSTACKSIZE
350
7DE1B343D9E2D95
  3
UCSBASE
350
7DE1B343D9E2DAC
  3
UCSORGBACK
350
7DE1B343D9E2DB2
  3
UCSORGBOTTOM
350
7DE1B343D9E2DAE
  3
UCSORGFRONT
350
7DE1B343D9E2DB1
  3
UCSORGLEFT
350
7DE1B343D9E2DAF
  3
UCSORGRIGHT
350
7DE1B343D9E2DB0
  3
UCSORGTOP
350
7DE1B343D9E2DAD
  3
UCSORTHOREF
350
7DE1B343D9E2DAA
  3
UCSORTHOVIEW
350
7DE1B343D9E2DAB
  3
VERSIONGUID
350
7DE1B343D9E2D9F
  0
DICTIONARY
  5
7DE1B343D9E2D90
102
{ACAD_REACTORS
330
7DE1B343D9E2D62
102
}
330
7DE1B343D9E2D62
100
AcDbDictionary
  3
DIMASSOC
350
7DE1B343D9E2D91
  0
XRECORD
  5
7DE1B343D9E2DB6
102
{ACAD_REACTORS
330
7DE1B343D9E2DB5
102
}
330
7DE1B343D9E2DB5
100
AcDbXrecord
340
7DE1B343D9E2D6E
  0
XRECORD
  5
7DE1B343D9E2DB4
102
{ACAD_REACTORS
330
7DE1B343D9E2DB3
102
}
330
7DE1B343D9E2DB3
100
AcDbXrecord
340
7DE1B343D9E2D6B
  0
MLINESTYLE
  5
7DE1B343D9E2D71
102
{ACAD_REACTORS
330
7DE1B343D9E2D64
102
}
330
7DE1B343D9E2D64
100
AcDbMlineStyle
  2
STANDARD
 70
     0
  3

 62
     0
 51
90.0
 52
90.0
 71
     2
 49
0.5
 62
   256
  6
BYLAYER
 49
-0.5
 62
   256
  6
BYLAYER
  0
ACDBPLACEHOLDER
  5
7DE1B343D9E2D87
102
{ACAD_REACTORS
330
7DE1B343D9E2D86
102
}
330
7DE1B343D9E2D86
100
AcDbPlaceHolder
280
     0
  0
XRECORD
  5
7DE1B343D9E2D9D
102
{ACAD_REACTORS
330
7DE1B343D9E2D93
102
}
330
7DE1B343D9E2D93
100
AcDbXrecord
 90
        0
  0
XRECORD
  5
7DE1B343D9E2D9E
102
{ACAD_REACTORS
330
7DE1B343D9E2D93
102
}
330
7DE1B343D9E2D93
100
AcDbXrecord
  1
{79580B90-8DB9-11D6-88E6-0090279574E7}
  0
XRECORD
  5
7DE1B343D9E2D96
102
{ACAD_REACTORS
330
7DE1B343D9E2D93
102
}
330
7DE1B343D9E2D93
100
AcDbXrecord
  1

  0
XRECORD
  5
7DE1B343D9E2D9C
102
{ACAD_REACTORS
330
7DE1B343D9E2D93
102
}
330
7DE1B343D9E2D93
100
AcDbXrecord
 90
        0
  0
XRECORD
  5
7DE1B343D9E2D98
102
{ACAD_REACTORS
330
7DE1B343D9E2D93
102
}
330
7DE1B343D9E2D93
100
AcDbXrecord
340
7DE1B343D9E2D88
  0
XRECORD
  5
7DE1B343D9E2D9B
102
{ACAD_REACTORS
330
7DE1B343D9E2D93
102
}
330
7DE1B343D9E2D93
100
AcDbXrecord
 90
    14877
  0
XRECORD
  5
7DE1B343D9E2D99
102
{ACAD_REACTORS
330
7DE1B343D9E2D93
102
}
330
7DE1B343D9E2D93
100
AcDbXrecord
340
7DE1B343D9E2D89
  0
XRECORD
  5
7DE1B343D9E2D9A
102
{ACAD_REACTORS
330
7DE1B343D9E2D93
102
}
330
7DE1B343D9E2D93
100
AcDbXrecord
340
7DE1B343D9E2D86
  0
XRECORD
  5
7DE1B343D9E2DA0
102
{ACAD_REACTORS
330
7DE1B343D9E2D93
102
}
330
7DE1B343D9E2D93
100
AcDbXrecord
 40
0.0
  0
XRECORD
  5
7DE1B343D9E2DA3
102
{ACAD_REACTORS
330
7DE1B343D9E2D93
102
}
330
7DE1B343D9E2D93
100
AcDbXrecord
340
0
  0
XRECORD
  5
7DE1B343D9E2DA9
102
{ACAD_REACTORS
330
7DE1B343D9E2D93
102
}
330
7DE1B343D9E2D93
100
AcDbXrecord
 10
0.0
 20
0.0
 30
0.0
  0
XRECORD
  5
7DE1B343D9E2DA5
102
{ACAD_REACTORS
330
7DE1B343D9E2D93
102
}
330
7DE1B343D9E2D93
100
AcDbXrecord
 10
0.0
 20
0.0
 30
0.0
  0
XRECORD
  5
7DE1B343D9E2DA8
102
{ACAD_REACTORS
330
7DE1B343D9E2D93
102
}
330
7DE1B343D9E2D93
100
AcDbXrecord
 10
0.0
 20
0.0
 30
0.0
  0
XRECORD
  5
7DE1B343D9E2DA6
102
{ACAD_REACTORS
330
7DE1B343D9E2D93
102
}
330
7DE1B343D9E2D93
100
AcDbXrecord
 10
0.0
 20
0.0
 30
0.0
  0
XRECORD
  5
7DE1B343D9E2DA7
102
{ACAD_REACTORS
330
7DE1B343D9E2D93
102
}
330
7DE1B343D9E2D93
100
AcDbXrecord
 10
0.0
 20
0.0
 30
0.0
  0
XRECORD
  5
7DE1B343D9E2DA4
102
{ACAD_REACTORS
330
7DE1B343D9E2D93
102
}
330
7DE1B343D9E2D93
100
AcDbXrecord
 10
0.0
 20
0.0
 30
0.0
  0
XRECORD
  5
7DE1B343D9E2DA1
102
{ACAD_REACTORS
330
7DE1B343D9E2D93
102
}
330
7DE1B343D9E2D93
100
AcDbXrecord
340
0
  0
XRECORD
  5
7DE1B343D9E2DA2
102
{ACAD_REACTORS
330
7DE1B343D9E2D93
102
}
330
7DE1B343D9E2D93
100
AcDbXrecord
 70
     0
  0
XRECORD
  5
7DE1B343D9E2D97
102
{ACAD_REACTORS
330
7DE1B343D9E2D93
102
}
330
7DE1B343D9E2D93
100
AcDbXrecord
  1

  0
XRECORD
  5
7DE1B343D9E2D94
102
{ACAD_REACTORS
330
7DE1B343D9E2D93
102
}
330
7DE1B343D9E2D93
100
AcDbXrecord
 90
        1
  0
XRECORD
  5
7DE1B343D9E2D95
102
{ACAD_REACTORS
330
7DE1B343D9E2D93
102
}
330
7DE1B343D9E2D93
100
AcDbXrecord
 90
       70
  0
XRECORD
  5
7DE1B343D9E2DAC
102
{ACAD_REACTORS
330
7DE1B343D9E2D93
102
}
330
7DE1B343D9E2D93
100
AcDbXrecord
340
0
  0
XRECORD
  5
7DE1B343D9E2DB2
102
{ACAD_REACTORS
330
7DE1B343D9E2D93
102
}
330
7DE1B343D9E2D93
100
AcDbXrecord
 10
0.0
 20
0.0
 30
0.0
  0
XRECORD
  5
7DE1B343D9E2DAE
102
{ACAD_REACTORS
330
7DE1B343D9E2D93
102
}
330
7DE1B343D9E2D93
100
AcDbXrecord
 10
0.0
 20
0.0
 30
0.0
  0
XRECORD
  5
7DE1B343D9E2DB1
102
{ACAD_REACTORS
330
7DE1B343D9E2D93
102
}
330
7DE1B343D9E2D93
100
AcDbXrecord
 10
0.0
 20
0.0
 30
0.0
  0
XRECORD
  5
7DE1B343D9E2DAF
102
{ACAD_REACTORS
330
7DE1B343D9E2D93
102
}
330
7DE1B343D9E2D93
100
AcDbXrecord
 10
0.0
 20
0.0
 30
0.0
  0
XRECORD
  5
7DE1B343D9E2DB0
102
{ACAD_REACTORS
330
7DE1B343D9E2D93
102
}
330
7DE1B343D9E2D93
100
AcDbXrecord
 10
0.0
 20
0.0
 30
0.0
  0
XRECORD
  5
7DE1B343D9E2DAD
102
{ACAD_REACTORS
330
7DE1B343D9E2D93
102
}
330
7DE1B343D9E2D93
100
AcDbXrecord
 10
0.0
 20
0.0
 30
0.0
  0
XRECORD
  5
7DE1B343D9E2DAA
102
{ACAD_REACTORS
330
7DE1B343D9E2D93
102
}
330
7DE1B343D9E2D93
100
AcDbXrecord
340
0
  0
XRECORD
  5
7DE1B343D9E2DAB
102
{ACAD_REACTORS
330
7DE1B343D9E2D93
102
}
330
7DE1B343D9E2D93
100
AcDbXrecord
 70
     0
  0
XRECORD
  5
7DE1B343D9E2D9F
102
{ACAD_REACTORS
330
7DE1B343D9E2D93
102
}
330
7DE1B343D9E2D93
100
AcDbXrecord
  1
{79580B92-8DB9-11D6-88E6-0090279574E7}
  0
DICTIONARYVAR
  5
7DE1B343D9E2D91
102
{ACAD_REACTORS
330
7DE1B343D9E2D90
102
}
330
7DE1B343D9E2D90
100
DictionaryVariables
280
     0
  1
1
  0
ENDSEC
  0
EOF
