  0
SECTION
  2
HEADER
  9
$ACADVER
  1
AC1014
  9
$ACADMAINTVER
 70
     9
  9
$DWGCODEPAGE
  3
ANSI_1252
  9
$INSBASE
 10
1.490853654561428
 20
1.319231565010905
 30
0.0
  9
$EXTMIN
 10
-0.2582254680796315
 20
0.2640550171639159
 30
0.0
  9
$EXTMAX
 10
3.226993853667496
 20
1.700372070881428
 30
0.0
  9
$LIMMIN
 10
0.0
 20
0.0
  9
$LIMMAX
 10
18.0
 20
12.0
  9
$ORTHOMODE
 70
     1
  9
$REGENMODE
 70
     1
  9
$FILLMODE
 70
     1
  9
$QTEXTMODE
 70
     0
  9
$MIRRTEXT
 70
     0
  9
$DRAGMODE
 70
     2
  9
$LTSCALE
 40
1.0
  9
$OSMODE
 70
    39
  9
$ATTMODE
 70
     1
  9
$TEXTSIZE
 40
0.125
  9
$TRACEWID
 40
0.05
  9
$TEXTSTYLE
  7
ROMANS
  9
$CLAYER
  8
0
  9
$CELTYPE
  6
BYLAYER
  9
$CECOLOR
 62
   256
  9
$CELTSCALE
 40
1.0
  9
$DELOBJ
 70
     1
  9
$DISPSILH
 70
     1
  9
$DIMSCALE
 40
1.0
  9
$DIMASZ
 40
0.125
  9
$DIMEXO
 40
0.125
  9
$DIMDLI
 40
0.375
  9
$DIMRND
 40
0.0
  9
$DIMDLE
 40
0.0
  9
$DIMEXE
 40
0.125
  9
$DIMTP
 40
0.0
  9
$DIMTM
 40
0.0
  9
$DIMTXT
 40
0.125
  9
$DIMCEN
 40
-0.125
  9
$DIMTSZ
 40
0.0
  9
$DIMTOL
 70
     0
  9
$DIMLIM
 70
     0
  9
$DIMTIH
 70
     1
  9
$DIMTOH
 70
     1
  9
$DIMSE1
 70
     0
  9
$DIMSE2
 70
     0
  9
$DIMTAD
 70
     0
  9
$DIMZIN
 70
     4
  9
$DIMBLK
  1

  9
$DIMASO
 70
     1
  9
$DIMSHO
 70
     1
  9
$DIMPOST
  1

  9
$DIMAPOST
  1

  9
$DIMALT
 70
     0
  9
$DIMALTD
 70
     2
  9
$DIMALTF
 40
25.4
  9
$DIMLFAC
 40
1.0
  9
$DIMTOFL
 70
     0
  9
$DIMTVP
 40
0.0
  9
$DIMTIX
 70
     1
  9
$DIMSOXD
 70
     0
  9
$DIMSAH
 70
     0
  9
$DIMBLK1
  1

  9
$DIMBLK2
  1

  9
$DIMSTYLE
  2
STANDARD
  9
$DIMCLRD
 70
     0
  9
$DIMCLRE
 70
     0
  9
$DIMCLRT
 70
     0
  9
$DIMTFAC
 40
1.0
  9
$DIMGAP
 40
0.09
  9
$DIMJUST
 70
     0
  9
$DIMSD1
 70
     0
  9
$DIMSD2
 70
     0
  9
$DIMTOLJ
 70
     1
  9
$DIMTZIN
 70
     4
  9
$DIMALTZ
 70
     0
  9
$DIMALTTZ
 70
     0
  9
$DIMFIT
 70
     3
  9
$DIMUPT
 70
     0
  9
$DIMUNIT
 70
     2
  9
$DIMDEC
 70
     3
  9
$DIMTDEC
 70
     3
  9
$DIMALTU
 70
     2
  9
$DIMALTTD
 70
     2
  9
$DIMTXSTY
  7
ROMANS
  9
$DIMAUNIT
 70
     0
  9
$LUNITS
 70
     2
  9
$LUPREC
 70
     3
  9
$SKETCHINC
 40
0.1
  9
$FILLETRAD
 40
0.03125
  9
$AUNITS
 70
     0
  9
$AUPREC
 70
     0
  9
$MENU
  1
ACAD
  9
$ELEVATION
 40
0.0
  9
$PELEVATION
 40
0.0
  9
$THICKNESS
 40
0.0
  9
$LIMCHECK
 70
     0
  9
$BLIPMODE
 70
     0
  9
$CHAMFERA
 40
0.0
  9
$CHAMFERB
 40
0.0
  9
$CHAMFERC
 40
0.0
  9
$CHAMFERD
 40
0.0
  9
$SKPOLY
 70
     0
  9
$TDCREATE
 40
2448994.683935532
  9
$TDUPDATE
 40
2452458.322525775
  9
$TDINDWG
 40
0.0005069329
  9
$TDUSRTIMER
 40
0.0005069329
  9
$USRTIMER
 70
     1
  9
$ANGBASE
 50
0.0
  9
$ANGDIR
 70
     0
  9
$PDMODE
 70
     0
  9
$PDSIZE
 40
0.0
  9
$PLINEWID
 40
0.0
  9
$COORDS
 70
     2
  9
$SPLFRAME
 70
     0
  9
$SPLINETYPE
 70
     6
  9
$SPLINESEGS
 70
     8
  9
$ATTDIA
 70
     0
  9
$ATTREQ
 70
     1
  9
$HANDLING
 70
 22529
  9
$HANDSEED
  5
7DE1B343D9E23A3
  9
$SURFTAB1
 70
     6
  9
$SURFTAB2
 70
     6
  9
$SURFTYPE
 70
     6
  9
$SURFU
 70
     6
  9
$SURFV
 70
     6
  9
$UCSNAME
  2

  9
$UCSORG
 10
0.0
 20
0.0
 30
0.0
  9
$UCSXDIR
 10
1.0
 20
0.0
 30
0.0
  9
$UCSYDIR
 10
0.0
 20
1.0
 30
0.0
  9
$PUCSNAME
  2

  9
$PUCSORG
 10
0.0
 20
0.0
 30
0.0
  9
$PUCSXDIR
 10
1.0
 20
0.0
 30
0.0
  9
$PUCSYDIR
 10
0.0
 20
1.0
 30
0.0
  9
$USERI1
 70
     0
  9
$USERI2
 70
     0
  9
$USERI3
 70
     0
  9
$USERI4
 70
     0
  9
$USERI5
 70
     0
  9
$USERR1
 40
0.0
  9
$USERR2
 40
0.0
  9
$USERR3
 40
0.0
  9
$USERR4
 40
0.0
  9
$USERR5
 40
0.0
  9
$WORLDVIEW
 70
     1
  9
$SHADEDGE
 70
     3
  9
$SHADEDIF
 70
    70
  9
$TILEMODE
 70
     1
  9
$MAXACTVP
 70
    16
  9
$PINSBASE
 10
0.4052143100342636
 20
50.00000000000001
 30
0.5457317074363256
  9
$PLIMCHECK
 70
     0
  9
$PEXTMIN
 10
1.000000000000000E+20
 20
1.000000000000000E+20
 30
1.000000000000000E+20
  9
$PEXTMAX
 10
-1.000000000000000E+20
 20
-1.000000000000000E+20
 30
-1.000000000000000E+20
  9
$PLIMMIN
 10
0.0
 20
0.0
  9
$PLIMMAX
 10
12.0
 20
9.0
  9
$UNITMODE
 70
     0
  9
$VISRETAIN
 70
     0
  9
$PLINEGEN
 70
     1
  9
$PSLTSCALE
 70
     0
  9
$TREEDEPTH
 70
  3020
  9
$PICKSTYLE
 70
     1
  9
$CMLSTYLE
  2
STANDARD
  9
$CMLJUST
 70
     0
  9
$CMLSCALE
 40
1.0
  9
$PROXYGRAPHICS
 70
     1
  9
$MEASUREMENT
 70
     0
  0
ENDSEC
  0
SECTION
  2
CLASSES
  0
CLASS
  1
LWPOLYLINE
  2
AcDbPolyline
  3
AutoCAD 2000
 90
        0
280
     0
281
     1
  0
CLASS
  1
ACDBDICTIONARYWDFLT
  2
AcDbDictionaryWithDefault
  3
AutoCAD 2000
 90
        0
280
     0
281
     0
  0
CLASS
  1
ACDBPLACEHOLDER
  2
AcDbPlaceHolder
  3
AutoCAD 2000
 90
        0
280
     0
281
     0
  0
CLASS
  1
LAYOUT
  2
AcDbLayout
  3
AutoCAD 2000
 90
        0
280
     0
281
     0
  0
CLASS
  1
DICTIONARYVAR
  2
AcDbDictionaryVar
  3
AutoCAD 2000
 90
        0
280
     0
281
     0
  0
CLASS
  1
LONG_TRANSACTION
  2
AcDbLongTransaction
  3
AutoCAD 2000
 90
        0
280
     0
281
     0
  0
CLASS
  1
LWPOLYLINE
  2
AcDbPolyline
  3
AutoCAD 2000
 90
        0
280
     0
281
     1
  0
CLASS
  1
HATCH
  2
AcDbHatch
  3
AutoCAD 2000
 90
        0
280
     0
281
     1
  0
CLASS
  1
XRECORD
  2
AcDbXrecord
  3
AutoCAD 2000
 90
        0
280
     0
281
     0
  0
ENDSEC
  0
SECTION
  2
TABLES
  0
TABLE
  2
VPORT
  5
7DE1B343D9E234A
330
0
100
AcDbSymbolTable
 70
     2
  0
VPORT
  5
7DE1B343D9E237E
330
7DE1B343D9E234A
100
AcDbSymbolTableRecord
100
AcDbViewportTableRecord
  2
*ACTIVE
 70
     0
 10
0.0
 20
0.0
 11
1.0
 21
1.0
 12
4.460775000138186
 22
0.9819946510042001
 13
0.0
 23
0.0
 14
0.015625
 24
0.015625
 15
0.0
 25
0.0
 16
0.0
 26
0.0
 36
1.0
 17
0.0
 27
0.0
 37
0.0
 40
2.282564221463023
 41
4.320930232558139
 42
50.0
 43
0.0
 44
0.0
 50
0.0
 51
0.0
 71
     0
 72
  2000
 73
     1
 74
     0
 75
     0
 76
     0
 77
     0
 78
     0
  0
ENDTAB
  0
TABLE
  2
LTYPE
  5
7DE1B343D9E2347
330
0
100
AcDbSymbolTable
 70
     1
  0
LTYPE
  5
7DE1B343D9E2354
330
7DE1B343D9E2347
100
AcDbSymbolTableRecord
100
AcDbLinetypeTableRecord
  2
BYBLOCK
 70
     0
  3

 72
    65
 73
     0
 40
0.0
  0
LTYPE
  5
7DE1B343D9E2355
330
7DE1B343D9E2347
100
AcDbSymbolTableRecord
100
AcDbLinetypeTableRecord
  2
BYLAYER
 70
     0
  3

 72
    65
 73
     0
 40
0.0
  0
LTYPE
  5
7DE1B343D9E2356
330
7DE1B343D9E2347
100
AcDbSymbolTableRecord
100
AcDbLinetypeTableRecord
  2
CONTINUOUS
 70
     0
  3
Solid line
 72
    65
 73
     0
 40
0.0
  0
ENDTAB
  0
TABLE
  2
LAYER
  5
7DE1B343D9E2344
330
0
100
AcDbSymbolTable
 70
     2
  0
LAYER
  5
7DE1B343D9E2351
330
7DE1B343D9E2344
100
AcDbSymbolTableRecord
100
AcDbLayerTableRecord
  2
0
 70
     0
 62
     7
  6
CONTINUOUS
  0
LAYER
  5
7DE1B343D9E2361
330
7DE1B343D9E2344
100
AcDbSymbolTableRecord
100
AcDbLayerTableRecord
  2
TEXT
 70
     0
 62
     3
  6
CONTINUOUS
  0
ENDTAB
  0
TABLE
  2
STYLE
  5
7DE1B343D9E2345
330
0
100
AcDbSymbolTable
 70
     3
  0
STYLE
  5
7DE1B343D9E2352
330
7DE1B343D9E2345
100
AcDbSymbolTableRecord
100
AcDbTextStyleTableRecord
  2
STANDARD
 70
     0
 40
0.0
 41
1.0
 50
0.0
 71
     0
 42
0.3125
  3
txt
  4

  0
STYLE
  5
7DE1B343D9E235E
330
7DE1B343D9E2345
100
AcDbSymbolTableRecord
100
AcDbTextStyleTableRecord
  2
ITALICC
 70
     0
 40
0.0
 41
1.0
 50
0.0
 71
     0
 42
0.125
  3
italicc
  4

  0
STYLE
  5
7DE1B343D9E236E
330
7DE1B343D9E2345
100
AcDbSymbolTableRecord
100
AcDbTextStyleTableRecord
  2
ROMANS
 70
     0
 40
0.0
 41
1.0
 50
0.0
 71
     0
 42
0.125
  3
romans.shx
  4

  0
ENDTAB
  0
TABLE
  2
VIEW
  5
7DE1B343D9E2348
330
0
100
AcDbSymbolTable
 70
     0
  0
ENDTAB
  0
TABLE
  2
UCS
  5
7DE1B343D9E2349
330
0
100
AcDbSymbolTable
 70
     0
  0
ENDTAB
  0
TABLE
  2
APPID
  5
7DE1B343D9E234B
330
0
100
AcDbSymbolTable
 70
     1
  0
APPID
  5
7DE1B343D9E2353
330
7DE1B343D9E234B
100
AcDbSymbolTableRecord
100
AcDbRegAppTableRecord
  2
ACAD
 70
     0
  0
ENDTAB
  0
TABLE
  2
DIMSTYLE
  5
7DE1B343D9E234C
330
0
100
AcDbSymbolTable
 70
     1
  0
DIMSTYLE
105
7DE1B343D9E2366
330
7DE1B343D9E234C
100
AcDbSymbolTableRecord
100
AcDbDimStyleTableRecord
  2
STANDARD
 70
     0
  3

  4

  5

  6

  7

 40
1.0
 41
0.125
 42
0.125
 43
0.375
 44
0.125
 45
0.0
 46
0.0
 47
0.0
 48
0.0
140
0.125
141
-0.125
142
0.0
143
25.4
144
1.0
145
0.0
146
1.0
147
0.09
 71
     0
 72
     0
 73
     1
 74
     1
 75
     0
 76
     0
 77
     0
 78
     4
170
     0
171
     2
172
     0
173
     0
174
     1
175
     0
176
     0
177
     0
178
     0
270
     2
271
     3
272
     3
273
     2
274
     2
340
7DE1B343D9E236E
275
     0
280
     0
281
     0
282
     0
283
     1
284
     4
285
     0
286
     0
287
     3
288
     0
  0
ENDTAB
  0
TABLE
  2
BLOCK_RECORD
  5
7DE1B343D9E2343
330
0
100
AcDbSymbolTable
 70
     0
  0
BLOCK_RECORD
  5
7DE1B343D9E235A
102
{ACAD_XDICTIONARY
360
7DE1B343D9E23A1
102
}
330
7DE1B343D9E2343
100
AcDbSymbolTableRecord
100
AcDbBlockTableRecord
  2
*MODEL_SPACE
  0
BLOCK_RECORD
  5
7DE1B343D9E2357
102
{ACAD_XDICTIONARY
360
7DE1B343D9E239F
102
}
330
7DE1B343D9E2343
100
AcDbSymbolTableRecord
100
AcDbBlockTableRecord
  2
*PAPER_SPACE
  0
ENDTAB
  0
ENDSEC
  0
SECTION
  2
BLOCKS
  0
BLOCK
  5
7DE1B343D9E2364
330
7DE1B343D9E235A
100
AcDbEntity
  8
0
100
AcDbBlockBegin
  2
*MODEL_SPACE
 70
     0
 10
0.0
 20
0.0
 30
0.0
  3
*MODEL_SPACE
  1

  0
ENDBLK
  5
7DE1B343D9E2365
330
7DE1B343D9E235A
100
AcDbEntity
  8
0
100
AcDbBlockEnd
  0
BLOCK
  5
7DE1B343D9E2362
330
7DE1B343D9E2357
100
AcDbEntity
 67
     1
  8
0
100
AcDbBlockBegin
  2
*PAPER_SPACE
 70
     0
 10
0.0
 20
0.0
 30
0.0
  3
*PAPER_SPACE
  1

  0
ENDBLK
  5
7DE1B343D9E2363
330
7DE1B343D9E2357
100
AcDbEntity
 67
     1
  8
0
100
AcDbBlockEnd
  0
ENDSEC
  0
SECTION
  2
ENTITIES
  0
LWPOLYLINE
  5
7DE1B343D9E0F37
330
7DE1B343D9E235A
100
AcDbEntity
  8
0
100
AcDbPolyline
 90
       20
 70
     1
 43
0.0
 10
1.411418314570906
 20
1.122317997988104
 42
-1.0
 10
1.33263369432993
 20
1.10842614377475
 10
1.298933652833552
 20
1.299548576433519
 42
0.9999999999999962
 10
1.23738316827029
 20
1.288695565329336
 10
1.281024095995634
 20
1.041195565329336
 42
0.3639702342662026
 10
1.311799338277265
 20
1.015372070881427
 10
1.456497630470984
 20
1.015372070881427
 42
0.4663076581549989
 10
1.487272872752616
 20
1.052048576433519
 10
1.456566060001146
 20
1.226195565329336
 42
-0.4663076581549985
 10
1.487341302282777
 20
1.262872070881427
 10
1.686356702745639
 20
1.262872070881427
 42
0.4142135623730951
 10
1.717606702745639
 20
1.294122070881427
 10
1.717606702745639
 20
1.669122070881427
 42
1.0
 10
1.655106702745639
 20
1.669122070881427
 10
1.655106702745639
 20
1.522872070881427
 10
1.665106702745639
 20
1.512872070881427
 10
1.655106702745639
 20
1.502872070881427
 10
1.655106702745639
 20
1.325372070881427
 10
1.41285670274564
 20
1.325372070881427
 42
0.4663076581549998
 10
1.382081460464008
 20
1.288695565329335
  0
TEXT
  5
7DE1B343D9E2205
330
7DE1B343D9E235A
100
AcDbEntity
  8
TEXT
100
AcDbText
 10
0.7317799206713214
 20
0.7220736212464974
 30
0.0
 40
0.125
  1
PART #120052
  7
ITALICC
 72
     1
 11
1.484756111147511
 21
0.7220736212464974
 31
0.0
100
AcDbText
  0
TEXT
  5
7DE1B343D9E2206
330
7DE1B343D9E235A
100
AcDbEntity
  8
TEXT
100
AcDbText
 10
1.898061269397832
 20
0.2751509785741223
 30
0.0
 40
0.0522247191011236
  1
Phone  1-800-328-2495
 41
1.272321428571429
 72
     5
 11
3.226993853667496
 21
0.2751509785741223
 31
0.0
100
AcDbText
  0
TEXT
  5
7DE1B343D9E2207
330
7DE1B343D9E235A
100
AcDbEntity
  8
TEXT
100
AcDbText
 10
1.898061269397832
 20
0.5549262594729988
 30
0.0
 40
0.0522247191011236
  1
Stylmark  Incorporated
 41
1.221428571428572
 72
     5
 11
3.226993853667496
 21
0.5549262594729988
 31
0.0
100
AcDbText
  0
TEXT
  5
7DE1B343D9E2208
330
7DE1B343D9E235A
100
AcDbEntity
  8
TEXT
100
AcDbText
 10
1.898061269397832
 20
0.4616678325067066
 30
0.0
 40
0.0522247191011236
  1
6536 Main St. N.E. * P.O. Box 32008
 41
0.8388932496075364
 72
     5
 11
3.226993853667496
 21
0.4616678325067066
 31
0.0
100
AcDbText
  0
TEXT
  5
7DE1B343D9E2209
330
7DE1B343D9E235A
100
AcDbEntity
  8
TEXT
100
AcDbText
 10
1.898061269397832
 20
0.3684094055404144
 30
0.0
 40
0.0522247191011236
  1
Minneapolis, MN 55432-0008
 41
1.11444212721585
 72
     5
 11
3.226993853667496
 21
0.3684094055404144
 31
0.0
100
AcDbText
  0
LWPOLYLINE
  5
7DE1B343D9E220A
330
7DE1B343D9E235A
100
AcDbEntity
  8
TEXT
100
AcDbPolyline
 90
        3
 70
     0
 43
0.0006660908203125
 10
-0.2578924226694752
 20
0.3887957412115571
 10
-0.2578924226694752
 20
0.2755603017584295
 10
-0.1446569832163529
 20
0.2755603017584295
  0
LWPOLYLINE
  5
7DE1B343D9E220F
330
7DE1B343D9E235A
100
AcDbEntity
  8
TEXT
100
AcDbPolyline
 90
        3
 70
     0
 43
0.0006660908203125
 10
-0.2312487898569777
 20
0.3887957412115571
 10
-0.2312487898569777
 20
0.3022039345709305
 10
-0.1446569832163529
 20
0.3022039345709305
  0
LWPOLYLINE
  5
7DE1B343D9E2214
330
7DE1B343D9E235A
100
AcDbEntity
  8
TEXT
100
AcDbPolyline
 90
        2
 70
     0
 43
0.0001332181640625
 10
-0.1846224324351009
 20
0.3987871035162423
 10
-0.2578924226694752
 20
0.3887957412115571
  0
LWPOLYLINE
  5
7DE1B343D9E2218
330
7DE1B343D9E235A
100
AcDbEntity
  8
TEXT
100
AcDbPolyline
 90
        2
 70
     0
 43
0.0001332181640625
 10
-0.2312487898569777
 20
0.3887957412115571
 10
-0.1713006160288504
 20
0.3987871035162423
  0
LWPOLYLINE
  5
7DE1B343D9E221C
330
7DE1B343D9E235A
100
AcDbEntity
  8
TEXT
100
AcDbPolyline
 90
        2
 70
     0
 43
0.0001332181640625
 10
-0.2312487898569777
 20
0.3022039345709305
 10
-0.1713006160288504
 20
0.3621521083990561
  0
LWPOLYLINE
  5
7DE1B343D9E2220
330
7DE1B343D9E235A
100
AcDbEntity
  8
TEXT
100
AcDbPolyline
 90
        3
 70
     0
 43
0.0006660908203125
 10
-0.1446569832163529
 20
0.5419966298834328
 10
-0.2578924226694752
 20
0.5419966298834328
 10
-0.2578924226694752
 20
0.4287611904303052
  0
LWPOLYLINE
  5
7DE1B343D9E2225
330
7DE1B343D9E235A
100
AcDbEntity
  8
TEXT
100
AcDbPolyline
 90
        3
 70
     0
 43
0.0006660908203125
 10
-0.1446569832163529
 20
0.5153529970709318
 10
-0.2312487898569777
 20
0.5153529970709318
 10
-0.2312487898569777
 20
0.4287611904303052
  0
LWPOLYLINE
  5
7DE1B343D9E222A
330
7DE1B343D9E235A
100
AcDbEntity
  8
TEXT
100
AcDbPolyline
 90
        2
 70
     0
 43
0.0001332181640625
 10
-0.2312487898569777
 20
0.5153529970709318
 10
-0.1713006160288522
 20
0.4554048232428062
  0
LWPOLYLINE
  5
7DE1B343D9E222E
330
7DE1B343D9E235A
100
AcDbEntity
  8
TEXT
100
AcDbPolyline
 90
        2
 70
     0
 43
0.0001332181640625
 10
-0.2312487898569777
 20
0.4287611904303052
 10
-0.1713006160288522
 20
0.4187698281256164
  0
LWPOLYLINE
  5
7DE1B343D9E2232
330
7DE1B343D9E235A
100
AcDbEntity
  8
TEXT
100
AcDbPolyline
 90
        2
 70
     0
 43
0.0001332181640625
 10
-0.2578924226694752
 20
0.4287611904303052
 10
-0.1846224324351009
 20
0.4187698281256164
  0
LWPOLYLINE
  5
7DE1B343D9E2236
330
7DE1B343D9E235A
100
AcDbEntity
  8
TEXT
100
AcDbPolyline
 90
        2
 70
     0
 43
0.0006660908203125
 10
-0.2312487898569777
 20
0.3887957412115571
 10
-0.2578924226694752
 20
0.3887957412115571
  0
LWPOLYLINE
  5
7DE1B343D9E223A
330
7DE1B343D9E235A
100
AcDbEntity
  8
TEXT
100
AcDbPolyline
 90
        2
 70
     0
 43
0.0006660908203125
 10
-0.2312487898569777
 20
0.4287611904303052
 10
-0.2578924226694752
 20
0.4287611904303052
  0
LINE
  5
7DE1B343D9E223E
330
7DE1B343D9E235A
100
AcDbEntity
  8
TEXT
100
AcDbLine
 10
1.257298006457022
 20
0.4777199352266638
 30
0.0
 11
1.150091733069732
 21
0.4777199352266638
 31
0.0
  0
LINE
  5
7DE1B343D9E223F
330
7DE1B343D9E235A
100
AcDbEntity
  8
TEXT
100
AcDbLine
 10
1.2863289048015
 20
0.5419966298834292
 30
0.0
 11
1.151496995584441
 21
0.5419966298834292
 31
0.0
  0
ARC
  5
7DE1B343D9E2240
330
7DE1B343D9E235A
100
AcDbEntity
  8
TEXT
100
AcDbCircle
 10
1.210811091977758
 20
0.3727593806204129
 30
0.0
 40
0.0676855811441166
100
AcDbArc
 50
90.0
 51
153.7768192527749
  0
LWPOLYLINE
  5
7DE1B343D9E2241
330
7DE1B343D9E235A
100
AcDbEntity
  8
TEXT
100
AcDbPolyline
 90
        2
 70
     0
 43
0.0
 10
1.149059237614922
 20
0.3190145418453564
 42
0.2901071551932823
 10
1.192135170482558
 20
0.2755235968949182
 42
5.328517124445801
  0
ARC
  5
7DE1B343D9E2245
330
7DE1B343D9E235A
100
AcDbEntity
  8
TEXT
100
AcDbCircle
 10
0.5056797143062728
 20
0.335315988232968
 30
0.0
 40
0.0601160179737537
100
AcDbArc
 50
180.0000000000003
 51
264.0521544866073
  0
LINE
  5
7DE1B343D9E2246
330
7DE1B343D9E235A
100
AcDbEntity
  8
TEXT
100
AcDbLine
 10
0.5091950699318206
 20
0.5763845474775674
 30
0.0
 11
0.4491524650878136
 21
0.5763845474775674
 31
0.0
  0
ARC
  5
7DE1B343D9E2247
330
7DE1B343D9E235A
100
AcDbEntity
  8
TEXT
100
AcDbCircle
 10
0.2734207121893022
 20
0.4599091704369275
 30
0.0
 40
0.0820874594465043
100
AcDbArc
 50
90.0
 51
270.0
  0
LWPOLYLINE
  5
7DE1B343D9E2248
330
7DE1B343D9E235A
100
AcDbEntity
  8
TEXT
100
AcDbPolyline
 90
        2
 70
     0
 43
0.0001332181640625
 10
-0.1346656209116623
 20
0.4687266396490532
 10
-0.1446569832163529
 20
0.5419966298834328
  0
LWPOLYLINE
  5
7DE1B343D9E224C
330
7DE1B343D9E235A
100
AcDbEntity
  8
TEXT
100
AcDbPolyline
 90
        2
 70
     0
 43
0.0001332181640625
 10
-0.1446569832163529
 20
0.5153529970709318
 10
-0.1346656209116623
 20
0.4554048232428062
  0
LWPOLYLINE
  5
7DE1B343D9E2250
330
7DE1B343D9E235A
100
AcDbEntity
  8
TEXT
100
AcDbPolyline
 90
        3
 70
     0
 43
0.0006660908203125
 10
0.0085439054555245
 20
0.4287611904303052
 10
0.0085439054555245
 20
0.5419966298834328
 10
-0.1046915339976013
 20
0.5419966298834328
  0
LWPOLYLINE
  5
7DE1B343D9E2255
330
7DE1B343D9E235A
100
AcDbEntity
  8
TEXT
100
AcDbPolyline
 90
        3
 70
     0
 43
0.0006660908203125
 10
-0.0180997273569765
 20
0.4287611904303052
 10
-0.0180997273569765
 20
0.5153529970709318
 10
-0.1046915339976013
 20
0.5153529970709318
  0
LWPOLYLINE
  5
7DE1B343D9E225A
330
7DE1B343D9E235A
100
AcDbEntity
  8
TEXT
100
AcDbPolyline
 90
        2
 70
     0
 43
0.0001332181640625
 10
-0.0180997273569765
 20
0.5153529970709318
 10
-0.0780479011851003
 20
0.4554048232428062
  0
LWPOLYLINE
  5
7DE1B343D9E225E
330
7DE1B343D9E235A
100
AcDbEntity
  8
TEXT
100
AcDbPolyline
 90
        2
 70
     0
 43
0.0001332181640625
 10
-0.1046915339976013
 20
0.5153529970709318
 10
-0.1146828963022901
 20
0.4554048232428062
  0
LWPOLYLINE
  5
7DE1B343D9E2262
330
7DE1B343D9E235A
100
AcDbEntity
  8
TEXT
100
AcDbPolyline
 90
        2
 70
     0
 43
0.0001332181640625
 10
-0.1046915339976013
 20
0.5419966298834328
 10
-0.1146828963022901
 20
0.4687266396490532
  0
LWPOLYLINE
  5
7DE1B343D9E2266
330
7DE1B343D9E235A
100
AcDbEntity
  8
TEXT
100
AcDbPolyline
 90
        2
 70
     0
 43
0.0001332181640625
 10
-0.0647260847788516
 20
0.4187698281256164
 10
0.0085439054555245
 20
0.4287611904303052
  0
LWPOLYLINE
  5
7DE1B343D9E226A
330
7DE1B343D9E235A
100
AcDbEntity
  8
TEXT
100
AcDbPolyline
 90
        2
 70
     0
 43
0.0001332181640625
 10
-0.0180997273569765
 20
0.4287611904303052
 10
-0.0780479011851003
 20
0.4187698281256164
  0
LWPOLYLINE
  5
7DE1B343D9E226E
330
7DE1B343D9E235A
100
AcDbEntity
  8
TEXT
100
AcDbPolyline
 90
        2
 70
     0
 43
0.0001332181640625
 10
0.0085439054555245
 20
0.3887957412115571
 10
-0.0647260847788516
 20
0.3987871035162423
  0
LWPOLYLINE
  5
7DE1B343D9E2272
330
7DE1B343D9E235A
100
AcDbEntity
  8
TEXT
100
AcDbPolyline
 90
        2
 70
     0
 43
0.0001332181640625
 10
-0.0180997273569765
 20
0.3887957412115571
 10
-0.0780479011851003
 20
0.3987871035162423
  0
LWPOLYLINE
  5
7DE1B343D9E2276
330
7DE1B343D9E235A
100
AcDbEntity
  8
TEXT
100
AcDbPolyline
 90
        2
 70
     0
 43
0.0001332181640625
 10
-0.0180997273569765
 20
0.3022039345709305
 10
-0.0780479011851003
 20
0.3621521083990561
  0
LWPOLYLINE
  5
7DE1B343D9E227A
330
7DE1B343D9E235A
100
AcDbEntity
  8
TEXT
100
AcDbPolyline
 90
        3
 70
     0
 43
0.0006660908203125
 10
-0.1046915339976013
 20
0.3022039345709305
 10
-0.0180997273569765
 20
0.3022039345709305
 10
-0.0180997273569765
 20
0.3887957412115571
  0
LWPOLYLINE
  5
7DE1B343D9E227F
330
7DE1B343D9E235A
100
AcDbEntity
  8
TEXT
100
AcDbPolyline
 90
        3
 70
     0
 43
0.0006660908203125
 10
-0.1046915339976013
 20
0.2755603017584295
 10
0.0085439054555245
 20
0.2755603017584295
 10
0.0085439054555245
 20
0.3887957412115571
  0
LWPOLYLINE
  5
7DE1B343D9E2284
330
7DE1B343D9E235A
100
AcDbEntity
  8
TEXT
100
AcDbPolyline
 90
        5
 70
     0
 43
0.0001332181640625
 10
-0.1346656209116623
 20
0.3488302919928055
 10
-0.1346656209116623
 20
0.3621521083990561
 10
-0.1713006160288504
 20
0.3621521083990561
 10
-0.1713006160288504
 20
0.3987871035162423
 10
-0.1846224324351009
 20
0.3987871035162423
  0
LWPOLYLINE
  5
7DE1B343D9E228B
330
7DE1B343D9E235A
100
AcDbEntity
  8
TEXT
100
AcDbPolyline
 90
        2
 70
     0
 43
0.0006660908203125
 10
-0.1446569832163529
 20
0.3022039345709305
 10
-0.1446569832163529
 20
0.2755603017584295
  0
LWPOLYLINE
  5
7DE1B343D9E228F
330
7DE1B343D9E235A
100
AcDbEntity
  8
TEXT
100
AcDbPolyline
 90
        2
 70
     0
 43
0.0001332181640625
 10
-0.1446569832163529
 20
0.3022039345709305
 10
-0.1346656209116623
 20
0.3621521083990561
  0
LWPOLYLINE
  5
7DE1B343D9E2293
330
7DE1B343D9E235A
100
AcDbEntity
  8
TEXT
100
AcDbPolyline
 90
        2
 70
     0
 43
0.0001332181640625
 10
-0.1446569832163529
 20
0.2755603017584295
 10
-0.1346656209116623
 20
0.3488302919928055
  0
LWPOLYLINE
  5
7DE1B343D9E2297
330
7DE1B343D9E235A
100
AcDbEntity
  8
TEXT
100
AcDbPolyline
 90
        5
 70
     0
 43
0.0001332181640625
 10
-0.1846224324351009
 20
0.4187698281256164
 10
-0.1713006160288522
 20
0.4187698281256164
 10
-0.1713006160288522
 20
0.4554048232428062
 10
-0.1346656209116623
 20
0.4554048232428062
 10
-0.1346656209116623
 20
0.4687266396490532
  0
LWPOLYLINE
  5
7DE1B343D9E229E
330
7DE1B343D9E235A
100
AcDbEntity
  8
TEXT
100
AcDbPolyline
 90
        5
 70
     0
 43
0.0001332181640625
 10
-0.1146828963022901
 20
0.4687266396490532
 10
-0.1146828963022901
 20
0.4554048232428062
 10
-0.0780479011851003
 20
0.4554048232428062
 10
-0.0780479011851003
 20
0.4187698281256164
 10
-0.0647260847788516
 20
0.4187698281256164
  0
LWPOLYLINE
  5
7DE1B343D9E22A5
330
7DE1B343D9E235A
100
AcDbEntity
  8
TEXT
100
AcDbPolyline
 90
        2
 70
     0
 43
0.0001332181640625
 10
-0.1046915339976013
 20
0.3022039345709305
 10
-0.1146828963022901
 20
0.3621521083990561
  0
LWPOLYLINE
  5
7DE1B343D9E22A9
330
7DE1B343D9E235A
100
AcDbEntity
  8
TEXT
100
AcDbPolyline
 90
        2
 70
     0
 43
0.0001332181640625
 10
-0.1146828963022901
 20
0.3488302919928055
 10
-0.1046915339976013
 20
0.2755603017584295
  0
LWPOLYLINE
  5
7DE1B343D9E22AD
330
7DE1B343D9E235A
100
AcDbEntity
  8
TEXT
100
AcDbPolyline
 90
        2
 70
     0
 43
0.0006660908203125
 10
-0.1046915339976013
 20
0.3022039345709305
 10
-0.1046915339976013
 20
0.2755603017584295
  0
LWPOLYLINE
  5
7DE1B343D9E22B1
330
7DE1B343D9E235A
100
AcDbEntity
  8
TEXT
100
AcDbPolyline
 90
        5
 70
     0
 43
0.0001332181640625
 10
-0.0647260847788516
 20
0.3987871035162423
 10
-0.0780479011851003
 20
0.3987871035162423
 10
-0.0780479011851003
 20
0.3621521083990561
 10
-0.1146828963022901
 20
0.3621521083990561
 10
-0.1146828963022901
 20
0.3488302919928055
  0
LWPOLYLINE
  5
7DE1B343D9E22B8
330
7DE1B343D9E235A
100
AcDbEntity
  8
TEXT
100
AcDbPolyline
 90
        2
 70
     0
 43
0.0006660908203125
 10
-0.0180997273569765
 20
0.4287611904303052
 10
0.0085439054555245
 20
0.4287611904303052
  0
LWPOLYLINE
  5
7DE1B343D9E22BC
330
7DE1B343D9E235A
100
AcDbEntity
  8
TEXT
100
AcDbPolyline
 90
        2
 70
     0
 43
0.0006660908203125
 10
-0.0180997273569765
 20
0.3887957412115571
 10
0.0085439054555245
 20
0.3887957412115571
  0
LINE
  5
7DE1B343D9E22C0
330
7DE1B343D9E235A
100
AcDbEntity
  8
TEXT
100
AcDbLine
 10
0.2786580423035494
 20
0.4777199352266638
 30
0.0
 11
0.4455636963325207
 21
0.4777199352266638
 31
0.0
  0
LINE
  5
7DE1B343D9E22C1
330
7DE1B343D9E235A
100
AcDbEntity
  8
TEXT
100
AcDbLine
 10
0.3442581785478505
 20
0.4419152136160359
 30
0.0
 11
0.2786580423035494
 21
0.4419152136160359
 31
0.0
  0
LINE
  5
7DE1B343D9E22C2
330
7DE1B343D9E235A
100
AcDbEntity
  8
TEXT
100
AcDbLine
 10
0.1913332527427978
 20
0.2755235968949182
 30
0.0
 11
0.3442581785478505
 21
0.2755235968949182
 31
0.0
  0
LINE
  5
7DE1B343D9E22C3
330
7DE1B343D9E235A
100
AcDbEntity
  8
TEXT
100
AcDbLine
 10
0.3491985524541301
 20
0.3438806032283575
 30
0.0
 11
0.191333252742796
 21
0.3438806032283575
 31
0.0
  0
LINE
  5
7DE1B343D9E22C4
330
7DE1B343D9E235A
100
AcDbEntity
  8
TEXT
100
AcDbLine
 10
0.2734207121893013
 20
0.3778217109904221
 30
0.0
 11
0.3491985524541301
 21
0.3778217109904221
 31
0.0
  0
ARC
  5
7DE1B343D9E22C5
330
7DE1B343D9E235A
100
AcDbEntity
  8
TEXT
100
AcDbCircle
 10
0.2786580423035503
 20
0.4598175744213516
 30
0.0
 40
0.017902360805315
100
AcDbArc
 50
90.0
 51
270.0
  0
LINE
  5
7DE1B343D9E22C6
330
7DE1B343D9E235A
100
AcDbEntity
  8
TEXT
100
AcDbLine
 10
0.191333252742796
 20
0.3438806032283575
 30
0.0
 11
0.1913332527427978
 21
0.2755235968949182
 31
0.0
  0
LINE
  5
7DE1B343D9E22C7
330
7DE1B343D9E235A
100
AcDbEntity
  8
TEXT
100
AcDbLine
 10
0.4455636963325207
 20
0.4777199352266638
 30
0.0
 11
0.4455636963325207
 21
0.335315988232968
 31
0.0
  0
ARC
  5
7DE1B343D9E22C8
330
7DE1B343D9E235A
100
AcDbEntity
  8
TEXT
100
AcDbCircle
 10
0.3442581785478513
 20
0.3587194052554753
 30
0.0
 40
0.0831958083605586
100
AcDbArc
 50
270.0
 51
90.0
  0
ARC
  5
7DE1B343D9E22C9
330
7DE1B343D9E235A
100
AcDbEntity
  8
TEXT
100
AcDbCircle
 10
0.349198552454131
 20
0.3608511571093916
 30
0.0
 40
0.0169705538810321
100
AcDbArc
 50
270.0
 51
90.0
  0
LWPOLYLINE
  5
7DE1B343D9E22CA
330
7DE1B343D9E235A
100
AcDbEntity
  8
TEXT
100
AcDbPolyline
 90
        2
 70
     0
 43
0.0006660908203125
 10
-0.1446569832163529
 20
0.5153529970709318
 10
-0.1446569832163529
 20
0.5419966298834328
  0
LWPOLYLINE
  5
7DE1B343D9E22CE
330
7DE1B343D9E235A
100
AcDbEntity
  8
TEXT
100
AcDbPolyline
 90
        2
 70
     0
 43
0.0006660908203125
 10
-0.1046915339976013
 20
0.5153529970709318
 10
-0.1046915339976013
 20
0.5419966298834328
  0
LINE
  5
7DE1B343D9E22D2
330
7DE1B343D9E235A
100
AcDbEntity
  8
TEXT
100
AcDbLine
 10
0.4491524650878136
 20
0.5419966298834292
 30
0.0
 11
0.2734207121893013
 21
0.5419966298834292
 31
0.0
  0
LINE
  5
7DE1B343D9E22D3
330
7DE1B343D9E235A
100
AcDbEntity
  8
TEXT
100
AcDbLine
 10
0.4491524650878136
 20
0.5763845474775674
 30
0.0
 11
0.4491524650878136
 21
0.5419966298834292
 31
0.0
  0
LINE
  5
7DE1B343D9E22D4
330
7DE1B343D9E235A
100
AcDbEntity
  8
TEXT
100
AcDbLine
 10
0.6396243571076658
 20
0.4411246337703087
 30
0.0
 11
0.580994036075728
 21
0.5419966298834292
 31
0.0
  0
LINE
  5
7DE1B343D9E22D5
330
7DE1B343D9E235A
100
AcDbEntity
  8
TEXT
100
AcDbLine
 10
0.6983729199135313
 20
0.5419966298834292
 30
0.0
 11
0.6396243571076658
 21
0.4411246337703087
 31
0.0
  0
LINE
  5
7DE1B343D9E22D6
330
7DE1B343D9E235A
100
AcDbEntity
  8
TEXT
100
AcDbLine
 10
0.7953035452732726
 20
0.3579114349979174
 30
0.0
 11
0.7953035452732726
 21
0.6100081076222398
 31
0.0
  0
LINE
  5
7DE1B343D9E22D7
330
7DE1B343D9E235A
100
AcDbEntity
  8
TEXT
100
AcDbLine
 10
0.8276153994109327
 20
0.5419966298834292
 30
0.0
 11
0.8276153994109327
 21
0.341132423151021
 31
0.0
  0
LINE
  5
7DE1B343D9E22D8
330
7DE1B343D9E235A
100
AcDbEntity
  8
TEXT
100
AcDbLine
 10
0.8276153994109327
 20
0.341132423151021
 30
0.0
 11
0.8106217625263314
 21
0.341132423151021
 31
0.0
  0
LINE
  5
7DE1B343D9E22D9
330
7DE1B343D9E235A
100
AcDbEntity
  8
TEXT
100
AcDbLine
 10
0.7964431187694674
 20
0.2755235968949182
 30
0.0
 11
0.8944464524689019
 21
0.2755235968949182
 31
0.0
  0
LINE
  5
7DE1B343D9E22DA
330
7DE1B343D9E235A
100
AcDbEntity
  8
TEXT
100
AcDbLine
 10
0.6300241201107115
 20
0.2954821029999311
 30
0.0
 11
0.7273238262041561
 21
0.4598323139351993
 31
0.0
  0
ARC
  5
7DE1B343D9E22DB
330
7DE1B343D9E235A
100
AcDbEntity
  8
TEXT
100
AcDbCircle
 10
0.5959805601984975
 20
0.3150713191686139
 30
0.0
 40
0.0392772371940762
100
AcDbArc
 50
270.1604552698595
 51
330.0831797321295
  0
LINE
  5
7DE1B343D9E22DC
330
7DE1B343D9E235A
100
AcDbEntity
  8
TEXT
100
AcDbLine
 10
0.4994503038126263
 20
0.2755235968949182
 30
0.0
 11
0.5960905548876207
 21
0.2757942359932005
 31
0.0
  0
LWPOLYLINE
  5
7DE1B343D9E22DD
330
7DE1B343D9E235A
100
AcDbEntity
  8
TEXT
100
AcDbPolyline
 90
        6
 70
     1
 43
0.0
 10
0.541974107387776
 20
0.4777199352266638
 10
0.5116575131675678
 20
0.4777199352266638
 10
0.5116575131675678
 20
0.3546089371717694
 42
0.407328721240804
 10
0.5232011643290442
 20
0.3427900224953833
 10
0.583822863373775
 20
0.3427900224953833
 10
0.6012882037810929
 20
0.3756022515388625
  0
LINE
  5
7DE1B343D9E22E5
330
7DE1B343D9E235A
100
AcDbEntity
  8
TEXT
100
AcDbLine
 10
0.7273238262041561
 20
0.4598323139351993
 30
0.0
 11
0.7273238262041561
 21
0.3270749391098429
 31
0.0
  0
ARC
  5
7DE1B343D9E22E6
330
7DE1B343D9E235A
100
AcDbEntity
  8
TEXT
100
AcDbCircle
 10
0.8106217625263296
 20
0.3565142293944464
 30
0.0
 40
0.0153818062434269
100
AcDbArc
 50
174.7883570302258
 51
270.0
  0
LWPOLYLINE
  5
7DE1B343D9E22E7
330
7DE1B343D9E235A
100
AcDbEntity
  8
TEXT
100
AcDbPolyline
 90
        2
 70
     0
 43
0.0
 10
0.7273238262041544
 20
0.3270749391098465
 42
0.3318488747599744
 10
0.7964431187694674
 20
0.2755235968949182
 42
-6.868794160588311
  0
LINE
  5
7DE1B343D9E22EB
330
7DE1B343D9E235A
100
AcDbEntity
  8
TEXT
100
AcDbLine
 10
0.951835521458163
 20
0.2755235968949182
 30
0.0
 11
1.018893568240003
 21
0.2755235968949182
 31
0.0
  0
LINE
  5
7DE1B343D9E22EC
330
7DE1B343D9E235A
100
AcDbEntity
  8
TEXT
100
AcDbLine
 10
0.951835521458163
 20
0.4701661460605539
 30
0.0
 11
0.951835521458163
 21
0.2755235968949182
 31
0.0
  0
LINE
  5
7DE1B343D9E22ED
330
7DE1B343D9E235A
100
AcDbEntity
  8
TEXT
100
AcDbLine
 10
0.8944464524689019
 20
0.4777199352266638
 30
0.0
 11
0.9442817322920495
 21
0.4777199352266638
 31
0.0
  0
LINE
  5
7DE1B343D9E22EE
330
7DE1B343D9E235A
100
AcDbEntity
  8
TEXT
100
AcDbLine
 10
0.8944464524689019
 20
0.2755235968949182
 30
0.0
 11
0.8944464524689019
 21
0.4777199352266638
 31
0.0
  0
LWPOLYLINE
  5
7DE1B343D9E22EF
330
7DE1B343D9E235A
100
AcDbEntity
  8
TEXT
100
AcDbPolyline
 90
        2
 70
     0
 43
0.0
 10
0.9442817322920477
 20
0.4777199352266638
 42
-0.4142135623731017
 10
0.9518355214581612
 20
0.4701661460605539
 42
-0.9999999999999998
  0
LINE
  5
7DE1B343D9E22F3
330
7DE1B343D9E235A
100
AcDbEntity
  8
TEXT
100
AcDbLine
 10
1.150091733069732
 20
0.4777199352266638
 30
0.0
 11
1.150091733069732
 21
0.4026675291524572
 31
0.0
  0
LINE
  5
7DE1B343D9E22F4
330
7DE1B343D9E235A
100
AcDbEntity
  8
TEXT
100
AcDbLine
 10
1.018893568240003
 20
0.4777199352266638
 30
0.0
 11
1.073027165160953
 21
0.4777199352266638
 31
0.0
  0
LINE
  5
7DE1B343D9E22F5
330
7DE1B343D9E235A
100
AcDbEntity
  8
TEXT
100
AcDbLine
 10
1.018893568240003
 20
0.2755235968949182
 30
0.0
 11
1.018893568240003
 21
0.4777199352266638
 31
0.0
  0
LWPOLYLINE
  5
7DE1B343D9E22F6
330
7DE1B343D9E235A
100
AcDbEntity
  8
TEXT
100
AcDbPolyline
 90
        2
 70
     0
 43
0.0
 10
1.073027165160951
 20
0.4777199352266638
 42
-0.4142135623731017
 10
1.080580954327065
 20
0.4701661460605539
 42
-0.9999999999999998
  0
LWPOLYLINE
  5
7DE1B343D9E22FA
330
7DE1B343D9E235A
100
AcDbEntity
  8
TEXT
100
AcDbPolyline
 90
        4
 70
     0
 43
0.0
 10
1.080580954327065
 20
0.4701661460605539
 10
1.080580954327065
 20
0.2755235968949182
 10
1.149059237614922
 20
0.2755235968949182
 10
1.149059237614922
 20
0.3190145418453564
 42
-1.714843617202739
  0
LINE
  5
7DE1B343D9E2300
330
7DE1B343D9E235A
100
AcDbEntity
  8
TEXT
100
AcDbLine
 10
0.5091950699318206
 20
0.5419966298834292
 30
0.0
 11
0.5091950699318206
 21
0.5763845474775674
 31
0.0
  0
LINE
  5
7DE1B343D9E2301
330
7DE1B343D9E235A
100
AcDbEntity
  8
TEXT
100
AcDbLine
 10
0.580994036075728
 20
0.5419966298834292
 30
0.0
 11
0.5091950699318206
 21
0.5419966298834292
 31
0.0
  0
LINE
  5
7DE1B343D9E2302
330
7DE1B343D9E235A
100
AcDbEntity
  8
TEXT
100
AcDbLine
 10
0.7284948327069076
 20
0.5419966298834292
 30
0.0
 11
0.6983729199135313
 21
0.5419966298834292
 31
0.0
  0
LINE
  5
7DE1B343D9E2303
330
7DE1B343D9E235A
100
AcDbEntity
  8
TEXT
100
AcDbLine
 10
0.7284948327069076
 20
0.6100081076222398
 30
0.0
 11
0.7284948327069076
 21
0.5419966298834292
 31
0.0
  0
LINE
  5
7DE1B343D9E2304
330
7DE1B343D9E235A
100
AcDbEntity
  8
TEXT
100
AcDbLine
 10
0.7953035452732726
 20
0.6100081076222398
 30
0.0
 11
0.7284948327069076
 21
0.6100081076222398
 31
0.0
  0
LWPOLYLINE
  5
7DE1B343D9E2305
330
7DE1B343D9E235A
100
AcDbEntity
  8
TEXT
100
AcDbPolyline
 90
        3
 70
     0
 43
0.0
 10
1.115715304871274
 20
0.5419966298834328
 10
0.9974151460552304
 20
0.5419966298834328
 10
0.9974151460552304
 20
0.5148291331225369
 42
-1.960274751411753
  0
LINE
  5
7DE1B343D9E230A
330
7DE1B343D9E235A
100
AcDbEntity
  8
TEXT
100
AcDbLine
 10
0.961633455342069
 20
0.5419966298834292
 30
0.0
 11
0.8276153994109327
 21
0.5419966298834292
 31
0.0
  0
LWPOLYLINE
  5
7DE1B343D9E230B
330
7DE1B343D9E235A
100
AcDbEntity
  8
TEXT
100
AcDbPolyline
 90
        2
 70
     0
 43
0.0
 10
0.961633455342069
 20
0.5419966298834328
 42
-0.3328679258950098
 10
0.9974151460552304
 20
0.5148291331225369
 42
6.772930709997214
  0
LINE
  5
7DE1B343D9E230F
330
7DE1B343D9E235A
100
AcDbEntity
  8
TEXT
100
AcDbLine
 10
1.151496995584441
 20
0.5419966298834292
 30
0.0
 11
1.151496995584441
 21
0.5136740841137854
 31
0.0
  0
LWPOLYLINE
  5
7DE1B343D9E2310
330
7DE1B343D9E235A
100
AcDbEntity
  8
TEXT
100
AcDbPolyline
 90
        2
 70
     0
 43
0.0
 10
1.115715304871274
 20
0.5419966298834328
 42
-0.3277054968067132
 10
1.151496995584439
 20
0.5136740841137889
 42
6.667889725900311
  0
LINE
  5
7DE1B343D9E2314
330
7DE1B343D9E235A
100
AcDbEntity
  8
TEXT
100
AcDbLine
 10
1.365288843676541
 20
0.4367846513300019
 30
0.0
 11
1.32153807249464
 21
0.5190349273261471
 31
0.0
  0
LINE
  5
7DE1B343D9E2315
330
7DE1B343D9E235A
100
AcDbEntity
  8
TEXT
100
AcDbLine
 10
1.365288843676541
 20
0.5419966298834292
 30
0.0
 11
1.365288843676541
 21
0.4367846513300019
 31
0.0
  0
LINE
  5
7DE1B343D9E2316
330
7DE1B343D9E235A
100
AcDbEntity
  8
TEXT
100
AcDbLine
 10
1.59297258261491
 20
0.4661313034718912
 30
0.0
 11
1.59297258261491
 21
0.6074608356510299
 31
0.0
  0
LINE
  5
7DE1B343D9E2317
330
7DE1B343D9E235A
100
AcDbEntity
  8
TEXT
100
AcDbLine
 10
1.640070741170895
 20
0.5419966298834292
 30
0.0
 11
1.59297258261491
 21
0.4661313034718912
 31
0.0
  0
LINE
  5
7DE1B343D9E2318
330
7DE1B343D9E235A
100
AcDbEntity
  8
TEXT
100
AcDbLine
 10
1.650505457934818
 20
0.4321033869424557
 30
0.0
 11
1.715062573900523
 21
0.5419966298834292
 31
0.0
  0
LINE
  5
7DE1B343D9E2319
330
7DE1B343D9E235A
100
AcDbEntity
  8
TEXT
100
AcDbLine
 10
1.529137591392137
 20
0.2755235968949182
 30
0.0
 11
1.593515775710758
 21
0.2755235968949182
 31
0.0
  0
LWPOLYLINE
  5
7DE1B343D9E231A
330
7DE1B343D9E235A
100
AcDbEntity
  8
TEXT
100
AcDbPolyline
 90
        2
 70
     0
 43
0.0
 10
1.369228520981579
 20
0.3190145418453564
 42
-0.2901071551932486
 10
1.326152588113935
 20
0.2755235968949182
 42
-5.328517124445184
  0
ARC
  5
7DE1B343D9E231E
330
7DE1B343D9E235A
100
AcDbEntity
  8
TEXT
100
AcDbCircle
 10
1.25729800645702
 20
0.4493605602266665
 30
0.0
 40
0.028359375
100
AcDbArc
 50
25.78218179591245
 51
90.0
  0
LINE
  5
7DE1B343D9E231F
330
7DE1B343D9E235A
100
AcDbEntity
  8
TEXT
100
AcDbLine
 10
1.293099081761143
 20
0.4404449617645315
 30
0.0
 11
1.282834321347579
 21
0.4616955013372258
 31
0.0
  0
LINE
  5
7DE1B343D9E2320
330
7DE1B343D9E235A
100
AcDbEntity
  8
TEXT
100
AcDbLine
 10
1.21081109197776
 20
0.4404449617645315
 30
0.0
 11
1.293099081761143
 21
0.4404449617645315
 31
0.0
  0
LWPOLYLINE
  5
7DE1B343D9E2321
330
7DE1B343D9E235A
100
AcDbEntity
  8
TEXT
100
AcDbPolyline
 90
        4
 70
     1
 43
0.0
 10
1.306030123044042
 20
0.3784875748789434
 10
1.217369804384184
 20
0.3784875748789434
 42
0.9999999999999998
 10
1.217369804384184
 20
0.3360890343750827
 10
1.306030123044042
 20
0.3360890343750827
 42
1.0
  0
LWPOLYLINE
  5
7DE1B343D9E2327
330
7DE1B343D9E235A
100
AcDbEntity
  8
TEXT
100
AcDbPolyline
 90
        2
 70
     0
 43
0.0
 10
1.192135170482558
 20
0.2755235968949182
 10
1.326152588113935
 20
0.2755235968949182
 42
0.9999999999999998
  0
LINE
  5
7DE1B343D9E232B
330
7DE1B343D9E235A
100
AcDbEntity
  8
TEXT
100
AcDbLine
 10
1.452489610099574
 20
0.4777199352266638
 30
0.0
 11
1.529137591392132
 21
0.4777199352266638
 31
0.0
  0
LINE
  5
7DE1B343D9E232C
330
7DE1B343D9E235A
100
AcDbEntity
  8
TEXT
100
AcDbLine
 10
1.529137591392132
 20
0.4777199352266638
 30
0.0
 11
1.529137591392137
 21
0.2755235968949182
 31
0.0
  0
ARC
  5
7DE1B343D9E232D
330
7DE1B343D9E235A
100
AcDbEntity
  8
TEXT
100
AcDbCircle
 10
1.452489610099572
 20
0.4528140599440011
 30
0.0
 40
0.0249058752826653
100
AcDbArc
 50
89.99971217465335
 51
179.9999999999985
  0
LINE
  5
7DE1B343D9E232E
330
7DE1B343D9E235A
100
AcDbEntity
  8
TEXT
100
AcDbLine
 10
1.427583734816915
 20
0.2755235968949182
 30
0.0
 11
1.427583734816909
 21
0.4528141023263867
 31
0.0
  0
LWPOLYLINE
  5
7DE1B343D9E232F
330
7DE1B343D9E235A
100
AcDbEntity
  8
TEXT
100
AcDbPolyline
 90
        2
 70
     0
 43
0.0
 10
1.369228520981579
 20
0.2755235968949182
 10
1.427583734816913
 20
0.2755235968949182
  0
LWPOLYLINE
  5
7DE1B343D9E2333
330
7DE1B343D9E235A
100
AcDbEntity
  8
TEXT
100
AcDbPolyline
 90
        2
 70
     0
 43
0.0
 10
1.369228520981579
 20
0.3190145418453564
 10
1.369228520981579
 20
0.2755235968949182
  0
LINE
  5
7DE1B343D9E2337
330
7DE1B343D9E235A
100
AcDbEntity
  8
TEXT
100
AcDbLine
 10
1.745997681298428
 20
0.2755235968949182
 30
0.0
 11
1.650505457934818
 21
0.4321033869424557
 31
0.0
  0
LINE
  5
7DE1B343D9E2338
330
7DE1B343D9E235A
100
AcDbEntity
  8
TEXT
100
AcDbLine
 10
1.669419308922222
 20
0.2755235968949182
 30
0.0
 11
1.745997681298428
 21
0.2755235968949182
 31
0.0
  0
LINE
  5
7DE1B343D9E2339
330
7DE1B343D9E235A
100
AcDbEntity
  8
TEXT
100
AcDbLine
 10
1.593515775710758
 20
0.4071031653710985
 30
0.0
 11
1.669419308922222
 21
0.2755235968949182
 31
0.0
  0
LINE
  5
7DE1B343D9E233A
330
7DE1B343D9E235A
100
AcDbEntity
  8
TEXT
100
AcDbLine
 10
1.593515775710758
 20
0.2755235968949182
 30
0.0
 11
1.593515775710758
 21
0.4071031653710985
 31
0.0
  0
LINE
  5
7DE1B343D9E233B
330
7DE1B343D9E235A
100
AcDbEntity
  8
TEXT
100
AcDbLine
 10
1.59297258261491
 20
0.6074608356510299
 30
0.0
 11
1.524657704065637
 21
0.6074608356510299
 31
0.0
  0
ARC
  5
7DE1B343D9E233C
330
7DE1B343D9E235A
100
AcDbEntity
  8
TEXT
100
AcDbCircle
 10
1.284301965024431
 20
0.5004130627625269
 30
0.0
 40
0.0416329381542859
100
AcDbArc
 50
26.56974201007528
 51
87.20939649401342
  0
LINE
  5
7DE1B343D9E233D
330
7DE1B343D9E235A
100
AcDbEntity
  8
TEXT
100
AcDbLine
 10
1.429185749976042
 20
0.5419966298834292
 30
0.0
 11
1.365288843676541
 21
0.5419966298834292
 31
0.0
  0
LINE
  5
7DE1B343D9E233E
330
7DE1B343D9E235A
100
AcDbEntity
  8
TEXT
100
AcDbLine
 10
1.429185749976042
 20
0.5144489800225546
 30
0.0
 11
1.429185749976042
 21
0.5419966298834292
 31
0.0
  0
ARC
  5
7DE1B343D9E233F
330
7DE1B343D9E235A
100
AcDbEntity
  8
TEXT
100
AcDbCircle
 10
1.46037856703915
 20
0.5107509026011644
 30
0.0
 40
0.0314112657011332
100
AcDbArc
 50
95.88484768694724
 51
173.2388340632136
  0
LINE
  5
7DE1B343D9E2340
330
7DE1B343D9E235A
100
AcDbEntity
  8
TEXT
100
AcDbLine
 10
1.524657704065632
 20
0.5419966298834292
 30
0.0
 11
1.457157986416115
 21
0.5419966298834292
 31
0.0
  0
LINE
  5
7DE1B343D9E2341
330
7DE1B343D9E235A
100
AcDbEntity
  8
TEXT
100
AcDbLine
 10
1.524657704065637
 20
0.6074608356510299
 30
0.0
 11
1.524657704065632
 21
0.5419966298834292
 31
0.0
  0
LINE
  5
7DE1B343D9E2342
330
7DE1B343D9E235A
100
AcDbEntity
  8
TEXT
100
AcDbLine
 10
1.715062573900523
 20
0.5419966298834292
 30
0.0
 11
1.640070741170896
 21
0.5419966298834292
 31
0.0
  0
ENDSEC
  0
SECTION
  2
OBJECTS
  0
DICTIONARY
  5
7DE1B343D9E234E
330
0
100
AcDbDictionary
  3
ACAD_GROUP
350
7DE1B343D9E234F
  3
ACAD_LAYOUT
350
7DE1B343D9E2374
  3
ACAD_MLINESTYLE
350
7DE1B343D9E2350
  3
ACAD_PLOTSETTINGS
350
7DE1B343D9E2375
  3
ACAD_PLOTSTYLENAME
350
7DE1B343D9E2372
  3
ACDBHEADERROUNDTRIPXREC
350
7DE1B343D9E237F
  3
ACDBVARIABLEDICTIONARY
350
7DE1B343D9E237C
  0
DICTIONARY
  5
7DE1B343D9E23A1
330
7DE1B343D9E235A
100
AcDbDictionary
280
     1
  3
ACAD_LAYOUTSELFREF
360
7DE1B343D9E23A2
  0
DICTIONARY
  5
7DE1B343D9E239F
330
7DE1B343D9E2357
100
AcDbDictionary
280
     1
  3
ACAD_LAYOUTSELFREF
360
7DE1B343D9E23A0
  0
DICTIONARY
  5
7DE1B343D9E234F
102
{ACAD_REACTORS
330
7DE1B343D9E234E
102
}
330
7DE1B343D9E234E
100
AcDbDictionary
  0
DICTIONARY
  5
7DE1B343D9E2374
102
{ACAD_REACTORS
330
7DE1B343D9E234E
102
}
330
7DE1B343D9E234E
100
AcDbDictionary
  0
DICTIONARY
  5
7DE1B343D9E2350
102
{ACAD_REACTORS
330
7DE1B343D9E234E
102
}
330
7DE1B343D9E234E
100
AcDbDictionary
  3
STANDARD
350
7DE1B343D9E235D
  0
DICTIONARY
  5
7DE1B343D9E2375
102
{ACAD_REACTORS
330
7DE1B343D9E234E
102
}
330
7DE1B343D9E234E
100
AcDbDictionary
  0
ACDBDICTIONARYWDFLT
  5
7DE1B343D9E2372
102
{ACAD_REACTORS
330
7DE1B343D9E234E
102
}
330
7DE1B343D9E234E
100
AcDbDictionary
281
     1
  3
Normal
350
7DE1B343D9E2373
100
AcDbDictionaryWithDefault
340
7DE1B343D9E2373
  0
DICTIONARY
  5
7DE1B343D9E237F
102
{ACAD_REACTORS
330
7DE1B343D9E234E
102
}
330
7DE1B343D9E234E
100
AcDbDictionary
  3
CEPSNTYPE
350
7DE1B343D9E2389
  3
FINGERPRINTGUID
350
7DE1B343D9E238A
  3
HYPERLINKBASE
350
7DE1B343D9E2382
  3
INSUNITS
350
7DE1B343D9E2388
  3
LAYOUTDICT
350
7DE1B343D9E2384
  3
LWETCUNION
350
7DE1B343D9E2387
  3
PLOTSETDICT
350
7DE1B343D9E2385
  3
PLOTSTYLNAMDICT
350
7DE1B343D9E2386
  3
PSVPSCALE
350
7DE1B343D9E238C
  3
PUCSBASE
350
7DE1B343D9E238F
  3
PUCSORGBACK
350
7DE1B343D9E2395
  3
PUCSORGBOTTOM
350
7DE1B343D9E2391
  3
PUCSORGFRONT
350
7DE1B343D9E2394
  3
PUCSORGLEFT
350
7DE1B343D9E2392
  3
PUCSORGRIGHT
350
7DE1B343D9E2393
  3
PUCSORGTOP
350
7DE1B343D9E2390
  3
PUCSORTHOREF
350
7DE1B343D9E238D
  3
PUCSORTHOVIEW
350
7DE1B343D9E238E
  3
STYLESHEET
350
7DE1B343D9E2383
  3
TSTACKALIGN
350
7DE1B343D9E2380
  3
TSTACKSIZE
350
7DE1B343D9E2381
  3
UCSBASE
350
7DE1B343D9E2398
  3
UCSORGBACK
350
7DE1B343D9E239E
  3
UCSORGBOTTOM
350
7DE1B343D9E239A
  3
UCSORGFRONT
350
7DE1B343D9E239D
  3
UCSORGLEFT
350
7DE1B343D9E239B
  3
UCSORGRIGHT
350
7DE1B343D9E239C
  3
UCSORGTOP
350
7DE1B343D9E2399
  3
UCSORTHOREF
350
7DE1B343D9E2396
  3
UCSORTHOVIEW
350
7DE1B343D9E2397
  3
VERSIONGUID
350
7DE1B343D9E238B
  0
DICTIONARY
  5
7DE1B343D9E237C
102
{ACAD_REACTORS
330
7DE1B343D9E234E
102
}
330
7DE1B343D9E234E
100
AcDbDictionary
  3
DIMASSOC
350
7DE1B343D9E237D
  0
XRECORD
  5
7DE1B343D9E23A2
102
{ACAD_REACTORS
330
7DE1B343D9E23A1
102
}
330
7DE1B343D9E23A1
100
AcDbXrecord
340
7DE1B343D9E235A
  0
XRECORD
  5
7DE1B343D9E23A0
102
{ACAD_REACTORS
330
7DE1B343D9E239F
102
}
330
7DE1B343D9E239F
100
AcDbXrecord
340
7DE1B343D9E2357
  0
MLINESTYLE
  5
7DE1B343D9E235D
102
{ACAD_REACTORS
330
7DE1B343D9E2350
102
}
330
7DE1B343D9E2350
100
AcDbMlineStyle
  2
STANDARD
 70
     0
  3

 62
     0
 51
90.0
 52
90.0
 71
     2
 49
0.5
 62
   256
  6
BYLAYER
 49
-0.5
 62
   256
  6
BYLAYER
  0
ACDBPLACEHOLDER
  5
7DE1B343D9E2373
102
{ACAD_REACTORS
330
7DE1B343D9E2372
102
}
330
7DE1B343D9E2372
100
AcDbPlaceHolder
280
     0
  0
XRECORD
  5
7DE1B343D9E2389
102
{ACAD_REACTORS
330
7DE1B343D9E237F
102
}
330
7DE1B343D9E237F
100
AcDbXrecord
 90
        0
  0
XRECORD
  5
7DE1B343D9E238A
102
{ACAD_REACTORS
330
7DE1B343D9E237F
102
}
330
7DE1B343D9E237F
100
AcDbXrecord
  1
{6EA8C9F0-8DB9-11D6-88E6-0090279574E7}
  0
XRECORD
  5
7DE1B343D9E2382
102
{ACAD_REACTORS
330
7DE1B343D9E237F
102
}
330
7DE1B343D9E237F
100
AcDbXrecord
  1

  0
XRECORD
  5
7DE1B343D9E2388
102
{ACAD_REACTORS
330
7DE1B343D9E237F
102
}
330
7DE1B343D9E237F
100
AcDbXrecord
 90
        0
  0
XRECORD
  5
7DE1B343D9E2384
102
{ACAD_REACTORS
330
7DE1B343D9E237F
102
}
330
7DE1B343D9E237F
100
AcDbXrecord
340
7DE1B343D9E2374
  0
XRECORD
  5
7DE1B343D9E2387
102
{ACAD_REACTORS
330
7DE1B343D9E237F
102
}
330
7DE1B343D9E237F
100
AcDbXrecord
 90
    14877
  0
XRECORD
  5
7DE1B343D9E2385
102
{ACAD_REACTORS
330
7DE1B343D9E237F
102
}
330
7DE1B343D9E237F
100
AcDbXrecord
340
7DE1B343D9E2375
  0
XRECORD
  5
7DE1B343D9E2386
102
{ACAD_REACTORS
330
7DE1B343D9E237F
102
}
330
7DE1B343D9E237F
100
AcDbXrecord
340
7DE1B343D9E2372
  0
XRECORD
  5
7DE1B343D9E238C
102
{ACAD_REACTORS
330
7DE1B343D9E237F
102
}
330
7DE1B343D9E237F
100
AcDbXrecord
 40
0.0
  0
XRECORD
  5
7DE1B343D9E238F
102
{ACAD_REACTORS
330
7DE1B343D9E237F
102
}
330
7DE1B343D9E237F
100
AcDbXrecord
340
0
  0
XRECORD
  5
7DE1B343D9E2395
102
{ACAD_REACTORS
330
7DE1B343D9E237F
102
}
330
7DE1B343D9E237F
100
AcDbXrecord
 10
0.0
 20
0.0
 30
0.0
  0
XRECORD
  5
7DE1B343D9E2391
102
{ACAD_REACTORS
330
7DE1B343D9E237F
102
}
330
7DE1B343D9E237F
100
AcDbXrecord
 10
0.0
 20
0.0
 30
0.0
  0
XRECORD
  5
7DE1B343D9E2394
102
{ACAD_REACTORS
330
7DE1B343D9E237F
102
}
330
7DE1B343D9E237F
100
AcDbXrecord
 10
0.0
 20
0.0
 30
0.0
  0
XRECORD
  5
7DE1B343D9E2392
102
{ACAD_REACTORS
330
7DE1B343D9E237F
102
}
330
7DE1B343D9E237F
100
AcDbXrecord
 10
0.0
 20
0.0
 30
0.0
  0
XRECORD
  5
7DE1B343D9E2393
102
{ACAD_REACTORS
330
7DE1B343D9E237F
102
}
330
7DE1B343D9E237F
100
AcDbXrecord
 10
0.0
 20
0.0
 30
0.0
  0
XRECORD
  5
7DE1B343D9E2390
102
{ACAD_REACTORS
330
7DE1B343D9E237F
102
}
330
7DE1B343D9E237F
100
AcDbXrecord
 10
0.0
 20
0.0
 30
0.0
  0
XRECORD
  5
7DE1B343D9E238D
102
{ACAD_REACTORS
330
7DE1B343D9E237F
102
}
330
7DE1B343D9E237F
100
AcDbXrecord
340
0
  0
XRECORD
  5
7DE1B343D9E238E
102
{ACAD_REACTORS
330
7DE1B343D9E237F
102
}
330
7DE1B343D9E237F
100
AcDbXrecord
 70
     0
  0
XRECORD
  5
7DE1B343D9E2383
102
{ACAD_REACTORS
330
7DE1B343D9E237F
102
}
330
7DE1B343D9E237F
100
AcDbXrecord
  1

  0
XRECORD
  5
7DE1B343D9E2380
102
{ACAD_REACTORS
330
7DE1B343D9E237F
102
}
330
7DE1B343D9E237F
100
AcDbXrecord
 90
        1
  0
XRECORD
  5
7DE1B343D9E2381
102
{ACAD_REACTORS
330
7DE1B343D9E237F
102
}
330
7DE1B343D9E237F
100
AcDbXrecord
 90
       70
  0
XRECORD
  5
7DE1B343D9E2398
102
{ACAD_REACTORS
330
7DE1B343D9E237F
102
}
330
7DE1B343D9E237F
100
AcDbXrecord
340
0
  0
XRECORD
  5
7DE1B343D9E239E
102
{ACAD_REACTORS
330
7DE1B343D9E237F
102
}
330
7DE1B343D9E237F
100
AcDbXrecord
 10
0.0
 20
0.0
 30
0.0
  0
XRECORD
  5
7DE1B343D9E239A
102
{ACAD_REACTORS
330
7DE1B343D9E237F
102
}
330
7DE1B343D9E237F
100
AcDbXrecord
 10
0.0
 20
0.0
 30
0.0
  0
XRECORD
  5
7DE1B343D9E239D
102
{ACAD_REACTORS
330
7DE1B343D9E237F
102
}
330
7DE1B343D9E237F
100
AcDbXrecord
 10
0.0
 20
0.0
 30
0.0
  0
XRECORD
  5
7DE1B343D9E239B
102
{ACAD_REACTORS
330
7DE1B343D9E237F
102
}
330
7DE1B343D9E237F
100
AcDbXrecord
 10
0.0
 20
0.0
 30
0.0
  0
XRECORD
  5
7DE1B343D9E239C
102
{ACAD_REACTORS
330
7DE1B343D9E237F
102
}
330
7DE1B343D9E237F
100
AcDbXrecord
 10
0.0
 20
0.0
 30
0.0
  0
XRECORD
  5
7DE1B343D9E2399
102
{ACAD_REACTORS
330
7DE1B343D9E237F
102
}
330
7DE1B343D9E237F
100
AcDbXrecord
 10
0.0
 20
0.0
 30
0.0
  0
XRECORD
  5
7DE1B343D9E2396
102
{ACAD_REACTORS
330
7DE1B343D9E237F
102
}
330
7DE1B343D9E237F
100
AcDbXrecord
340
0
  0
XRECORD
  5
7DE1B343D9E2397
102
{ACAD_REACTORS
330
7DE1B343D9E237F
102
}
330
7DE1B343D9E237F
100
AcDbXrecord
 70
     0
  0
XRECORD
  5
7DE1B343D9E238B
102
{ACAD_REACTORS
330
7DE1B343D9E237F
102
}
330
7DE1B343D9E237F
100
AcDbXrecord
  1
{6EA8C9F2-8DB9-11D6-88E6-0090279574E7}
  0
DICTIONARYVAR
  5
7DE1B343D9E237D
102
{ACAD_REACTORS
330
7DE1B343D9E237C
102
}
330
7DE1B343D9E237C
100
DictionaryVariables
280
     0
  1
1
  0
ENDSEC
  0
EOF
