  0
SECTION
  2
HEADER
  9
$ACADVER
  1
AC1014
  9
$ACADMAINTVER
 70
     9
  9
$DWGCODEPAGE
  3
ANSI_1252
  9
$INSBASE
 10
1.649390242550886
 20
1.544689151014288
 30
0.0
  9
$EXTMIN
 10
-0.0448108483148513
 20
0.3740815838182299
 30
0.0
  9
$EXTMAX
 10
3.440408473432276
 20
2.179272591828195
 30
0.0
  9
$LIMMIN
 10
0.0
 20
0.0
  9
$LIMMAX
 10
18.0
 20
12.0
  9
$ORTHOMODE
 70
     1
  9
$REGENMODE
 70
     1
  9
$FILLMODE
 70
     1
  9
$QTEXTMODE
 70
     0
  9
$MIRRTEXT
 70
     0
  9
$DRAGMODE
 70
     2
  9
$LTSCALE
 40
1.0
  9
$OSMODE
 70
    39
  9
$ATTMODE
 70
     1
  9
$TEXTSIZE
 40
0.125
  9
$TRACEWID
 40
0.05
  9
$TEXTSTYLE
  7
ROMANS
  9
$CLAYER
  8
0
  9
$CELTYPE
  6
BYLAYER
  9
$CECOLOR
 62
   256
  9
$CELTSCALE
 40
1.0
  9
$DELOBJ
 70
     1
  9
$DISPSILH
 70
     1
  9
$DIMSCALE
 40
1.0
  9
$DIMASZ
 40
0.125
  9
$DIMEXO
 40
0.125
  9
$DIMDLI
 40
0.375
  9
$DIMRND
 40
0.0
  9
$DIMDLE
 40
0.0
  9
$DIMEXE
 40
0.125
  9
$DIMTP
 40
0.0
  9
$DIMTM
 40
0.0
  9
$DIMTXT
 40
0.125
  9
$DIMCEN
 40
-0.125
  9
$DIMTSZ
 40
0.0
  9
$DIMTOL
 70
     0
  9
$DIMLIM
 70
     0
  9
$DIMTIH
 70
     1
  9
$DIMTOH
 70
     1
  9
$DIMSE1
 70
     0
  9
$DIMSE2
 70
     0
  9
$DIMTAD
 70
     0
  9
$DIMZIN
 70
     4
  9
$DIMBLK
  1

  9
$DIMASO
 70
     1
  9
$DIMSHO
 70
     1
  9
$DIMPOST
  1

  9
$DIMAPOST
  1

  9
$DIMALT
 70
     0
  9
$DIMALTD
 70
     2
  9
$DIMALTF
 40
25.4
  9
$DIMLFAC
 40
1.0
  9
$DIMTOFL
 70
     0
  9
$DIMTVP
 40
0.0
  9
$DIMTIX
 70
     1
  9
$DIMSOXD
 70
     0
  9
$DIMSAH
 70
     0
  9
$DIMBLK1
  1

  9
$DIMBLK2
  1

  9
$DIMSTYLE
  2
STANDARD
  9
$DIMCLRD
 70
     0
  9
$DIMCLRE
 70
     0
  9
$DIMCLRT
 70
     0
  9
$DIMTFAC
 40
1.0
  9
$DIMGAP
 40
0.09
  9
$DIMJUST
 70
     0
  9
$DIMSD1
 70
     0
  9
$DIMSD2
 70
     0
  9
$DIMTOLJ
 70
     1
  9
$DIMTZIN
 70
     4
  9
$DIMALTZ
 70
     0
  9
$DIMALTTZ
 70
     0
  9
$DIMFIT
 70
     3
  9
$DIMUPT
 70
     0
  9
$DIMUNIT
 70
     2
  9
$DIMDEC
 70
     3
  9
$DIMTDEC
 70
     3
  9
$DIMALTU
 70
     2
  9
$DIMALTTD
 70
     2
  9
$DIMTXSTY
  7
ROMANS
  9
$DIMAUNIT
 70
     0
  9
$LUNITS
 70
     2
  9
$LUPREC
 70
     3
  9
$SKETCHINC
 40
0.1
  9
$FILLETRAD
 40
0.03125
  9
$AUNITS
 70
     0
  9
$AUPREC
 70
     0
  9
$MENU
  1
ACAD
  9
$ELEVATION
 40
0.0
  9
$PELEVATION
 40
0.0
  9
$THICKNESS
 40
0.0
  9
$LIMCHECK
 70
     0
  9
$BLIPMODE
 70
     0
  9
$CHAMFERA
 40
0.0
  9
$CHAMFERB
 40
0.0
  9
$CHAMFERC
 40
0.0
  9
$CHAMFERD
 40
0.0
  9
$SKPOLY
 70
     0
  9
$TDCREATE
 40
2448994.683356944
  9
$TDUPDATE
 40
2452458.322409525
  9
$TDINDWG
 40
0.0004990625
  9
$TDUSRTIMER
 40
0.0004990625
  9
$USRTIMER
 70
     1
  9
$ANGBASE
 50
0.0
  9
$ANGDIR
 70
     0
  9
$PDMODE
 70
     0
  9
$PDSIZE
 40
0.0
  9
$PLINEWID
 40
0.0
  9
$COORDS
 70
     2
  9
$SPLFRAME
 70
     0
  9
$SPLINETYPE
 70
     6
  9
$SPLINESEGS
 70
     8
  9
$ATTDIA
 70
     0
  9
$ATTREQ
 70
     1
  9
$HANDLING
 70
 22529
  9
$HANDSEED
  5
7DE1B343D9E1FAA
  9
$SURFTAB1
 70
     6
  9
$SURFTAB2
 70
     6
  9
$SURFTYPE
 70
     6
  9
$SURFU
 70
     6
  9
$SURFV
 70
     6
  9
$UCSNAME
  2

  9
$UCSORG
 10
0.0
 20
0.0
 30
0.0
  9
$UCSXDIR
 10
1.0
 20
0.0
 30
0.0
  9
$UCSYDIR
 10
0.0
 20
1.0
 30
0.0
  9
$PUCSNAME
  2

  9
$PUCSORG
 10
0.0
 20
0.0
 30
0.0
  9
$PUCSXDIR
 10
1.0
 20
0.0
 30
0.0
  9
$PUCSYDIR
 10
0.0
 20
1.0
 30
0.0
  9
$USERI1
 70
     0
  9
$USERI2
 70
     0
  9
$USERI3
 70
     0
  9
$USERI4
 70
     0
  9
$USERI5
 70
     0
  9
$USERR1
 40
0.0
  9
$USERR2
 40
0.0
  9
$USERR3
 40
0.0
  9
$USERR4
 40
0.0
  9
$USERR5
 40
0.0
  9
$WORLDVIEW
 70
     1
  9
$SHADEDGE
 70
     3
  9
$SHADEDIF
 70
    70
  9
$TILEMODE
 70
     1
  9
$MAXACTVP
 70
    16
  9
$PINSBASE
 10
0.5148963809644677
 20
50.00000000000001
 30
0.6920731676310828
  9
$PLIMCHECK
 70
     0
  9
$PEXTMIN
 10
1.000000000000000E+20
 20
1.000000000000000E+20
 30
1.000000000000000E+20
  9
$PEXTMAX
 10
-1.000000000000000E+20
 20
-1.000000000000000E+20
 30
-1.000000000000000E+20
  9
$PLIMMIN
 10
0.0
 20
0.0
  9
$PLIMMAX
 10
12.0
 20
9.0
  9
$UNITMODE
 70
     0
  9
$VISRETAIN
 70
     0
  9
$PLINEGEN
 70
     1
  9
$PSLTSCALE
 70
     0
  9
$TREEDEPTH
 70
  3020
  9
$PICKSTYLE
 70
     1
  9
$CMLSTYLE
  2
STANDARD
  9
$CMLJUST
 70
     0
  9
$CMLSCALE
 40
1.0
  9
$PROXYGRAPHICS
 70
     1
  9
$MEASUREMENT
 70
     0
  0
ENDSEC
  0
SECTION
  2
CLASSES
  0
CLASS
  1
LWPOLYLINE
  2
AcDbPolyline
  3
AutoCAD 2000
 90
        0
280
     0
281
     1
  0
CLASS
  1
ACDBDICTIONARYWDFLT
  2
AcDbDictionaryWithDefault
  3
AutoCAD 2000
 90
        0
280
     0
281
     0
  0
CLASS
  1
ACDBPLACEHOLDER
  2
AcDbPlaceHolder
  3
AutoCAD 2000
 90
        0
280
     0
281
     0
  0
CLASS
  1
LAYOUT
  2
AcDbLayout
  3
AutoCAD 2000
 90
        0
280
     0
281
     0
  0
CLASS
  1
DICTIONARYVAR
  2
AcDbDictionaryVar
  3
AutoCAD 2000
 90
        0
280
     0
281
     0
  0
CLASS
  1
LONG_TRANSACTION
  2
AcDbLongTransaction
  3
AutoCAD 2000
 90
        0
280
     0
281
     0
  0
CLASS
  1
LWPOLYLINE
  2
AcDbPolyline
  3
AutoCAD 2000
 90
        0
280
     0
281
     1
  0
CLASS
  1
HATCH
  2
AcDbHatch
  3
AutoCAD 2000
 90
        0
280
     0
281
     1
  0
CLASS
  1
XRECORD
  2
AcDbXrecord
  3
AutoCAD 2000
 90
        0
280
     0
281
     0
  0
ENDSEC
  0
SECTION
  2
TABLES
  0
TABLE
  2
VPORT
  5
7DE1B343D9E1F51
330
0
100
AcDbSymbolTable
 70
     2
  0
VPORT
  5
7DE1B343D9E1F85
330
7DE1B343D9E1F51
100
AcDbSymbolTableRecord
100
AcDbViewportTableRecord
  2
*ACTIVE
 70
     0
 10
0.0
 20
0.0
 11
1.0
 21
1.0
 12
4.673072816147316
 22
1.276336692362484
 13
0.0
 23
0.0
 14
0.015625
 24
0.015625
 15
0.0
 25
0.0
 16
0.0
 26
0.0
 36
1.0
 17
0.0
 27
0.0
 37
0.0
 40
2.282020941462576
 41
4.320930232558139
 42
50.0
 43
0.0
 44
0.0
 50
0.0
 51
0.0
 71
     0
 72
  2000
 73
     1
 74
     0
 75
     0
 76
     0
 77
     0
 78
     0
  0
ENDTAB
  0
TABLE
  2
LTYPE
  5
7DE1B343D9E1F4E
330
0
100
AcDbSymbolTable
 70
     1
  0
LTYPE
  5
7DE1B343D9E1F5B
330
7DE1B343D9E1F4E
100
AcDbSymbolTableRecord
100
AcDbLinetypeTableRecord
  2
BYBLOCK
 70
     0
  3

 72
    65
 73
     0
 40
0.0
  0
LTYPE
  5
7DE1B343D9E1F5C
330
7DE1B343D9E1F4E
100
AcDbSymbolTableRecord
100
AcDbLinetypeTableRecord
  2
BYLAYER
 70
     0
  3

 72
    65
 73
     0
 40
0.0
  0
LTYPE
  5
7DE1B343D9E1F5D
330
7DE1B343D9E1F4E
100
AcDbSymbolTableRecord
100
AcDbLinetypeTableRecord
  2
CONTINUOUS
 70
     0
  3
Solid line
 72
    65
 73
     0
 40
0.0
  0
ENDTAB
  0
TABLE
  2
LAYER
  5
7DE1B343D9E1F4B
330
0
100
AcDbSymbolTable
 70
     2
  0
LAYER
  5
7DE1B343D9E1F58
330
7DE1B343D9E1F4B
100
AcDbSymbolTableRecord
100
AcDbLayerTableRecord
  2
0
 70
     0
 62
     7
  6
CONTINUOUS
  0
LAYER
  5
7DE1B343D9E1F68
330
7DE1B343D9E1F4B
100
AcDbSymbolTableRecord
100
AcDbLayerTableRecord
  2
TEXT
 70
     0
 62
     3
  6
CONTINUOUS
  0
ENDTAB
  0
TABLE
  2
STYLE
  5
7DE1B343D9E1F4C
330
0
100
AcDbSymbolTable
 70
     3
  0
STYLE
  5
7DE1B343D9E1F59
330
7DE1B343D9E1F4C
100
AcDbSymbolTableRecord
100
AcDbTextStyleTableRecord
  2
STANDARD
 70
     0
 40
0.0
 41
1.0
 50
0.0
 71
     0
 42
0.3125
  3
txt
  4

  0
STYLE
  5
7DE1B343D9E1F65
330
7DE1B343D9E1F4C
100
AcDbSymbolTableRecord
100
AcDbTextStyleTableRecord
  2
ITALICC
 70
     0
 40
0.0
 41
1.0
 50
0.0
 71
     0
 42
0.125
  3
italicc
  4

  0
STYLE
  5
7DE1B343D9E1F75
330
7DE1B343D9E1F4C
100
AcDbSymbolTableRecord
100
AcDbTextStyleTableRecord
  2
ROMANS
 70
     0
 40
0.0
 41
1.0
 50
0.0
 71
     0
 42
0.125
  3
romans.shx
  4

  0
ENDTAB
  0
TABLE
  2
VIEW
  5
7DE1B343D9E1F4F
330
0
100
AcDbSymbolTable
 70
     0
  0
ENDTAB
  0
TABLE
  2
UCS
  5
7DE1B343D9E1F50
330
0
100
AcDbSymbolTable
 70
     0
  0
ENDTAB
  0
TABLE
  2
APPID
  5
7DE1B343D9E1F52
330
0
100
AcDbSymbolTable
 70
     1
  0
APPID
  5
7DE1B343D9E1F5A
330
7DE1B343D9E1F52
100
AcDbSymbolTableRecord
100
AcDbRegAppTableRecord
  2
ACAD
 70
     0
  0
ENDTAB
  0
TABLE
  2
DIMSTYLE
  5
7DE1B343D9E1F53
330
0
100
AcDbSymbolTable
 70
     1
  0
DIMSTYLE
105
7DE1B343D9E1F6D
330
7DE1B343D9E1F53
100
AcDbSymbolTableRecord
100
AcDbDimStyleTableRecord
  2
STANDARD
 70
     0
  3

  4

  5

  6

  7

 40
1.0
 41
0.125
 42
0.125
 43
0.375
 44
0.125
 45
0.0
 46
0.0
 47
0.0
 48
0.0
140
0.125
141
-0.125
142
0.0
143
25.4
144
1.0
145
0.0
146
1.0
147
0.09
 71
     0
 72
     0
 73
     1
 74
     1
 75
     0
 76
     0
 77
     0
 78
     4
170
     0
171
     2
172
     0
173
     0
174
     1
175
     0
176
     0
177
     0
178
     0
270
     2
271
     3
272
     3
273
     2
274
     2
340
7DE1B343D9E1F75
275
     0
280
     0
281
     0
282
     0
283
     1
284
     4
285
     0
286
     0
287
     3
288
     0
  0
ENDTAB
  0
TABLE
  2
BLOCK_RECORD
  5
7DE1B343D9E1F4A
330
0
100
AcDbSymbolTable
 70
     0
  0
BLOCK_RECORD
  5
7DE1B343D9E1F61
102
{ACAD_XDICTIONARY
360
7DE1B343D9E1FA8
102
}
330
7DE1B343D9E1F4A
100
AcDbSymbolTableRecord
100
AcDbBlockTableRecord
  2
*MODEL_SPACE
  0
BLOCK_RECORD
  5
7DE1B343D9E1F5E
102
{ACAD_XDICTIONARY
360
7DE1B343D9E1FA6
102
}
330
7DE1B343D9E1F4A
100
AcDbSymbolTableRecord
100
AcDbBlockTableRecord
  2
*PAPER_SPACE
  0
ENDTAB
  0
ENDSEC
  0
SECTION
  2
BLOCKS
  0
BLOCK
  5
7DE1B343D9E1F6B
330
7DE1B343D9E1F61
100
AcDbEntity
  8
0
100
AcDbBlockBegin
  2
*MODEL_SPACE
 70
     0
 10
0.0
 20
0.0
 30
0.0
  3
*MODEL_SPACE
  1

  0
ENDBLK
  5
7DE1B343D9E1F6C
330
7DE1B343D9E1F61
100
AcDbEntity
  8
0
100
AcDbBlockEnd
  0
BLOCK
  5
7DE1B343D9E1F69
330
7DE1B343D9E1F5E
100
AcDbEntity
 67
     1
  8
0
100
AcDbBlockBegin
  2
*PAPER_SPACE
 70
     0
 10
0.0
 20
0.0
 30
0.0
  3
*PAPER_SPACE
  1

  0
ENDBLK
  5
7DE1B343D9E1F6A
330
7DE1B343D9E1F5E
100
AcDbEntity
 67
     1
  8
0
100
AcDbBlockEnd
  0
ENDSEC
  0
SECTION
  2
ENTITIES
  0
LWPOLYLINE
  5
7DE1B343D9E0AC3
330
7DE1B343D9E1F61
100
AcDbEntity
  8
0
100
AcDbPolyline
 90
       31
 70
     1
 43
0.0
 10
1.354420730912283
 20
1.312290228041078
 10
1.354420730912281
 20
1.834272591828195
 42
0.9699881008335669
 10
1.291978726932305
 20
1.836175586235205
 42
0.0304761904761892
 10
1.291978726932306
 20
1.176119597421187
 42
0.3811316847890175
 10
1.321505248588603
 20
1.146817004690161
 42
0.0266666666666665
 10
2.074836213235964
 20
1.14681700469016
 42
0.9736888257014818
 10
2.073170730912283
 20
1.209272591828195
 10
1.354420730912283
 20
1.209272591828195
 10
1.354420730912283
 20
1.248826064798219
 10
1.573170730912281
 20
1.287397591828195
 10
1.573170730912283
 20
1.554272591828194
 10
1.653795730912281
 20
1.554272591828194
 42
0.4142135623730925
 10
1.685045730912281
 20
1.585522591828194
 10
1.685045730912283
 20
1.764272591828195
 42
-1.0
 10
1.765045730912281
 20
1.764272591828195
 10
1.765045730912283
 20
1.585522591828195
 42
1.0
 10
1.827545730912283
 20
1.585522591828195
 10
1.827545730912283
 20
2.075522591828196
 10
1.817545730912283
 20
2.085522591828195
 10
1.827545730912283
 20
2.095522591828195
 10
1.827545730912283
 20
2.148022591828195
 42
1.0
 10
1.765045730912283
 20
2.148022591828195
 10
1.765045730912283
 20
1.896772591828194
 42
-0.4142135623730951
 10
1.733795730912283
 20
1.865522591828194
 10
1.667112308718778
 20
1.865522591828194
 42
0.3989595459737209
 10
1.635905135757698
 20
1.835908090460786
 10
1.625972761163523
 20
1.646387093195604
 42
-0.3989595459737203
 10
1.594765588202442
 20
1.616772591828195
 10
1.510670730912283
 20
1.616772591828195
 42
0.4142135623730951
 10
1.479420730912283
 20
1.585522591828195
 10
1.479420730912283
 20
1.334331100629636
  0
TEXT
  5
7DE1B343D9E1E0C
330
7DE1B343D9E1F61
100
AcDbEntity
  8
TEXT
100
AcDbText
 10
0.9451945404361016
 20
0.8321001879008115
 30
0.0
 40
0.125
  1
PART #120050
  7
ITALICC
 72
     1
 11
1.698170730912291
 21
0.8321001879008115
 31
0.0
100
AcDbText
  0
TEXT
  5
7DE1B343D9E1E0D
330
7DE1B343D9E1F61
100
AcDbEntity
  8
TEXT
100
AcDbText
 10
2.111475889162612
 20
0.3851775452284363
 30
0.0
 40
0.0522247191011236
  1
Phone  1-800-328-2495
 41
1.272321428571429
 72
     5
 11
3.440408473432276
 21
0.3851775452284363
 31
0.0
100
AcDbText
  0
TEXT
  5
7DE1B343D9E1E0E
330
7DE1B343D9E1F61
100
AcDbEntity
  8
TEXT
100
AcDbText
 10
2.111475889162612
 20
0.6649528261273128
 30
0.0
 40
0.0522247191011236
  1
Stylmark  Incorporated
 41
1.221428571428573
 72
     5
 11
3.440408473432276
 21
0.6649528261273128
 31
0.0
100
AcDbText
  0
TEXT
  5
7DE1B343D9E1E0F
330
7DE1B343D9E1F61
100
AcDbEntity
  8
TEXT
100
AcDbText
 10
2.111475889162612
 20
0.5716943991610206
 30
0.0
 40
0.0522247191011236
  1
6536 Main St. N.E. * P.O. Box 32008
 41
0.8388932496075366
 72
     5
 11
3.440408473432276
 21
0.5716943991610206
 31
0.0
100
AcDbText
  0
TEXT
  5
7DE1B343D9E1E10
330
7DE1B343D9E1F61
100
AcDbEntity
  8
TEXT
100
AcDbText
 10
2.111475889162612
 20
0.4784359721947285
 30
0.0
 40
0.0522247191011236
  1
Minneapolis, MN 55432-0008
 41
1.11444212721585
 72
     5
 11
3.440408473432276
 21
0.4784359721947285
 31
0.0
100
AcDbText
  0
LWPOLYLINE
  5
7DE1B343D9E1E11
330
7DE1B343D9E1F61
100
AcDbEntity
  8
TEXT
100
AcDbPolyline
 90
        3
 70
     0
 43
0.0006660908203125
 10
-0.0444778029046951
 20
0.4988223078658712
 10
-0.0444778029046951
 20
0.3855868684127435
 10
0.0687576365484273
 20
0.3855868684127435
  0
LWPOLYLINE
  5
7DE1B343D9E1E16
330
7DE1B343D9E1F61
100
AcDbEntity
  8
TEXT
100
AcDbPolyline
 90
        3
 70
     0
 43
0.0006660908203125
 10
-0.0178341700921976
 20
0.4988223078658712
 10
-0.0178341700921976
 20
0.4122305012252446
 10
0.0687576365484273
 20
0.4122305012252446
  0
LWPOLYLINE
  5
7DE1B343D9E1E1B
330
7DE1B343D9E1F61
100
AcDbEntity
  8
TEXT
100
AcDbPolyline
 90
        2
 70
     0
 43
0.0001332181640625
 10
0.0287921873296793
 20
0.5088136701705564
 10
-0.0444778029046951
 20
0.4988223078658712
  0
LWPOLYLINE
  5
7DE1B343D9E1E1F
330
7DE1B343D9E1F61
100
AcDbEntity
  8
TEXT
100
AcDbPolyline
 90
        2
 70
     0
 43
0.0001332181640625
 10
-0.0178341700921976
 20
0.4988223078658712
 10
0.0421140037359298
 20
0.5088136701705564
  0
LWPOLYLINE
  5
7DE1B343D9E1E23
330
7DE1B343D9E1F61
100
AcDbEntity
  8
TEXT
100
AcDbPolyline
 90
        2
 70
     0
 43
0.0001332181640625
 10
-0.0178341700921976
 20
0.4122305012252446
 10
0.0421140037359298
 20
0.4721786750533701
  0
LWPOLYLINE
  5
7DE1B343D9E1E27
330
7DE1B343D9E1F61
100
AcDbEntity
  8
TEXT
100
AcDbPolyline
 90
        3
 70
     0
 43
0.0006660908203125
 10
0.0687576365484273
 20
0.6520231965377468
 10
-0.0444778029046951
 20
0.6520231965377468
 10
-0.0444778029046951
 20
0.5387877570846192
  0
LWPOLYLINE
  5
7DE1B343D9E1E2C
330
7DE1B343D9E1F61
100
AcDbEntity
  8
TEXT
100
AcDbPolyline
 90
        3
 70
     0
 43
0.0006660908203125
 10
0.0687576365484273
 20
0.6253795637252458
 10
-0.0178341700921976
 20
0.6253795637252458
 10
-0.0178341700921976
 20
0.5387877570846192
  0
LWPOLYLINE
  5
7DE1B343D9E1E31
330
7DE1B343D9E1F61
100
AcDbEntity
  8
TEXT
100
AcDbPolyline
 90
        2
 70
     0
 43
0.0001332181640625
 10
-0.0178341700921976
 20
0.6253795637252458
 10
0.042114003735928
 20
0.5654313898971202
  0
LWPOLYLINE
  5
7DE1B343D9E1E35
330
7DE1B343D9E1F61
100
AcDbEntity
  8
TEXT
100
AcDbPolyline
 90
        2
 70
     0
 43
0.0001332181640625
 10
-0.0178341700921976
 20
0.5387877570846192
 10
0.042114003735928
 20
0.5287963947799304
  0
LWPOLYLINE
  5
7DE1B343D9E1E39
330
7DE1B343D9E1F61
100
AcDbEntity
  8
TEXT
100
AcDbPolyline
 90
        2
 70
     0
 43
0.0001332181640625
 10
-0.0444778029046951
 20
0.5387877570846192
 10
0.0287921873296793
 20
0.5287963947799304
  0
LWPOLYLINE
  5
7DE1B343D9E1E3D
330
7DE1B343D9E1F61
100
AcDbEntity
  8
TEXT
100
AcDbPolyline
 90
        2
 70
     0
 43
0.0006660908203125
 10
-0.0178341700921976
 20
0.4988223078658712
 10
-0.0444778029046951
 20
0.4988223078658712
  0
LWPOLYLINE
  5
7DE1B343D9E1E41
330
7DE1B343D9E1F61
100
AcDbEntity
  8
TEXT
100
AcDbPolyline
 90
        2
 70
     0
 43
0.0006660908203125
 10
-0.0178341700921976
 20
0.5387877570846192
 10
-0.0444778029046951
 20
0.5387877570846192
  0
LINE
  5
7DE1B343D9E1E45
330
7DE1B343D9E1F61
100
AcDbEntity
  8
TEXT
100
AcDbLine
 10
1.470712626221802
 20
0.5877465018809778
 30
0.0
 11
1.363506352834513
 21
0.5877465018809778
 31
0.0
  0
LINE
  5
7DE1B343D9E1E46
330
7DE1B343D9E1F61
100
AcDbEntity
  8
TEXT
100
AcDbLine
 10
1.49974352456628
 20
0.6520231965377432
 30
0.0
 11
1.364911615349221
 21
0.6520231965377432
 31
0.0
  0
ARC
  5
7DE1B343D9E1E47
330
7DE1B343D9E1F61
100
AcDbEntity
  8
TEXT
100
AcDbCircle
 10
1.424225711742538
 20
0.4827859472747269
 30
0.0
 40
0.0676855811441166
100
AcDbArc
 50
90.0
 51
153.7768192527749
  0
LWPOLYLINE
  5
7DE1B343D9E1E48
330
7DE1B343D9E1F61
100
AcDbEntity
  8
TEXT
100
AcDbPolyline
 90
        2
 70
     0
 43
0.0
 10
1.362473857379703
 20
0.4290411084996704
 42
0.2901071551932823
 10
1.405549790247338
 20
0.3855501635492322
 42
5.328517124445801
  0
ARC
  5
7DE1B343D9E1E4C
330
7DE1B343D9E1F61
100
AcDbEntity
  8
TEXT
100
AcDbCircle
 10
0.7190943340710529
 20
0.4453425548872821
 30
0.0
 40
0.0601160179737537
100
AcDbArc
 50
180.0000000000003
 51
264.0521544866073
  0
LINE
  5
7DE1B343D9E1E4D
330
7DE1B343D9E1F61
100
AcDbEntity
  8
TEXT
100
AcDbLine
 10
0.7226096896966008
 20
0.6864111141318814
 30
0.0
 11
0.6625670848525937
 21
0.6864111141318814
 31
0.0
  0
ARC
  5
7DE1B343D9E1E4E
330
7DE1B343D9E1F61
100
AcDbEntity
  8
TEXT
100
AcDbCircle
 10
0.4868353319540823
 20
0.5699357370912415
 30
0.0
 40
0.0820874594465043
100
AcDbArc
 50
90.0
 51
270.0
  0
LWPOLYLINE
  5
7DE1B343D9E1E4F
330
7DE1B343D9E1F61
100
AcDbEntity
  8
TEXT
100
AcDbPolyline
 90
        2
 70
     0
 43
0.0001332181640625
 10
0.0787489988531178
 20
0.5787532063033672
 10
0.0687576365484273
 20
0.6520231965377468
  0
LWPOLYLINE
  5
7DE1B343D9E1E53
330
7DE1B343D9E1F61
100
AcDbEntity
  8
TEXT
100
AcDbPolyline
 90
        2
 70
     0
 43
0.0001332181640625
 10
0.0687576365484273
 20
0.6253795637252458
 10
0.0787489988531178
 20
0.5654313898971202
  0
LWPOLYLINE
  5
7DE1B343D9E1E57
330
7DE1B343D9E1F61
100
AcDbEntity
  8
TEXT
100
AcDbPolyline
 90
        3
 70
     0
 43
0.0006660908203125
 10
0.2219585252203047
 20
0.5387877570846192
 10
0.2219585252203047
 20
0.6520231965377468
 10
0.1087230857671788
 20
0.6520231965377468
  0
LWPOLYLINE
  5
7DE1B343D9E1E5C
330
7DE1B343D9E1F61
100
AcDbEntity
  8
TEXT
100
AcDbPolyline
 90
        3
 70
     0
 43
0.0006660908203125
 10
0.1953148924078036
 20
0.5387877570846192
 10
0.1953148924078036
 20
0.6253795637252458
 10
0.1087230857671788
 20
0.6253795637252458
  0
LWPOLYLINE
  5
7DE1B343D9E1E61
330
7DE1B343D9E1F61
100
AcDbEntity
  8
TEXT
100
AcDbPolyline
 90
        2
 70
     0
 43
0.0001332181640625
 10
0.1953148924078036
 20
0.6253795637252458
 10
0.1353667185796799
 20
0.5654313898971202
  0
LWPOLYLINE
  5
7DE1B343D9E1E65
330
7DE1B343D9E1F61
100
AcDbEntity
  8
TEXT
100
AcDbPolyline
 90
        2
 70
     0
 43
0.0001332181640625
 10
0.1087230857671788
 20
0.6253795637252458
 10
0.0987317234624901
 20
0.5654313898971202
  0
LWPOLYLINE
  5
7DE1B343D9E1E69
330
7DE1B343D9E1F61
100
AcDbEntity
  8
TEXT
100
AcDbPolyline
 90
        2
 70
     0
 43
0.0001332181640625
 10
0.1087230857671788
 20
0.6520231965377468
 10
0.0987317234624901
 20
0.5787532063033672
  0
LWPOLYLINE
  5
7DE1B343D9E1E6D
330
7DE1B343D9E1F61
100
AcDbEntity
  8
TEXT
100
AcDbPolyline
 90
        2
 70
     0
 43
0.0001332181640625
 10
0.1486885349859286
 20
0.5287963947799304
 10
0.2219585252203047
 20
0.5387877570846192
  0
LWPOLYLINE
  5
7DE1B343D9E1E71
330
7DE1B343D9E1F61
100
AcDbEntity
  8
TEXT
100
AcDbPolyline
 90
        2
 70
     0
 43
0.0001332181640625
 10
0.1953148924078036
 20
0.5387877570846192
 10
0.1353667185796799
 20
0.5287963947799304
  0
LWPOLYLINE
  5
7DE1B343D9E1E75
330
7DE1B343D9E1F61
100
AcDbEntity
  8
TEXT
100
AcDbPolyline
 90
        2
 70
     0
 43
0.0001332181640625
 10
0.2219585252203047
 20
0.4988223078658712
 10
0.1486885349859286
 20
0.5088136701705564
  0
LWPOLYLINE
  5
7DE1B343D9E1E79
330
7DE1B343D9E1F61
100
AcDbEntity
  8
TEXT
100
AcDbPolyline
 90
        2
 70
     0
 43
0.0001332181640625
 10
0.1953148924078036
 20
0.4988223078658712
 10
0.1353667185796799
 20
0.5088136701705564
  0
LWPOLYLINE
  5
7DE1B343D9E1E7D
330
7DE1B343D9E1F61
100
AcDbEntity
  8
TEXT
100
AcDbPolyline
 90
        2
 70
     0
 43
0.0001332181640625
 10
0.1953148924078036
 20
0.4122305012252446
 10
0.1353667185796799
 20
0.4721786750533701
  0
LWPOLYLINE
  5
7DE1B343D9E1E81
330
7DE1B343D9E1F61
100
AcDbEntity
  8
TEXT
100
AcDbPolyline
 90
        3
 70
     0
 43
0.0006660908203125
 10
0.1087230857671788
 20
0.4122305012252446
 10
0.1953148924078036
 20
0.4122305012252446
 10
0.1953148924078036
 20
0.4988223078658712
  0
LWPOLYLINE
  5
7DE1B343D9E1E86
330
7DE1B343D9E1F61
100
AcDbEntity
  8
TEXT
100
AcDbPolyline
 90
        3
 70
     0
 43
0.0006660908203125
 10
0.1087230857671788
 20
0.3855868684127435
 10
0.2219585252203047
 20
0.3855868684127435
 10
0.2219585252203047
 20
0.4988223078658712
  0
LWPOLYLINE
  5
7DE1B343D9E1E8B
330
7DE1B343D9E1F61
100
AcDbEntity
  8
TEXT
100
AcDbPolyline
 90
        5
 70
     0
 43
0.0001332181640625
 10
0.0787489988531178
 20
0.4588568586471196
 10
0.0787489988531178
 20
0.4721786750533701
 10
0.0421140037359298
 20
0.4721786750533701
 10
0.0421140037359298
 20
0.5088136701705564
 10
0.0287921873296793
 20
0.5088136701705564
  0
LWPOLYLINE
  5
7DE1B343D9E1E92
330
7DE1B343D9E1F61
100
AcDbEntity
  8
TEXT
100
AcDbPolyline
 90
        2
 70
     0
 43
0.0006660908203125
 10
0.0687576365484273
 20
0.4122305012252446
 10
0.0687576365484273
 20
0.3855868684127435
  0
LWPOLYLINE
  5
7DE1B343D9E1E96
330
7DE1B343D9E1F61
100
AcDbEntity
  8
TEXT
100
AcDbPolyline
 90
        2
 70
     0
 43
0.0001332181640625
 10
0.0687576365484273
 20
0.4122305012252446
 10
0.0787489988531178
 20
0.4721786750533701
  0
LWPOLYLINE
  5
7DE1B343D9E1E9A
330
7DE1B343D9E1F61
100
AcDbEntity
  8
TEXT
100
AcDbPolyline
 90
        2
 70
     0
 43
0.0001332181640625
 10
0.0687576365484273
 20
0.3855868684127435
 10
0.0787489988531178
 20
0.4588568586471196
  0
LWPOLYLINE
  5
7DE1B343D9E1E9E
330
7DE1B343D9E1F61
100
AcDbEntity
  8
TEXT
100
AcDbPolyline
 90
        5
 70
     0
 43
0.0001332181640625
 10
0.0287921873296793
 20
0.5287963947799304
 10
0.042114003735928
 20
0.5287963947799304
 10
0.042114003735928
 20
0.5654313898971202
 10
0.0787489988531178
 20
0.5654313898971202
 10
0.0787489988531178
 20
0.5787532063033672
  0
LWPOLYLINE
  5
7DE1B343D9E1EA5
330
7DE1B343D9E1F61
100
AcDbEntity
  8
TEXT
100
AcDbPolyline
 90
        5
 70
     0
 43
0.0001332181640625
 10
0.0987317234624901
 20
0.5787532063033672
 10
0.0987317234624901
 20
0.5654313898971202
 10
0.1353667185796799
 20
0.5654313898971202
 10
0.1353667185796799
 20
0.5287963947799304
 10
0.1486885349859286
 20
0.5287963947799304
  0
LWPOLYLINE
  5
7DE1B343D9E1EAC
330
7DE1B343D9E1F61
100
AcDbEntity
  8
TEXT
100
AcDbPolyline
 90
        2
 70
     0
 43
0.0001332181640625
 10
0.1087230857671788
 20
0.4122305012252446
 10
0.0987317234624901
 20
0.4721786750533701
  0
LWPOLYLINE
  5
7DE1B343D9E1EB0
330
7DE1B343D9E1F61
100
AcDbEntity
  8
TEXT
100
AcDbPolyline
 90
        2
 70
     0
 43
0.0001332181640625
 10
0.0987317234624901
 20
0.4588568586471196
 10
0.1087230857671788
 20
0.3855868684127435
  0
LWPOLYLINE
  5
7DE1B343D9E1EB4
330
7DE1B343D9E1F61
100
AcDbEntity
  8
TEXT
100
AcDbPolyline
 90
        2
 70
     0
 43
0.0006660908203125
 10
0.1087230857671788
 20
0.4122305012252446
 10
0.1087230857671788
 20
0.3855868684127435
  0
LWPOLYLINE
  5
7DE1B343D9E1EB8
330
7DE1B343D9E1F61
100
AcDbEntity
  8
TEXT
100
AcDbPolyline
 90
        5
 70
     0
 43
0.0001332181640625
 10
0.1486885349859286
 20
0.5088136701705564
 10
0.1353667185796799
 20
0.5088136701705564
 10
0.1353667185796799
 20
0.4721786750533701
 10
0.0987317234624901
 20
0.4721786750533701
 10
0.0987317234624901
 20
0.4588568586471196
  0
LWPOLYLINE
  5
7DE1B343D9E1EBF
330
7DE1B343D9E1F61
100
AcDbEntity
  8
TEXT
100
AcDbPolyline
 90
        2
 70
     0
 43
0.0006660908203125
 10
0.1953148924078036
 20
0.5387877570846192
 10
0.2219585252203047
 20
0.5387877570846192
  0
LWPOLYLINE
  5
7DE1B343D9E1EC3
330
7DE1B343D9E1F61
100
AcDbEntity
  8
TEXT
100
AcDbPolyline
 90
        2
 70
     0
 43
0.0006660908203125
 10
0.1953148924078036
 20
0.4988223078658712
 10
0.2219585252203047
 20
0.4988223078658712
  0
LINE
  5
7DE1B343D9E1EC7
330
7DE1B343D9E1F61
100
AcDbEntity
  8
TEXT
100
AcDbLine
 10
0.4920726620683296
 20
0.5877465018809778
 30
0.0
 11
0.6589783160973008
 21
0.5877465018809778
 31
0.0
  0
LINE
  5
7DE1B343D9E1EC8
330
7DE1B343D9E1F61
100
AcDbEntity
  8
TEXT
100
AcDbLine
 10
0.5576727983126306
 20
0.5519417802703499
 30
0.0
 11
0.4920726620683296
 21
0.5519417802703499
 31
0.0
  0
LINE
  5
7DE1B343D9E1EC9
330
7DE1B343D9E1F61
100
AcDbEntity
  8
TEXT
100
AcDbLine
 10
0.4047478725075779
 20
0.3855501635492322
 30
0.0
 11
0.5576727983126306
 21
0.3855501635492322
 31
0.0
  0
LINE
  5
7DE1B343D9E1ECA
330
7DE1B343D9E1F61
100
AcDbEntity
  8
TEXT
100
AcDbLine
 10
0.5626131722189103
 20
0.4539071698826716
 30
0.0
 11
0.4047478725075762
 21
0.4539071698826716
 31
0.0
  0
LINE
  5
7DE1B343D9E1ECB
330
7DE1B343D9E1F61
100
AcDbEntity
  8
TEXT
100
AcDbLine
 10
0.4868353319540815
 20
0.4878482776447362
 30
0.0
 11
0.5626131722189103
 21
0.4878482776447362
 31
0.0
  0
ARC
  5
7DE1B343D9E1ECC
330
7DE1B343D9E1F61
100
AcDbEntity
  8
TEXT
100
AcDbCircle
 10
0.4920726620683304
 20
0.5698441410756656
 30
0.0
 40
0.017902360805315
100
AcDbArc
 50
90.0
 51
270.0
  0
LINE
  5
7DE1B343D9E1ECD
330
7DE1B343D9E1F61
100
AcDbEntity
  8
TEXT
100
AcDbLine
 10
0.4047478725075762
 20
0.4539071698826716
 30
0.0
 11
0.4047478725075779
 21
0.3855501635492322
 31
0.0
  0
LINE
  5
7DE1B343D9E1ECE
330
7DE1B343D9E1F61
100
AcDbEntity
  8
TEXT
100
AcDbLine
 10
0.6589783160973008
 20
0.5877465018809778
 30
0.0
 11
0.6589783160973008
 21
0.4453425548872821
 31
0.0
  0
ARC
  5
7DE1B343D9E1ECF
330
7DE1B343D9E1F61
100
AcDbEntity
  8
TEXT
100
AcDbCircle
 10
0.5576727983126315
 20
0.4687459719097893
 30
0.0
 40
0.0831958083605586
100
AcDbArc
 50
270.0
 51
90.0
  0
ARC
  5
7DE1B343D9E1ED0
330
7DE1B343D9E1F61
100
AcDbEntity
  8
TEXT
100
AcDbCircle
 10
0.5626131722189112
 20
0.4708777237637057
 30
0.0
 40
0.0169705538810321
100
AcDbArc
 50
270.0
 51
90.0
  0
LWPOLYLINE
  5
7DE1B343D9E1ED1
330
7DE1B343D9E1F61
100
AcDbEntity
  8
TEXT
100
AcDbPolyline
 90
        2
 70
     0
 43
0.0006660908203125
 10
0.0687576365484273
 20
0.6253795637252458
 10
0.0687576365484273
 20
0.6520231965377468
  0
LWPOLYLINE
  5
7DE1B343D9E1ED5
330
7DE1B343D9E1F61
100
AcDbEntity
  8
TEXT
100
AcDbPolyline
 90
        2
 70
     0
 43
0.0006660908203125
 10
0.1087230857671788
 20
0.6253795637252458
 10
0.1087230857671788
 20
0.6520231965377468
  0
LINE
  5
7DE1B343D9E1ED9
330
7DE1B343D9E1F61
100
AcDbEntity
  8
TEXT
100
AcDbLine
 10
0.6625670848525937
 20
0.6520231965377432
 30
0.0
 11
0.4868353319540815
 21
0.6520231965377432
 31
0.0
  0
LINE
  5
7DE1B343D9E1EDA
330
7DE1B343D9E1F61
100
AcDbEntity
  8
TEXT
100
AcDbLine
 10
0.6625670848525937
 20
0.6864111141318814
 30
0.0
 11
0.6625670848525937
 21
0.6520231965377432
 31
0.0
  0
LINE
  5
7DE1B343D9E1EDB
330
7DE1B343D9E1F61
100
AcDbEntity
  8
TEXT
100
AcDbLine
 10
0.8530389768724459
 20
0.5511512004246227
 30
0.0
 11
0.7944086558405081
 21
0.6520231965377432
 31
0.0
  0
LINE
  5
7DE1B343D9E1EDC
330
7DE1B343D9E1F61
100
AcDbEntity
  8
TEXT
100
AcDbLine
 10
0.9117875396783114
 20
0.6520231965377432
 30
0.0
 11
0.8530389768724459
 21
0.5511512004246227
 31
0.0
  0
LINE
  5
7DE1B343D9E1EDD
330
7DE1B343D9E1F61
100
AcDbEntity
  8
TEXT
100
AcDbLine
 10
1.008718165038052
 20
0.4679380016522315
 30
0.0
 11
1.008718165038052
 21
0.7200346742765538
 31
0.0
  0
LINE
  5
7DE1B343D9E1EDE
330
7DE1B343D9E1F61
100
AcDbEntity
  8
TEXT
100
AcDbLine
 10
1.041030019175712
 20
0.6520231965377432
 30
0.0
 11
1.041030019175712
 21
0.451158989805335
 31
0.0
  0
LINE
  5
7DE1B343D9E1EDF
330
7DE1B343D9E1F61
100
AcDbEntity
  8
TEXT
100
AcDbLine
 10
1.041030019175712
 20
0.451158989805335
 30
0.0
 11
1.024036382291111
 21
0.451158989805335
 31
0.0
  0
LINE
  5
7DE1B343D9E1EE0
330
7DE1B343D9E1F61
100
AcDbEntity
  8
TEXT
100
AcDbLine
 10
1.009857738534247
 20
0.3855501635492322
 30
0.0
 11
1.107861072233682
 21
0.3855501635492322
 31
0.0
  0
LINE
  5
7DE1B343D9E1EE1
330
7DE1B343D9E1F61
100
AcDbEntity
  8
TEXT
100
AcDbLine
 10
0.8434387398754916
 20
0.4055086696542452
 30
0.0
 11
0.9407384459689362
 21
0.5698588805895133
 31
0.0
  0
ARC
  5
7DE1B343D9E1EE2
330
7DE1B343D9E1F61
100
AcDbEntity
  8
TEXT
100
AcDbCircle
 10
0.8093951799632776
 20
0.425097885822928
 30
0.0
 40
0.0392772371940762
100
AcDbArc
 50
270.1604552698595
 51
330.0831797321295
  0
LINE
  5
7DE1B343D9E1EE3
330
7DE1B343D9E1F61
100
AcDbEntity
  8
TEXT
100
AcDbLine
 10
0.7128649235774065
 20
0.3855501635492322
 30
0.0
 11
0.8095051746524008
 21
0.3858208026475145
 31
0.0
  0
LWPOLYLINE
  5
7DE1B343D9E1EE4
330
7DE1B343D9E1F61
100
AcDbEntity
  8
TEXT
100
AcDbPolyline
 90
        6
 70
     1
 43
0.0
 10
0.7553887271525561
 20
0.5877465018809778
 10
0.725072132932348
 20
0.5877465018809778
 10
0.725072132932348
 20
0.4646355038260835
 42
0.407328721240804
 10
0.7366157840938243
 20
0.4528165891496974
 10
0.7972374831385551
 20
0.4528165891496974
 10
0.814702823545873
 20
0.4856288181931765
  0
LINE
  5
7DE1B343D9E1EEC
330
7DE1B343D9E1F61
100
AcDbEntity
  8
TEXT
100
AcDbLine
 10
0.9407384459689362
 20
0.5698588805895133
 30
0.0
 11
0.9407384459689362
 21
0.437101505764157
 31
0.0
  0
ARC
  5
7DE1B343D9E1EED
330
7DE1B343D9E1F61
100
AcDbEntity
  8
TEXT
100
AcDbCircle
 10
1.024036382291109
 20
0.4665407960487605
 30
0.0
 40
0.0153818062434269
100
AcDbArc
 50
174.7883570302258
 51
270.0
  0
LWPOLYLINE
  5
7DE1B343D9E1EEE
330
7DE1B343D9E1F61
100
AcDbEntity
  8
TEXT
100
AcDbPolyline
 90
        2
 70
     0
 43
0.0
 10
0.9407384459689344
 20
0.4371015057641606
 42
0.3318488747599744
 10
1.009857738534247
 20
0.3855501635492322
 42
-6.868794160588311
  0
LINE
  5
7DE1B343D9E1EF2
330
7DE1B343D9E1F61
100
AcDbEntity
  8
TEXT
100
AcDbLine
 10
1.165250141222943
 20
0.3855501635492322
 30
0.0
 11
1.232308188004783
 21
0.3855501635492322
 31
0.0
  0
LINE
  5
7DE1B343D9E1EF3
330
7DE1B343D9E1F61
100
AcDbEntity
  8
TEXT
100
AcDbLine
 10
1.165250141222943
 20
0.5801927127148679
 30
0.0
 11
1.165250141222943
 21
0.3855501635492322
 31
0.0
  0
LINE
  5
7DE1B343D9E1EF4
330
7DE1B343D9E1F61
100
AcDbEntity
  8
TEXT
100
AcDbLine
 10
1.107861072233682
 20
0.5877465018809778
 30
0.0
 11
1.157696352056829
 21
0.5877465018809778
 31
0.0
  0
LINE
  5
7DE1B343D9E1EF5
330
7DE1B343D9E1F61
100
AcDbEntity
  8
TEXT
100
AcDbLine
 10
1.107861072233682
 20
0.3855501635492322
 30
0.0
 11
1.107861072233682
 21
0.5877465018809778
 31
0.0
  0
LWPOLYLINE
  5
7DE1B343D9E1EF6
330
7DE1B343D9E1F61
100
AcDbEntity
  8
TEXT
100
AcDbPolyline
 90
        2
 70
     0
 43
0.0
 10
1.157696352056827
 20
0.5877465018809778
 42
-0.4142135623731017
 10
1.165250141222941
 20
0.5801927127148679
 42
-0.9999999999999998
  0
LINE
  5
7DE1B343D9E1EFA
330
7DE1B343D9E1F61
100
AcDbEntity
  8
TEXT
100
AcDbLine
 10
1.363506352834513
 20
0.5877465018809778
 30
0.0
 11
1.363506352834513
 21
0.5126940958067712
 31
0.0
  0
LINE
  5
7DE1B343D9E1EFB
330
7DE1B343D9E1F61
100
AcDbEntity
  8
TEXT
100
AcDbLine
 10
1.232308188004783
 20
0.5877465018809778
 30
0.0
 11
1.286441784925733
 21
0.5877465018809778
 31
0.0
  0
LINE
  5
7DE1B343D9E1EFC
330
7DE1B343D9E1F61
100
AcDbEntity
  8
TEXT
100
AcDbLine
 10
1.232308188004783
 20
0.3855501635492322
 30
0.0
 11
1.232308188004783
 21
0.5877465018809778
 31
0.0
  0
LWPOLYLINE
  5
7DE1B343D9E1EFD
330
7DE1B343D9E1F61
100
AcDbEntity
  8
TEXT
100
AcDbPolyline
 90
        2
 70
     0
 43
0.0
 10
1.286441784925731
 20
0.5877465018809778
 42
-0.4142135623731017
 10
1.293995574091845
 20
0.5801927127148679
 42
-0.9999999999999998
  0
LWPOLYLINE
  5
7DE1B343D9E1F01
330
7DE1B343D9E1F61
100
AcDbEntity
  8
TEXT
100
AcDbPolyline
 90
        4
 70
     0
 43
0.0
 10
1.293995574091845
 20
0.5801927127148679
 10
1.293995574091845
 20
0.3855501635492322
 10
1.362473857379703
 20
0.3855501635492322
 10
1.362473857379703
 20
0.4290411084996704
 42
-1.714843617202739
  0
LINE
  5
7DE1B343D9E1F07
330
7DE1B343D9E1F61
100
AcDbEntity
  8
TEXT
100
AcDbLine
 10
0.7226096896966008
 20
0.6520231965377432
 30
0.0
 11
0.7226096896966008
 21
0.6864111141318814
 31
0.0
  0
LINE
  5
7DE1B343D9E1F08
330
7DE1B343D9E1F61
100
AcDbEntity
  8
TEXT
100
AcDbLine
 10
0.7944086558405081
 20
0.6520231965377432
 30
0.0
 11
0.7226096896966008
 21
0.6520231965377432
 31
0.0
  0
LINE
  5
7DE1B343D9E1F09
330
7DE1B343D9E1F61
100
AcDbEntity
  8
TEXT
100
AcDbLine
 10
0.9419094524716877
 20
0.6520231965377432
 30
0.0
 11
0.9117875396783114
 21
0.6520231965377432
 31
0.0
  0
LINE
  5
7DE1B343D9E1F0A
330
7DE1B343D9E1F61
100
AcDbEntity
  8
TEXT
100
AcDbLine
 10
0.9419094524716877
 20
0.7200346742765538
 30
0.0
 11
0.9419094524716877
 21
0.6520231965377432
 31
0.0
  0
LINE
  5
7DE1B343D9E1F0B
330
7DE1B343D9E1F61
100
AcDbEntity
  8
TEXT
100
AcDbLine
 10
1.008718165038052
 20
0.7200346742765538
 30
0.0
 11
0.9419094524716877
 21
0.7200346742765538
 31
0.0
  0
LWPOLYLINE
  5
7DE1B343D9E1F0C
330
7DE1B343D9E1F61
100
AcDbEntity
  8
TEXT
100
AcDbPolyline
 90
        3
 70
     0
 43
0.0
 10
1.329129924636055
 20
0.6520231965377468
 10
1.21082976582001
 20
0.6520231965377468
 10
1.21082976582001
 20
0.6248556997768509
 42
-1.960274751411753
  0
LINE
  5
7DE1B343D9E1F11
330
7DE1B343D9E1F61
100
AcDbEntity
  8
TEXT
100
AcDbLine
 10
1.175048075106849
 20
0.6520231965377432
 30
0.0
 11
1.041030019175712
 21
0.6520231965377432
 31
0.0
  0
LWPOLYLINE
  5
7DE1B343D9E1F12
330
7DE1B343D9E1F61
100
AcDbEntity
  8
TEXT
100
AcDbPolyline
 90
        2
 70
     0
 43
0.0
 10
1.175048075106849
 20
0.6520231965377468
 42
-0.3328679258950098
 10
1.21082976582001
 20
0.6248556997768509
 42
6.772930709997214
  0
LINE
  5
7DE1B343D9E1F16
330
7DE1B343D9E1F61
100
AcDbEntity
  8
TEXT
100
AcDbLine
 10
1.364911615349221
 20
0.6520231965377432
 30
0.0
 11
1.364911615349221
 21
0.6237006507680994
 31
0.0
  0
LWPOLYLINE
  5
7DE1B343D9E1F17
330
7DE1B343D9E1F61
100
AcDbEntity
  8
TEXT
100
AcDbPolyline
 90
        2
 70
     0
 43
0.0
 10
1.329129924636055
 20
0.6520231965377468
 42
-0.3277054968067132
 10
1.36491161534922
 20
0.6237006507681029
 42
6.667889725900311
  0
LINE
  5
7DE1B343D9E1F1B
330
7DE1B343D9E1F61
100
AcDbEntity
  8
TEXT
100
AcDbLine
 10
1.578703463441321
 20
0.5468112179843159
 30
0.0
 11
1.53495269225942
 21
0.6290614939804611
 31
0.0
  0
LINE
  5
7DE1B343D9E1F1C
330
7DE1B343D9E1F61
100
AcDbEntity
  8
TEXT
100
AcDbLine
 10
1.578703463441321
 20
0.6520231965377432
 30
0.0
 11
1.578703463441321
 21
0.5468112179843159
 31
0.0
  0
LINE
  5
7DE1B343D9E1F1D
330
7DE1B343D9E1F61
100
AcDbEntity
  8
TEXT
100
AcDbLine
 10
1.80638720237969
 20
0.5761578701262052
 30
0.0
 11
1.80638720237969
 21
0.717487402305344
 31
0.0
  0
LINE
  5
7DE1B343D9E1F1E
330
7DE1B343D9E1F61
100
AcDbEntity
  8
TEXT
100
AcDbLine
 10
1.853485360935675
 20
0.6520231965377432
 30
0.0
 11
1.80638720237969
 21
0.5761578701262052
 31
0.0
  0
LINE
  5
7DE1B343D9E1F1F
330
7DE1B343D9E1F61
100
AcDbEntity
  8
TEXT
100
AcDbLine
 10
1.863920077699598
 20
0.5421299535967697
 30
0.0
 11
1.928477193665303
 21
0.6520231965377432
 31
0.0
  0
LINE
  5
7DE1B343D9E1F20
330
7DE1B343D9E1F61
100
AcDbEntity
  8
TEXT
100
AcDbLine
 10
1.742552211156917
 20
0.3855501635492322
 30
0.0
 11
1.806930395475538
 21
0.3855501635492322
 31
0.0
  0
LWPOLYLINE
  5
7DE1B343D9E1F21
330
7DE1B343D9E1F61
100
AcDbEntity
  8
TEXT
100
AcDbPolyline
 90
        2
 70
     0
 43
0.0
 10
1.582643140746359
 20
0.4290411084996704
 42
-0.2901071551932486
 10
1.539567207878715
 20
0.3855501635492322
 42
-5.328517124445184
  0
ARC
  5
7DE1B343D9E1F25
330
7DE1B343D9E1F61
100
AcDbEntity
  8
TEXT
100
AcDbCircle
 10
1.4707126262218
 20
0.5593871268809805
 30
0.0
 40
0.028359375
100
AcDbArc
 50
25.78218179591245
 51
90.0
  0
LINE
  5
7DE1B343D9E1F26
330
7DE1B343D9E1F61
100
AcDbEntity
  8
TEXT
100
AcDbLine
 10
1.506513701525923
 20
0.5504715284188455
 30
0.0
 11
1.496248941112359
 21
0.5717220679915398
 31
0.0
  0
LINE
  5
7DE1B343D9E1F27
330
7DE1B343D9E1F61
100
AcDbEntity
  8
TEXT
100
AcDbLine
 10
1.42422571174254
 20
0.5504715284188455
 30
0.0
 11
1.506513701525923
 21
0.5504715284188455
 31
0.0
  0
LWPOLYLINE
  5
7DE1B343D9E1F28
330
7DE1B343D9E1F61
100
AcDbEntity
  8
TEXT
100
AcDbPolyline
 90
        4
 70
     1
 43
0.0
 10
1.519444742808822
 20
0.4885141415332575
 10
1.430784424148964
 20
0.4885141415332575
 42
0.9999999999999998
 10
1.430784424148964
 20
0.4461156010293968
 10
1.519444742808822
 20
0.4461156010293968
 42
1.0
  0
LWPOLYLINE
  5
7DE1B343D9E1F2E
330
7DE1B343D9E1F61
100
AcDbEntity
  8
TEXT
100
AcDbPolyline
 90
        2
 70
     0
 43
0.0
 10
1.405549790247338
 20
0.3855501635492322
 10
1.539567207878715
 20
0.3855501635492322
 42
0.9999999999999998
  0
LINE
  5
7DE1B343D9E1F32
330
7DE1B343D9E1F61
100
AcDbEntity
  8
TEXT
100
AcDbLine
 10
1.665904229864354
 20
0.5877465018809778
 30
0.0
 11
1.742552211156912
 21
0.5877465018809778
 31
0.0
  0
LINE
  5
7DE1B343D9E1F33
330
7DE1B343D9E1F61
100
AcDbEntity
  8
TEXT
100
AcDbLine
 10
1.742552211156912
 20
0.5877465018809778
 30
0.0
 11
1.742552211156917
 21
0.3855501635492322
 31
0.0
  0
ARC
  5
7DE1B343D9E1F34
330
7DE1B343D9E1F61
100
AcDbEntity
  8
TEXT
100
AcDbCircle
 10
1.665904229864352
 20
0.5628406265983151
 30
0.0
 40
0.0249058752826653
100
AcDbArc
 50
89.99971217465335
 51
179.9999999999985
  0
LINE
  5
7DE1B343D9E1F35
330
7DE1B343D9E1F61
100
AcDbEntity
  8
TEXT
100
AcDbLine
 10
1.640998354581695
 20
0.3855501635492322
 30
0.0
 11
1.64099835458169
 21
0.5628406689807007
 31
0.0
  0
LWPOLYLINE
  5
7DE1B343D9E1F36
330
7DE1B343D9E1F61
100
AcDbEntity
  8
TEXT
100
AcDbPolyline
 90
        2
 70
     0
 43
0.0
 10
1.582643140746359
 20
0.3855501635492322
 10
1.640998354581693
 20
0.3855501635492322
  0
LWPOLYLINE
  5
7DE1B343D9E1F3A
330
7DE1B343D9E1F61
100
AcDbEntity
  8
TEXT
100
AcDbPolyline
 90
        2
 70
     0
 43
0.0
 10
1.582643140746359
 20
0.4290411084996704
 10
1.582643140746359
 20
0.3855501635492322
  0
LINE
  5
7DE1B343D9E1F3E
330
7DE1B343D9E1F61
100
AcDbEntity
  8
TEXT
100
AcDbLine
 10
1.959412301063208
 20
0.3855501635492322
 30
0.0
 11
1.863920077699598
 21
0.5421299535967697
 31
0.0
  0
LINE
  5
7DE1B343D9E1F3F
330
7DE1B343D9E1F61
100
AcDbEntity
  8
TEXT
100
AcDbLine
 10
1.882833928687002
 20
0.3855501635492322
 30
0.0
 11
1.959412301063208
 21
0.3855501635492322
 31
0.0
  0
LINE
  5
7DE1B343D9E1F40
330
7DE1B343D9E1F61
100
AcDbEntity
  8
TEXT
100
AcDbLine
 10
1.806930395475538
 20
0.5171297320254125
 30
0.0
 11
1.882833928687002
 21
0.3855501635492322
 31
0.0
  0
LINE
  5
7DE1B343D9E1F41
330
7DE1B343D9E1F61
100
AcDbEntity
  8
TEXT
100
AcDbLine
 10
1.806930395475538
 20
0.3855501635492322
 30
0.0
 11
1.806930395475538
 21
0.5171297320254125
 31
0.0
  0
LINE
  5
7DE1B343D9E1F42
330
7DE1B343D9E1F61
100
AcDbEntity
  8
TEXT
100
AcDbLine
 10
1.80638720237969
 20
0.717487402305344
 30
0.0
 11
1.738072323830417
 21
0.717487402305344
 31
0.0
  0
ARC
  5
7DE1B343D9E1F43
330
7DE1B343D9E1F61
100
AcDbEntity
  8
TEXT
100
AcDbCircle
 10
1.497716584789211
 20
0.6104396294168409
 30
0.0
 40
0.0416329381542859
100
AcDbArc
 50
26.56974201007528
 51
87.20939649401342
  0
LINE
  5
7DE1B343D9E1F44
330
7DE1B343D9E1F61
100
AcDbEntity
  8
TEXT
100
AcDbLine
 10
1.642600369740822
 20
0.6520231965377432
 30
0.0
 11
1.578703463441321
 21
0.6520231965377432
 31
0.0
  0
LINE
  5
7DE1B343D9E1F45
330
7DE1B343D9E1F61
100
AcDbEntity
  8
TEXT
100
AcDbLine
 10
1.642600369740822
 20
0.6244755466768686
 30
0.0
 11
1.642600369740822
 21
0.6520231965377432
 31
0.0
  0
ARC
  5
7DE1B343D9E1F46
330
7DE1B343D9E1F61
100
AcDbEntity
  8
TEXT
100
AcDbCircle
 10
1.67379318680393
 20
0.6207774692554784
 30
0.0
 40
0.0314112657011332
100
AcDbArc
 50
95.88484768694724
 51
173.2388340632136
  0
LINE
  5
7DE1B343D9E1F47
330
7DE1B343D9E1F61
100
AcDbEntity
  8
TEXT
100
AcDbLine
 10
1.738072323830412
 20
0.6520231965377432
 30
0.0
 11
1.670572606180895
 21
0.6520231965377432
 31
0.0
  0
LINE
  5
7DE1B343D9E1F48
330
7DE1B343D9E1F61
100
AcDbEntity
  8
TEXT
100
AcDbLine
 10
1.738072323830417
 20
0.717487402305344
 30
0.0
 11
1.738072323830412
 21
0.6520231965377432
 31
0.0
  0
LINE
  5
7DE1B343D9E1F49
330
7DE1B343D9E1F61
100
AcDbEntity
  8
TEXT
100
AcDbLine
 10
1.928477193665303
 20
0.6520231965377432
 30
0.0
 11
1.853485360935677
 21
0.6520231965377432
 31
0.0
  0
ENDSEC
  0
SECTION
  2
OBJECTS
  0
DICTIONARY
  5
7DE1B343D9E1F55
330
0
100
AcDbDictionary
  3
ACAD_GROUP
350
7DE1B343D9E1F56
  3
ACAD_LAYOUT
350
7DE1B343D9E1F7B
  3
ACAD_MLINESTYLE
350
7DE1B343D9E1F57
  3
ACAD_PLOTSETTINGS
350
7DE1B343D9E1F7C
  3
ACAD_PLOTSTYLENAME
350
7DE1B343D9E1F79
  3
ACDBHEADERROUNDTRIPXREC
350
7DE1B343D9E1F86
  3
ACDBVARIABLEDICTIONARY
350
7DE1B343D9E1F83
  0
DICTIONARY
  5
7DE1B343D9E1FA8
330
7DE1B343D9E1F61
100
AcDbDictionary
280
     1
  3
ACAD_LAYOUTSELFREF
360
7DE1B343D9E1FA9
  0
DICTIONARY
  5
7DE1B343D9E1FA6
330
7DE1B343D9E1F5E
100
AcDbDictionary
280
     1
  3
ACAD_LAYOUTSELFREF
360
7DE1B343D9E1FA7
  0
DICTIONARY
  5
7DE1B343D9E1F56
102
{ACAD_REACTORS
330
7DE1B343D9E1F55
102
}
330
7DE1B343D9E1F55
100
AcDbDictionary
  0
DICTIONARY
  5
7DE1B343D9E1F7B
102
{ACAD_REACTORS
330
7DE1B343D9E1F55
102
}
330
7DE1B343D9E1F55
100
AcDbDictionary
  0
DICTIONARY
  5
7DE1B343D9E1F57
102
{ACAD_REACTORS
330
7DE1B343D9E1F55
102
}
330
7DE1B343D9E1F55
100
AcDbDictionary
  3
STANDARD
350
7DE1B343D9E1F64
  0
DICTIONARY
  5
7DE1B343D9E1F7C
102
{ACAD_REACTORS
330
7DE1B343D9E1F55
102
}
330
7DE1B343D9E1F55
100
AcDbDictionary
  0
ACDBDICTIONARYWDFLT
  5
7DE1B343D9E1F79
102
{ACAD_REACTORS
330
7DE1B343D9E1F55
102
}
330
7DE1B343D9E1F55
100
AcDbDictionary
281
     1
  3
Normal
350
7DE1B343D9E1F7A
100
AcDbDictionaryWithDefault
340
7DE1B343D9E1F7A
  0
DICTIONARY
  5
7DE1B343D9E1F86
102
{ACAD_REACTORS
330
7DE1B343D9E1F55
102
}
330
7DE1B343D9E1F55
100
AcDbDictionary
  3
CEPSNTYPE
350
7DE1B343D9E1F90
  3
FINGERPRINTGUID
350
7DE1B343D9E1F91
  3
HYPERLINKBASE
350
7DE1B343D9E1F89
  3
INSUNITS
350
7DE1B343D9E1F8F
  3
LAYOUTDICT
350
7DE1B343D9E1F8B
  3
LWETCUNION
350
7DE1B343D9E1F8E
  3
PLOTSETDICT
350
7DE1B343D9E1F8C
  3
PLOTSTYLNAMDICT
350
7DE1B343D9E1F8D
  3
PSVPSCALE
350
7DE1B343D9E1F93
  3
PUCSBASE
350
7DE1B343D9E1F96
  3
PUCSORGBACK
350
7DE1B343D9E1F9C
  3
PUCSORGBOTTOM
350
7DE1B343D9E1F98
  3
PUCSORGFRONT
350
7DE1B343D9E1F9B
  3
PUCSORGLEFT
350
7DE1B343D9E1F99
  3
PUCSORGRIGHT
350
7DE1B343D9E1F9A
  3
PUCSORGTOP
350
7DE1B343D9E1F97
  3
PUCSORTHOREF
350
7DE1B343D9E1F94
  3
PUCSORTHOVIEW
350
7DE1B343D9E1F95
  3
STYLESHEET
350
7DE1B343D9E1F8A
  3
TSTACKALIGN
350
7DE1B343D9E1F87
  3
TSTACKSIZE
350
7DE1B343D9E1F88
  3
UCSBASE
350
7DE1B343D9E1F9F
  3
UCSORGBACK
350
7DE1B343D9E1FA5
  3
UCSORGBOTTOM
350
7DE1B343D9E1FA1
  3
UCSORGFRONT
350
7DE1B343D9E1FA4
  3
UCSORGLEFT
350
7DE1B343D9E1FA2
  3
UCSORGRIGHT
350
7DE1B343D9E1FA3
  3
UCSORGTOP
350
7DE1B343D9E1FA0
  3
UCSORTHOREF
350
7DE1B343D9E1F9D
  3
UCSORTHOVIEW
350
7DE1B343D9E1F9E
  3
VERSIONGUID
350
7DE1B343D9E1F92
  0
DICTIONARY
  5
7DE1B343D9E1F83
102
{ACAD_REACTORS
330
7DE1B343D9E1F55
102
}
330
7DE1B343D9E1F55
100
AcDbDictionary
  3
DIMASSOC
350
7DE1B343D9E1F84
  0
XRECORD
  5
7DE1B343D9E1FA9
102
{ACAD_REACTORS
330
7DE1B343D9E1FA8
102
}
330
7DE1B343D9E1FA8
100
AcDbXrecord
340
7DE1B343D9E1F61
  0
XRECORD
  5
7DE1B343D9E1FA7
102
{ACAD_REACTORS
330
7DE1B343D9E1FA6
102
}
330
7DE1B343D9E1FA6
100
AcDbXrecord
340
7DE1B343D9E1F5E
  0
MLINESTYLE
  5
7DE1B343D9E1F64
102
{ACAD_REACTORS
330
7DE1B343D9E1F57
102
}
330
7DE1B343D9E1F57
100
AcDbMlineStyle
  2
STANDARD
 70
     0
  3

 62
     0
 51
90.0
 52
90.0
 71
     2
 49
0.5
 62
   256
  6
BYLAYER
 49
-0.5
 62
   256
  6
BYLAYER
  0
ACDBPLACEHOLDER
  5
7DE1B343D9E1F7A
102
{ACAD_REACTORS
330
7DE1B343D9E1F79
102
}
330
7DE1B343D9E1F79
100
AcDbPlaceHolder
280
     0
  0
XRECORD
  5
7DE1B343D9E1F90
102
{ACAD_REACTORS
330
7DE1B343D9E1F86
102
}
330
7DE1B343D9E1F86
100
AcDbXrecord
 90
        0
  0
XRECORD
  5
7DE1B343D9E1F91
102
{ACAD_REACTORS
330
7DE1B343D9E1F86
102
}
330
7DE1B343D9E1F86
100
AcDbXrecord
  1
{698B3A40-8DB9-11D6-88E6-0090279574E7}
  0
XRECORD
  5
7DE1B343D9E1F89
102
{ACAD_REACTORS
330
7DE1B343D9E1F86
102
}
330
7DE1B343D9E1F86
100
AcDbXrecord
  1

  0
XRECORD
  5
7DE1B343D9E1F8F
102
{ACAD_REACTORS
330
7DE1B343D9E1F86
102
}
330
7DE1B343D9E1F86
100
AcDbXrecord
 90
        0
  0
XRECORD
  5
7DE1B343D9E1F8B
102
{ACAD_REACTORS
330
7DE1B343D9E1F86
102
}
330
7DE1B343D9E1F86
100
AcDbXrecord
340
7DE1B343D9E1F7B
  0
XRECORD
  5
7DE1B343D9E1F8E
102
{ACAD_REACTORS
330
7DE1B343D9E1F86
102
}
330
7DE1B343D9E1F86
100
AcDbXrecord
 90
    14877
  0
XRECORD
  5
7DE1B343D9E1F8C
102
{ACAD_REACTORS
330
7DE1B343D9E1F86
102
}
330
7DE1B343D9E1F86
100
AcDbXrecord
340
7DE1B343D9E1F7C
  0
XRECORD
  5
7DE1B343D9E1F8D
102
{ACAD_REACTORS
330
7DE1B343D9E1F86
102
}
330
7DE1B343D9E1F86
100
AcDbXrecord
340
7DE1B343D9E1F79
  0
XRECORD
  5
7DE1B343D9E1F93
102
{ACAD_REACTORS
330
7DE1B343D9E1F86
102
}
330
7DE1B343D9E1F86
100
AcDbXrecord
 40
0.0
  0
XRECORD
  5
7DE1B343D9E1F96
102
{ACAD_REACTORS
330
7DE1B343D9E1F86
102
}
330
7DE1B343D9E1F86
100
AcDbXrecord
340
0
  0
XRECORD
  5
7DE1B343D9E1F9C
102
{ACAD_REACTORS
330
7DE1B343D9E1F86
102
}
330
7DE1B343D9E1F86
100
AcDbXrecord
 10
0.0
 20
0.0
 30
0.0
  0
XRECORD
  5
7DE1B343D9E1F98
102
{ACAD_REACTORS
330
7DE1B343D9E1F86
102
}
330
7DE1B343D9E1F86
100
AcDbXrecord
 10
0.0
 20
0.0
 30
0.0
  0
XRECORD
  5
7DE1B343D9E1F9B
102
{ACAD_REACTORS
330
7DE1B343D9E1F86
102
}
330
7DE1B343D9E1F86
100
AcDbXrecord
 10
0.0
 20
0.0
 30
0.0
  0
XRECORD
  5
7DE1B343D9E1F99
102
{ACAD_REACTORS
330
7DE1B343D9E1F86
102
}
330
7DE1B343D9E1F86
100
AcDbXrecord
 10
0.0
 20
0.0
 30
0.0
  0
XRECORD
  5
7DE1B343D9E1F9A
102
{ACAD_REACTORS
330
7DE1B343D9E1F86
102
}
330
7DE1B343D9E1F86
100
AcDbXrecord
 10
0.0
 20
0.0
 30
0.0
  0
XRECORD
  5
7DE1B343D9E1F97
102
{ACAD_REACTORS
330
7DE1B343D9E1F86
102
}
330
7DE1B343D9E1F86
100
AcDbXrecord
 10
0.0
 20
0.0
 30
0.0
  0
XRECORD
  5
7DE1B343D9E1F94
102
{ACAD_REACTORS
330
7DE1B343D9E1F86
102
}
330
7DE1B343D9E1F86
100
AcDbXrecord
340
0
  0
XRECORD
  5
7DE1B343D9E1F95
102
{ACAD_REACTORS
330
7DE1B343D9E1F86
102
}
330
7DE1B343D9E1F86
100
AcDbXrecord
 70
     0
  0
XRECORD
  5
7DE1B343D9E1F8A
102
{ACAD_REACTORS
330
7DE1B343D9E1F86
102
}
330
7DE1B343D9E1F86
100
AcDbXrecord
  1

  0
XRECORD
  5
7DE1B343D9E1F87
102
{ACAD_REACTORS
330
7DE1B343D9E1F86
102
}
330
7DE1B343D9E1F86
100
AcDbXrecord
 90
        1
  0
XRECORD
  5
7DE1B343D9E1F88
102
{ACAD_REACTORS
330
7DE1B343D9E1F86
102
}
330
7DE1B343D9E1F86
100
AcDbXrecord
 90
       70
  0
XRECORD
  5
7DE1B343D9E1F9F
102
{ACAD_REACTORS
330
7DE1B343D9E1F86
102
}
330
7DE1B343D9E1F86
100
AcDbXrecord
340
0
  0
XRECORD
  5
7DE1B343D9E1FA5
102
{ACAD_REACTORS
330
7DE1B343D9E1F86
102
}
330
7DE1B343D9E1F86
100
AcDbXrecord
 10
0.0
 20
0.0
 30
0.0
  0
XRECORD
  5
7DE1B343D9E1FA1
102
{ACAD_REACTORS
330
7DE1B343D9E1F86
102
}
330
7DE1B343D9E1F86
100
AcDbXrecord
 10
0.0
 20
0.0
 30
0.0
  0
XRECORD
  5
7DE1B343D9E1FA4
102
{ACAD_REACTORS
330
7DE1B343D9E1F86
102
}
330
7DE1B343D9E1F86
100
AcDbXrecord
 10
0.0
 20
0.0
 30
0.0
  0
XRECORD
  5
7DE1B343D9E1FA2
102
{ACAD_REACTORS
330
7DE1B343D9E1F86
102
}
330
7DE1B343D9E1F86
100
AcDbXrecord
 10
0.0
 20
0.0
 30
0.0
  0
XRECORD
  5
7DE1B343D9E1FA3
102
{ACAD_REACTORS
330
7DE1B343D9E1F86
102
}
330
7DE1B343D9E1F86
100
AcDbXrecord
 10
0.0
 20
0.0
 30
0.0
  0
XRECORD
  5
7DE1B343D9E1FA0
102
{ACAD_REACTORS
330
7DE1B343D9E1F86
102
}
330
7DE1B343D9E1F86
100
AcDbXrecord
 10
0.0
 20
0.0
 30
0.0
  0
XRECORD
  5
7DE1B343D9E1F9D
102
{ACAD_REACTORS
330
7DE1B343D9E1F86
102
}
330
7DE1B343D9E1F86
100
AcDbXrecord
340
0
  0
XRECORD
  5
7DE1B343D9E1F9E
102
{ACAD_REACTORS
330
7DE1B343D9E1F86
102
}
330
7DE1B343D9E1F86
100
AcDbXrecord
 70
     0
  0
XRECORD
  5
7DE1B343D9E1F92
102
{ACAD_REACTORS
330
7DE1B343D9E1F86
102
}
330
7DE1B343D9E1F86
100
AcDbXrecord
  1
{698B3A42-8DB9-11D6-88E6-0090279574E7}
  0
DICTIONARYVAR
  5
7DE1B343D9E1F84
102
{ACAD_REACTORS
330
7DE1B343D9E1F83
102
}
330
7DE1B343D9E1F83
100
DictionaryVariables
280
     0
  1
1
  0
ENDSEC
  0
EOF
