  0
SECTION
  2
HEADER
  9
$ACADVER
  1
AC1014
  9
$ACADMAINTVER
 70
     9
  9
$DWGCODEPAGE
  3
ANSI_1252
  9
$INSBASE
 10
1.499237804003512
 20
2.008495865074094
 30
0.0
  9
$EXTMIN
 10
-0.0328062752236312
 20
0.3439744852077422
 30
0.0
  9
$EXTMAX
 10
3.452413046523496
 20
2.014199165350443
 30
0.0
  9
$LIMMIN
 10
0.0
 20
0.0
  9
$LIMMAX
 10
18.0
 20
12.0
  9
$ORTHOMODE
 70
     1
  9
$REGENMODE
 70
     1
  9
$FILLMODE
 70
     1
  9
$QTEXTMODE
 70
     0
  9
$MIRRTEXT
 70
     0
  9
$DRAGMODE
 70
     2
  9
$LTSCALE
 40
1.0
  9
$OSMODE
 70
    39
  9
$ATTMODE
 70
     1
  9
$TEXTSIZE
 40
0.125
  9
$TRACEWID
 40
0.05
  9
$TEXTSTYLE
  7
ROMANS
  9
$CLAYER
  8
0
  9
$CELTYPE
  6
BYLAYER
  9
$CECOLOR
 62
   256
  9
$CELTSCALE
 40
1.0
  9
$DELOBJ
 70
     1
  9
$DISPSILH
 70
     1
  9
$DIMSCALE
 40
1.0
  9
$DIMASZ
 40
0.125
  9
$DIMEXO
 40
0.125
  9
$DIMDLI
 40
0.375
  9
$DIMRND
 40
0.0
  9
$DIMDLE
 40
0.0
  9
$DIMEXE
 40
0.125
  9
$DIMTP
 40
0.0
  9
$DIMTM
 40
0.0
  9
$DIMTXT
 40
0.125
  9
$DIMCEN
 40
-0.125
  9
$DIMTSZ
 40
0.0
  9
$DIMTOL
 70
     0
  9
$DIMLIM
 70
     0
  9
$DIMTIH
 70
     1
  9
$DIMTOH
 70
     1
  9
$DIMSE1
 70
     0
  9
$DIMSE2
 70
     0
  9
$DIMTAD
 70
     0
  9
$DIMZIN
 70
     4
  9
$DIMBLK
  1

  9
$DIMASO
 70
     1
  9
$DIMSHO
 70
     1
  9
$DIMPOST
  1

  9
$DIMAPOST
  1

  9
$DIMALT
 70
     0
  9
$DIMALTD
 70
     2
  9
$DIMALTF
 40
25.4
  9
$DIMLFAC
 40
1.0
  9
$DIMTOFL
 70
     0
  9
$DIMTVP
 40
0.0
  9
$DIMTIX
 70
     1
  9
$DIMSOXD
 70
     0
  9
$DIMSAH
 70
     0
  9
$DIMBLK1
  1

  9
$DIMBLK2
  1

  9
$DIMSTYLE
  2
STANDARD
  9
$DIMCLRD
 70
     0
  9
$DIMCLRE
 70
     0
  9
$DIMCLRT
 70
     0
  9
$DIMTFAC
 40
1.0
  9
$DIMGAP
 40
0.09
  9
$DIMJUST
 70
     0
  9
$DIMSD1
 70
     0
  9
$DIMSD2
 70
     0
  9
$DIMTOLJ
 70
     1
  9
$DIMTZIN
 70
     4
  9
$DIMALTZ
 70
     0
  9
$DIMALTTZ
 70
     0
  9
$DIMFIT
 70
     3
  9
$DIMUPT
 70
     0
  9
$DIMUNIT
 70
     2
  9
$DIMDEC
 70
     3
  9
$DIMTDEC
 70
     3
  9
$DIMALTU
 70
     2
  9
$DIMALTTD
 70
     2
  9
$DIMTXSTY
  7
ROMANS
  9
$DIMAUNIT
 70
     0
  9
$LUNITS
 70
     2
  9
$LUPREC
 70
     3
  9
$SKETCHINC
 40
0.1
  9
$FILLETRAD
 40
0.03125
  9
$AUNITS
 70
     0
  9
$AUPREC
 70
     0
  9
$MENU
  1
ACAD
  9
$ELEVATION
 40
0.0
  9
$PELEVATION
 40
0.0
  9
$THICKNESS
 40
0.0
  9
$LIMCHECK
 70
     0
  9
$BLIPMODE
 70
     0
  9
$CHAMFERA
 40
0.0
  9
$CHAMFERB
 40
0.0
  9
$CHAMFERC
 40
0.0
  9
$CHAMFERD
 40
0.0
  9
$SKPOLY
 70
     0
  9
$TDCREATE
 40
2448994.682721875
  9
$TDUPDATE
 40
2452458.322305324
  9
$TDINDWG
 40
0.0004993750
  9
$TDUSRTIMER
 40
0.0004993750
  9
$USRTIMER
 70
     1
  9
$ANGBASE
 50
0.0
  9
$ANGDIR
 70
     0
  9
$PDMODE
 70
     0
  9
$PDSIZE
 40
0.0
  9
$PLINEWID
 40
0.0
  9
$COORDS
 70
     2
  9
$SPLFRAME
 70
     0
  9
$SPLINETYPE
 70
     6
  9
$SPLINESEGS
 70
     8
  9
$ATTDIA
 70
     0
  9
$ATTREQ
 70
     1
  9
$HANDLING
 70
 22529
  9
$HANDSEED
  5
7DE1B343D9E1AB7
  9
$SURFTAB1
 70
     6
  9
$SURFTAB2
 70
     6
  9
$SURFTYPE
 70
     6
  9
$SURFU
 70
     6
  9
$SURFV
 70
     6
  9
$UCSNAME
  2

  9
$UCSORG
 10
0.0
 20
0.0
 30
0.0
  9
$UCSXDIR
 10
1.0
 20
0.0
 30
0.0
  9
$UCSYDIR
 10
0.0
 20
1.0
 30
0.0
  9
$PUCSNAME
  2

  9
$PUCSORG
 10
0.0
 20
0.0
 30
0.0
  9
$PUCSXDIR
 10
1.0
 20
0.0
 30
0.0
  9
$PUCSYDIR
 10
0.0
 20
1.0
 30
0.0
  9
$USERI1
 70
     0
  9
$USERI2
 70
     0
  9
$USERI3
 70
     0
  9
$USERI4
 70
     0
  9
$USERI5
 70
     0
  9
$USERR1
 40
0.0
  9
$USERR2
 40
0.0
  9
$USERR3
 40
0.0
  9
$USERR4
 40
0.0
  9
$USERR5
 40
0.0
  9
$WORLDVIEW
 70
     1
  9
$SHADEDGE
 70
     3
  9
$SHADEDIF
 70
    70
  9
$TILEMODE
 70
     1
  9
$MAXACTVP
 70
    16
  9
$PINSBASE
 10
0.4356815542434941
 20
50.00000000000001
 30
0.6493902407223113
  9
$PLIMCHECK
 70
     0
  9
$PEXTMIN
 10
1.000000000000000E+20
 20
1.000000000000000E+20
 30
1.000000000000000E+20
  9
$PEXTMAX
 10
-1.000000000000000E+20
 20
-1.000000000000000E+20
 30
-1.000000000000000E+20
  9
$PLIMMIN
 10
0.0
 20
0.0
  9
$PLIMMAX
 10
12.0
 20
9.0
  9
$UNITMODE
 70
     0
  9
$VISRETAIN
 70
     0
  9
$PLINEGEN
 70
     1
  9
$PSLTSCALE
 70
     0
  9
$TREEDEPTH
 70
  3020
  9
$PICKSTYLE
 70
     1
  9
$CMLSTYLE
  2
STANDARD
  9
$CMLJUST
 70
     0
  9
$CMLSCALE
 40
1.0
  9
$PROXYGRAPHICS
 70
     1
  9
$MEASUREMENT
 70
     0
  0
ENDSEC
  0
SECTION
  2
CLASSES
  0
CLASS
  1
LWPOLYLINE
  2
AcDbPolyline
  3
AutoCAD 2000
 90
        0
280
     0
281
     1
  0
CLASS
  1
ACDBDICTIONARYWDFLT
  2
AcDbDictionaryWithDefault
  3
AutoCAD 2000
 90
        0
280
     0
281
     0
  0
CLASS
  1
ACDBPLACEHOLDER
  2
AcDbPlaceHolder
  3
AutoCAD 2000
 90
        0
280
     0
281
     0
  0
CLASS
  1
LAYOUT
  2
AcDbLayout
  3
AutoCAD 2000
 90
        0
280
     0
281
     0
  0
CLASS
  1
DICTIONARYVAR
  2
AcDbDictionaryVar
  3
AutoCAD 2000
 90
        0
280
     0
281
     0
  0
CLASS
  1
LONG_TRANSACTION
  2
AcDbLongTransaction
  3
AutoCAD 2000
 90
        0
280
     0
281
     0
  0
CLASS
  1
LWPOLYLINE
  2
AcDbPolyline
  3
AutoCAD 2000
 90
        0
280
     0
281
     1
  0
CLASS
  1
HATCH
  2
AcDbHatch
  3
AutoCAD 2000
 90
        0
280
     0
281
     1
  0
CLASS
  1
XRECORD
  2
AcDbXrecord
  3
AutoCAD 2000
 90
        0
280
     0
281
     0
  0
ENDSEC
  0
SECTION
  2
TABLES
  0
TABLE
  2
VPORT
  5
7DE1B343D9E1A5E
330
0
100
AcDbSymbolTable
 70
     2
  0
VPORT
  5
7DE1B343D9E1A92
330
7DE1B343D9E1A5E
100
AcDbSymbolTableRecord
100
AcDbViewportTableRecord
  2
*ACTIVE
 70
     0
 10
0.0
 20
0.0
 11
1.0
 21
1.0
 12
4.68566331032376
 22
1.179290793812008
 13
0.0
 23
0.0
 14
0.015625
 24
0.015625
 15
0.0
 25
0.0
 16
0.0
 26
0.0
 36
1.0
 17
0.0
 27
0.0
 37
0.0
 40
2.282304138842049
 41
4.320930232558139
 42
50.0
 43
0.0
 44
0.0
 50
0.0
 51
0.0
 71
     0
 72
  2000
 73
     1
 74
     0
 75
     0
 76
     0
 77
     0
 78
     0
  0
ENDTAB
  0
TABLE
  2
LTYPE
  5
7DE1B343D9E1A5B
330
0
100
AcDbSymbolTable
 70
     1
  0
LTYPE
  5
7DE1B343D9E1A68
330
7DE1B343D9E1A5B
100
AcDbSymbolTableRecord
100
AcDbLinetypeTableRecord
  2
BYBLOCK
 70
     0
  3

 72
    65
 73
     0
 40
0.0
  0
LTYPE
  5
7DE1B343D9E1A69
330
7DE1B343D9E1A5B
100
AcDbSymbolTableRecord
100
AcDbLinetypeTableRecord
  2
BYLAYER
 70
     0
  3

 72
    65
 73
     0
 40
0.0
  0
LTYPE
  5
7DE1B343D9E1A6A
330
7DE1B343D9E1A5B
100
AcDbSymbolTableRecord
100
AcDbLinetypeTableRecord
  2
CONTINUOUS
 70
     0
  3
Solid line
 72
    65
 73
     0
 40
0.0
  0
ENDTAB
  0
TABLE
  2
LAYER
  5
7DE1B343D9E1A58
330
0
100
AcDbSymbolTable
 70
     2
  0
LAYER
  5
7DE1B343D9E1A65
330
7DE1B343D9E1A58
100
AcDbSymbolTableRecord
100
AcDbLayerTableRecord
  2
0
 70
     0
 62
     7
  6
CONTINUOUS
  0
LAYER
  5
7DE1B343D9E1A75
330
7DE1B343D9E1A58
100
AcDbSymbolTableRecord
100
AcDbLayerTableRecord
  2
TEXT
 70
     0
 62
     3
  6
CONTINUOUS
  0
ENDTAB
  0
TABLE
  2
STYLE
  5
7DE1B343D9E1A59
330
0
100
AcDbSymbolTable
 70
     3
  0
STYLE
  5
7DE1B343D9E1A66
330
7DE1B343D9E1A59
100
AcDbSymbolTableRecord
100
AcDbTextStyleTableRecord
  2
STANDARD
 70
     0
 40
0.0
 41
1.0
 50
0.0
 71
     0
 42
0.3125
  3
txt
  4

  0
STYLE
  5
7DE1B343D9E1A72
330
7DE1B343D9E1A59
100
AcDbSymbolTableRecord
100
AcDbTextStyleTableRecord
  2
ITALICC
 70
     0
 40
0.0
 41
1.0
 50
0.0
 71
     0
 42
0.125
  3
italicc
  4

  0
STYLE
  5
7DE1B343D9E1A82
330
7DE1B343D9E1A59
100
AcDbSymbolTableRecord
100
AcDbTextStyleTableRecord
  2
ROMANS
 70
     0
 40
0.0
 41
1.0
 50
0.0
 71
     0
 42
0.125
  3
romans.shx
  4

  0
ENDTAB
  0
TABLE
  2
VIEW
  5
7DE1B343D9E1A5C
330
0
100
AcDbSymbolTable
 70
     0
  0
ENDTAB
  0
TABLE
  2
UCS
  5
7DE1B343D9E1A5D
330
0
100
AcDbSymbolTable
 70
     0
  0
ENDTAB
  0
TABLE
  2
APPID
  5
7DE1B343D9E1A5F
330
0
100
AcDbSymbolTable
 70
     1
  0
APPID
  5
7DE1B343D9E1A67
330
7DE1B343D9E1A5F
100
AcDbSymbolTableRecord
100
AcDbRegAppTableRecord
  2
ACAD
 70
     0
  0
ENDTAB
  0
TABLE
  2
DIMSTYLE
  5
7DE1B343D9E1A60
330
0
100
AcDbSymbolTable
 70
     1
  0
DIMSTYLE
105
7DE1B343D9E1A7A
330
7DE1B343D9E1A60
100
AcDbSymbolTableRecord
100
AcDbDimStyleTableRecord
  2
STANDARD
 70
     0
  3

  4

  5

  6

  7

 40
1.0
 41
0.125
 42
0.125
 43
0.375
 44
0.125
 45
0.0
 46
0.0
 47
0.0
 48
0.0
140
0.125
141
-0.125
142
0.0
143
25.4
144
1.0
145
0.0
146
1.0
147
0.09
 71
     0
 72
     0
 73
     1
 74
     1
 75
     0
 76
     0
 77
     0
 78
     4
170
     0
171
     2
172
     0
173
     0
174
     1
175
     0
176
     0
177
     0
178
     0
270
     2
271
     3
272
     3
273
     2
274
     2
340
7DE1B343D9E1A82
275
     0
280
     0
281
     0
282
     0
283
     1
284
     4
285
     0
286
     0
287
     3
288
     0
  0
ENDTAB
  0
TABLE
  2
BLOCK_RECORD
  5
7DE1B343D9E1A57
330
0
100
AcDbSymbolTable
 70
     0
  0
BLOCK_RECORD
  5
7DE1B343D9E1A6E
102
{ACAD_XDICTIONARY
360
7DE1B343D9E1AB5
102
}
330
7DE1B343D9E1A57
100
AcDbSymbolTableRecord
100
AcDbBlockTableRecord
  2
*MODEL_SPACE
  0
BLOCK_RECORD
  5
7DE1B343D9E1A6B
102
{ACAD_XDICTIONARY
360
7DE1B343D9E1AB3
102
}
330
7DE1B343D9E1A57
100
AcDbSymbolTableRecord
100
AcDbBlockTableRecord
  2
*PAPER_SPACE
  0
ENDTAB
  0
ENDSEC
  0
SECTION
  2
BLOCKS
  0
BLOCK
  5
7DE1B343D9E1A78
330
7DE1B343D9E1A6E
100
AcDbEntity
  8
0
100
AcDbBlockBegin
  2
*MODEL_SPACE
 70
     0
 10
0.0
 20
0.0
 30
0.0
  3
*MODEL_SPACE
  1

  0
ENDBLK
  5
7DE1B343D9E1A79
330
7DE1B343D9E1A6E
100
AcDbEntity
  8
0
100
AcDbBlockEnd
  0
BLOCK
  5
7DE1B343D9E1A76
330
7DE1B343D9E1A6B
100
AcDbEntity
 67
     1
  8
0
100
AcDbBlockBegin
  2
*PAPER_SPACE
 70
     0
 10
0.0
 20
0.0
 30
0.0
  3
*PAPER_SPACE
  1

  0
ENDBLK
  5
7DE1B343D9E1A77
330
7DE1B343D9E1A6B
100
AcDbEntity
 67
     1
  8
0
100
AcDbBlockEnd
  0
ENDSEC
  0
SECTION
  2
ENTITIES
  0
LWPOLYLINE
  5
7DE1B343D9E067E
330
7DE1B343D9E1A6E
100
AcDbEntity
  8
0
100
AcDbPolyline
 90
       16
 70
     1
 43
0.0
 10
1.905487804003512
 20
1.945995865074094
 10
1.905487804003512
 20
1.719433365074094
 42
0.9255966087939924
 10
1.952083703714039
 20
1.715827130320581
 42
0.0775761837103768
 10
1.951987175685135
 20
1.982076566189354
 42
0.369452070808886
 10
1.921112804003512
 20
2.008495865074094
 10
1.499237804003512
 20
2.008495865074094
 10
1.499237804003511
 20
1.094433365074095
 42
1.0
 10
1.546112804003512
 20
1.094433365074095
 10
1.546112804003512
 20
1.373495865074094
 10
1.536112804003511
 20
1.383495865074094
 10
1.546112804003511
 20
1.393495865074094
 10
1.546112804003512
 20
1.633495865074094
 10
1.603302142935641
 20
1.77826428406631
 42
0.5292270190804304
 10
1.574237804003511
 20
1.820995865074094
 10
1.561737804003512
 20
1.820995865074094
 10
1.561737804003512
 20
1.945995865074094
  0
TEXT
  5
7DE1B343D9E1919
330
7DE1B343D9E1A6E
100
AcDbEntity
  8
TEXT
100
AcDbText
 10
0.9691038754320835
 20
0.8019930892903238
 30
0.0
 40
0.125
  1
PART #120041
  7
ITALICC
 72
     1
 11
1.710175304003512
 21
0.8019930892903238
 31
0.0
100
AcDbText
  0
TEXT
  5
7DE1B343D9E191A
330
7DE1B343D9E1A6E
100
AcDbEntity
  8
TEXT
100
AcDbText
 10
2.123480462253832
 20
0.3550704466179486
 30
0.0
 40
0.0522247191011236
  1
Phone  1-800-328-2495
 41
1.272321428571429
 72
     5
 11
3.452413046523496
 21
0.3550704466179486
 31
0.0
100
AcDbText
  0
TEXT
  5
7DE1B343D9E191B
330
7DE1B343D9E1A6E
100
AcDbEntity
  8
TEXT
100
AcDbText
 10
2.123480462253832
 20
0.6348457275168251
 30
0.0
 40
0.0522247191011236
  1
Stylmark  Incorporated
 41
1.221428571428573
 72
     5
 11
3.452413046523496
 21
0.6348457275168251
 31
0.0
100
AcDbText
  0
TEXT
  5
7DE1B343D9E191C
330
7DE1B343D9E1A6E
100
AcDbEntity
  8
TEXT
100
AcDbText
 10
2.123480462253832
 20
0.5415873005505329
 30
0.0
 40
0.0522247191011236
  1
6536 Main St. N.E. * P.O. Box 32008
 41
0.8388932496075366
 72
     5
 11
3.452413046523496
 21
0.5415873005505329
 31
0.0
100
AcDbText
  0
TEXT
  5
7DE1B343D9E191D
330
7DE1B343D9E1A6E
100
AcDbEntity
  8
TEXT
100
AcDbText
 10
2.123480462253832
 20
0.4483288735842408
 30
0.0
 40
0.0522247191011236
  1
Minneapolis, MN 55432-0008
 41
1.11444212721585
 72
     5
 11
3.452413046523496
 21
0.4483288735842408
 31
0.0
100
AcDbText
  0
LWPOLYLINE
  5
7DE1B343D9E191E
330
7DE1B343D9E1A6E
100
AcDbEntity
  8
TEXT
100
AcDbPolyline
 90
        3
 70
     0
 43
0.0006660908203125
 10
-0.0324732298134749
 20
0.4687152092553835
 10
-0.0324732298134749
 20
0.3554797698022558
 10
0.0807622096396474
 20
0.3554797698022558
  0
LWPOLYLINE
  5
7DE1B343D9E1923
330
7DE1B343D9E1A6E
100
AcDbEntity
  8
TEXT
100
AcDbPolyline
 90
        3
 70
     0
 43
0.0006660908203125
 10
-0.0058295970009774
 20
0.4687152092553835
 10
-0.0058295970009774
 20
0.3821234026147569
 10
0.0807622096396474
 20
0.3821234026147569
  0
LWPOLYLINE
  5
7DE1B343D9E1928
330
7DE1B343D9E1A6E
100
AcDbEntity
  8
TEXT
100
AcDbPolyline
 90
        2
 70
     0
 43
0.0001332181640625
 10
0.0407967604208994
 20
0.4787065715600687
 10
-0.0324732298134749
 20
0.4687152092553835
  0
LWPOLYLINE
  5
7DE1B343D9E192C
330
7DE1B343D9E1A6E
100
AcDbEntity
  8
TEXT
100
AcDbPolyline
 90
        2
 70
     0
 43
0.0001332181640625
 10
-0.0058295970009774
 20
0.4687152092553835
 10
0.0541185768271499
 20
0.4787065715600687
  0
LWPOLYLINE
  5
7DE1B343D9E1930
330
7DE1B343D9E1A6E
100
AcDbEntity
  8
TEXT
100
AcDbPolyline
 90
        2
 70
     0
 43
0.0001332181640625
 10
-0.0058295970009774
 20
0.3821234026147569
 10
0.0541185768271499
 20
0.4420715764428824
  0
LWPOLYLINE
  5
7DE1B343D9E1934
330
7DE1B343D9E1A6E
100
AcDbEntity
  8
TEXT
100
AcDbPolyline
 90
        3
 70
     0
 43
0.0006660908203125
 10
0.0807622096396474
 20
0.6219160979272591
 10
-0.0324732298134749
 20
0.6219160979272591
 10
-0.0324732298134749
 20
0.5086806584741315
  0
LWPOLYLINE
  5
7DE1B343D9E1939
330
7DE1B343D9E1A6E
100
AcDbEntity
  8
TEXT
100
AcDbPolyline
 90
        3
 70
     0
 43
0.0006660908203125
 10
0.0807622096396474
 20
0.5952724651147581
 10
-0.0058295970009774
 20
0.5952724651147581
 10
-0.0058295970009774
 20
0.5086806584741315
  0
LWPOLYLINE
  5
7DE1B343D9E193E
330
7DE1B343D9E1A6E
100
AcDbEntity
  8
TEXT
100
AcDbPolyline
 90
        2
 70
     0
 43
0.0001332181640625
 10
-0.0058295970009774
 20
0.5952724651147581
 10
0.0541185768271482
 20
0.5353242912866325
  0
LWPOLYLINE
  5
7DE1B343D9E1942
330
7DE1B343D9E1A6E
100
AcDbEntity
  8
TEXT
100
AcDbPolyline
 90
        2
 70
     0
 43
0.0001332181640625
 10
-0.0058295970009774
 20
0.5086806584741315
 10
0.0541185768271482
 20
0.4986892961694427
  0
LWPOLYLINE
  5
7DE1B343D9E1946
330
7DE1B343D9E1A6E
100
AcDbEntity
  8
TEXT
100
AcDbPolyline
 90
        2
 70
     0
 43
0.0001332181640625
 10
-0.0324732298134749
 20
0.5086806584741315
 10
0.0407967604208994
 20
0.4986892961694427
  0
LWPOLYLINE
  5
7DE1B343D9E194A
330
7DE1B343D9E1A6E
100
AcDbEntity
  8
TEXT
100
AcDbPolyline
 90
        2
 70
     0
 43
0.0006660908203125
 10
-0.0058295970009774
 20
0.4687152092553835
 10
-0.0324732298134749
 20
0.4687152092553835
  0
LWPOLYLINE
  5
7DE1B343D9E194E
330
7DE1B343D9E1A6E
100
AcDbEntity
  8
TEXT
100
AcDbPolyline
 90
        2
 70
     0
 43
0.0006660908203125
 10
-0.0058295970009774
 20
0.5086806584741315
 10
-0.0324732298134749
 20
0.5086806584741315
  0
LINE
  5
7DE1B343D9E1952
330
7DE1B343D9E1A6E
100
AcDbEntity
  8
TEXT
100
AcDbLine
 10
1.482717199313022
 20
0.5576394032704901
 30
0.0
 11
1.375510925925733
 21
0.5576394032704901
 31
0.0
  0
LINE
  5
7DE1B343D9E1953
330
7DE1B343D9E1A6E
100
AcDbEntity
  8
TEXT
100
AcDbLine
 10
1.511748097657501
 20
0.6219160979272555
 30
0.0
 11
1.376916188440441
 21
0.6219160979272555
 31
0.0
  0
ARC
  5
7DE1B343D9E1954
330
7DE1B343D9E1A6E
100
AcDbEntity
  8
TEXT
100
AcDbCircle
 10
1.436230284833758
 20
0.4526788486642392
 30
0.0
 40
0.0676855811441166
100
AcDbArc
 50
90.0
 51
153.7768192527749
  0
LWPOLYLINE
  5
7DE1B343D9E1955
330
7DE1B343D9E1A6E
100
AcDbEntity
  8
TEXT
100
AcDbPolyline
 90
        2
 70
     0
 43
0.0
 10
1.374478430470923
 20
0.3989340098891827
 42
0.2901071551932823
 10
1.417554363338558
 20
0.3554430649387446
 42
5.328517124445801
  0
ARC
  5
7DE1B343D9E1959
330
7DE1B343D9E1A6E
100
AcDbEntity
  8
TEXT
100
AcDbCircle
 10
0.7310989071622731
 20
0.4152354562767944
 30
0.0
 40
0.0601160179737537
100
AcDbArc
 50
180.0000000000003
 51
264.0521544866073
  0
LINE
  5
7DE1B343D9E195A
330
7DE1B343D9E1A6E
100
AcDbEntity
  8
TEXT
100
AcDbLine
 10
0.734614262787821
 20
0.6563040155213937
 30
0.0
 11
0.6745716579438139
 21
0.6563040155213937
 31
0.0
  0
ARC
  5
7DE1B343D9E195B
330
7DE1B343D9E1A6E
100
AcDbEntity
  8
TEXT
100
AcDbCircle
 10
0.4988399050453026
 20
0.5398286384807538
 30
0.0
 40
0.0820874594465043
100
AcDbArc
 50
90.0
 51
270.0
  0
LWPOLYLINE
  5
7DE1B343D9E195C
330
7DE1B343D9E1A6E
100
AcDbEntity
  8
TEXT
100
AcDbPolyline
 90
        2
 70
     0
 43
0.0001332181640625
 10
0.090753571944338
 20
0.5486461076928795
 10
0.0807622096396474
 20
0.6219160979272591
  0
LWPOLYLINE
  5
7DE1B343D9E1960
330
7DE1B343D9E1A6E
100
AcDbEntity
  8
TEXT
100
AcDbPolyline
 90
        2
 70
     0
 43
0.0001332181640625
 10
0.0807622096396474
 20
0.5952724651147581
 10
0.090753571944338
 20
0.5353242912866325
  0
LWPOLYLINE
  5
7DE1B343D9E1964
330
7DE1B343D9E1A6E
100
AcDbEntity
  8
TEXT
100
AcDbPolyline
 90
        3
 70
     0
 43
0.0006660908203125
 10
0.2339630983115248
 20
0.5086806584741315
 10
0.2339630983115248
 20
0.6219160979272591
 10
0.120727658858399
 20
0.6219160979272591
  0
LWPOLYLINE
  5
7DE1B343D9E1969
330
7DE1B343D9E1A6E
100
AcDbEntity
  8
TEXT
100
AcDbPolyline
 90
        3
 70
     0
 43
0.0006660908203125
 10
0.2073194654990238
 20
0.5086806584741315
 10
0.2073194654990238
 20
0.5952724651147581
 10
0.120727658858399
 20
0.5952724651147581
  0
LWPOLYLINE
  5
7DE1B343D9E196E
330
7DE1B343D9E1A6E
100
AcDbEntity
  8
TEXT
100
AcDbPolyline
 90
        2
 70
     0
 43
0.0001332181640625
 10
0.2073194654990238
 20
0.5952724651147581
 10
0.1473712916709
 20
0.5353242912866325
  0
LWPOLYLINE
  5
7DE1B343D9E1972
330
7DE1B343D9E1A6E
100
AcDbEntity
  8
TEXT
100
AcDbPolyline
 90
        2
 70
     0
 43
0.0001332181640625
 10
0.120727658858399
 20
0.5952724651147581
 10
0.1107362965537102
 20
0.5353242912866325
  0
LWPOLYLINE
  5
7DE1B343D9E1976
330
7DE1B343D9E1A6E
100
AcDbEntity
  8
TEXT
100
AcDbPolyline
 90
        2
 70
     0
 43
0.0001332181640625
 10
0.120727658858399
 20
0.6219160979272591
 10
0.1107362965537102
 20
0.5486461076928795
  0
LWPOLYLINE
  5
7DE1B343D9E197A
330
7DE1B343D9E1A6E
100
AcDbEntity
  8
TEXT
100
AcDbPolyline
 90
        2
 70
     0
 43
0.0001332181640625
 10
0.1606931080771488
 20
0.4986892961694427
 10
0.2339630983115248
 20
0.5086806584741315
  0
LWPOLYLINE
  5
7DE1B343D9E197E
330
7DE1B343D9E1A6E
100
AcDbEntity
  8
TEXT
100
AcDbPolyline
 90
        2
 70
     0
 43
0.0001332181640625
 10
0.2073194654990238
 20
0.5086806584741315
 10
0.1473712916709
 20
0.4986892961694427
  0
LWPOLYLINE
  5
7DE1B343D9E1982
330
7DE1B343D9E1A6E
100
AcDbEntity
  8
TEXT
100
AcDbPolyline
 90
        2
 70
     0
 43
0.0001332181640625
 10
0.2339630983115248
 20
0.4687152092553835
 10
0.1606931080771488
 20
0.4787065715600687
  0
LWPOLYLINE
  5
7DE1B343D9E1986
330
7DE1B343D9E1A6E
100
AcDbEntity
  8
TEXT
100
AcDbPolyline
 90
        2
 70
     0
 43
0.0001332181640625
 10
0.2073194654990238
 20
0.4687152092553835
 10
0.1473712916709
 20
0.4787065715600687
  0
LWPOLYLINE
  5
7DE1B343D9E198A
330
7DE1B343D9E1A6E
100
AcDbEntity
  8
TEXT
100
AcDbPolyline
 90
        2
 70
     0
 43
0.0001332181640625
 10
0.2073194654990238
 20
0.3821234026147569
 10
0.1473712916709
 20
0.4420715764428824
  0
LWPOLYLINE
  5
7DE1B343D9E198E
330
7DE1B343D9E1A6E
100
AcDbEntity
  8
TEXT
100
AcDbPolyline
 90
        3
 70
     0
 43
0.0006660908203125
 10
0.120727658858399
 20
0.3821234026147569
 10
0.2073194654990238
 20
0.3821234026147569
 10
0.2073194654990238
 20
0.4687152092553835
  0
LWPOLYLINE
  5
7DE1B343D9E1993
330
7DE1B343D9E1A6E
100
AcDbEntity
  8
TEXT
100
AcDbPolyline
 90
        3
 70
     0
 43
0.0006660908203125
 10
0.120727658858399
 20
0.3554797698022558
 10
0.2339630983115248
 20
0.3554797698022558
 10
0.2339630983115248
 20
0.4687152092553835
  0
LWPOLYLINE
  5
7DE1B343D9E1998
330
7DE1B343D9E1A6E
100
AcDbEntity
  8
TEXT
100
AcDbPolyline
 90
        5
 70
     0
 43
0.0001332181640625
 10
0.090753571944338
 20
0.4287497600366319
 10
0.090753571944338
 20
0.4420715764428824
 10
0.0541185768271499
 20
0.4420715764428824
 10
0.0541185768271499
 20
0.4787065715600687
 10
0.0407967604208994
 20
0.4787065715600687
  0
LWPOLYLINE
  5
7DE1B343D9E199F
330
7DE1B343D9E1A6E
100
AcDbEntity
  8
TEXT
100
AcDbPolyline
 90
        2
 70
     0
 43
0.0006660908203125
 10
0.0807622096396474
 20
0.3821234026147569
 10
0.0807622096396474
 20
0.3554797698022558
  0
LWPOLYLINE
  5
7DE1B343D9E19A3
330
7DE1B343D9E1A6E
100
AcDbEntity
  8
TEXT
100
AcDbPolyline
 90
        2
 70
     0
 43
0.0001332181640625
 10
0.0807622096396474
 20
0.3821234026147569
 10
0.090753571944338
 20
0.4420715764428824
  0
LWPOLYLINE
  5
7DE1B343D9E19A7
330
7DE1B343D9E1A6E
100
AcDbEntity
  8
TEXT
100
AcDbPolyline
 90
        2
 70
     0
 43
0.0001332181640625
 10
0.0807622096396474
 20
0.3554797698022558
 10
0.090753571944338
 20
0.4287497600366319
  0
LWPOLYLINE
  5
7DE1B343D9E19AB
330
7DE1B343D9E1A6E
100
AcDbEntity
  8
TEXT
100
AcDbPolyline
 90
        5
 70
     0
 43
0.0001332181640625
 10
0.0407967604208994
 20
0.4986892961694427
 10
0.0541185768271482
 20
0.4986892961694427
 10
0.0541185768271482
 20
0.5353242912866325
 10
0.090753571944338
 20
0.5353242912866325
 10
0.090753571944338
 20
0.5486461076928795
  0
LWPOLYLINE
  5
7DE1B343D9E19B2
330
7DE1B343D9E1A6E
100
AcDbEntity
  8
TEXT
100
AcDbPolyline
 90
        5
 70
     0
 43
0.0001332181640625
 10
0.1107362965537102
 20
0.5486461076928795
 10
0.1107362965537102
 20
0.5353242912866325
 10
0.1473712916709
 20
0.5353242912866325
 10
0.1473712916709
 20
0.4986892961694427
 10
0.1606931080771488
 20
0.4986892961694427
  0
LWPOLYLINE
  5
7DE1B343D9E19B9
330
7DE1B343D9E1A6E
100
AcDbEntity
  8
TEXT
100
AcDbPolyline
 90
        2
 70
     0
 43
0.0001332181640625
 10
0.120727658858399
 20
0.3821234026147569
 10
0.1107362965537102
 20
0.4420715764428824
  0
LWPOLYLINE
  5
7DE1B343D9E19BD
330
7DE1B343D9E1A6E
100
AcDbEntity
  8
TEXT
100
AcDbPolyline
 90
        2
 70
     0
 43
0.0001332181640625
 10
0.1107362965537102
 20
0.4287497600366319
 10
0.120727658858399
 20
0.3554797698022558
  0
LWPOLYLINE
  5
7DE1B343D9E19C1
330
7DE1B343D9E1A6E
100
AcDbEntity
  8
TEXT
100
AcDbPolyline
 90
        2
 70
     0
 43
0.0006660908203125
 10
0.120727658858399
 20
0.3821234026147569
 10
0.120727658858399
 20
0.3554797698022558
  0
LWPOLYLINE
  5
7DE1B343D9E19C5
330
7DE1B343D9E1A6E
100
AcDbEntity
  8
TEXT
100
AcDbPolyline
 90
        5
 70
     0
 43
0.0001332181640625
 10
0.1606931080771488
 20
0.4787065715600687
 10
0.1473712916709
 20
0.4787065715600687
 10
0.1473712916709
 20
0.4420715764428824
 10
0.1107362965537102
 20
0.4420715764428824
 10
0.1107362965537102
 20
0.4287497600366319
  0
LWPOLYLINE
  5
7DE1B343D9E19CC
330
7DE1B343D9E1A6E
100
AcDbEntity
  8
TEXT
100
AcDbPolyline
 90
        2
 70
     0
 43
0.0006660908203125
 10
0.2073194654990238
 20
0.5086806584741315
 10
0.2339630983115248
 20
0.5086806584741315
  0
LWPOLYLINE
  5
7DE1B343D9E19D0
330
7DE1B343D9E1A6E
100
AcDbEntity
  8
TEXT
100
AcDbPolyline
 90
        2
 70
     0
 43
0.0006660908203125
 10
0.2073194654990238
 20
0.4687152092553835
 10
0.2339630983115248
 20
0.4687152092553835
  0
LINE
  5
7DE1B343D9E19D4
330
7DE1B343D9E1A6E
100
AcDbEntity
  8
TEXT
100
AcDbLine
 10
0.5040772351595498
 20
0.5576394032704901
 30
0.0
 11
0.670982889188521
 21
0.5576394032704901
 31
0.0
  0
LINE
  5
7DE1B343D9E19D5
330
7DE1B343D9E1A6E
100
AcDbEntity
  8
TEXT
100
AcDbLine
 10
0.5696773714038508
 20
0.5218346816598622
 30
0.0
 11
0.5040772351595498
 21
0.5218346816598622
 31
0.0
  0
LINE
  5
7DE1B343D9E19D6
330
7DE1B343D9E1A6E
100
AcDbEntity
  8
TEXT
100
AcDbLine
 10
0.4167524455987981
 20
0.3554430649387446
 30
0.0
 11
0.5696773714038508
 21
0.3554430649387446
 31
0.0
  0
LINE
  5
7DE1B343D9E19D7
330
7DE1B343D9E1A6E
100
AcDbEntity
  8
TEXT
100
AcDbLine
 10
0.5746177453101305
 20
0.4238000712721839
 30
0.0
 11
0.4167524455987964
 21
0.4238000712721839
 31
0.0
  0
LINE
  5
7DE1B343D9E19D8
330
7DE1B343D9E1A6E
100
AcDbEntity
  8
TEXT
100
AcDbLine
 10
0.4988399050453017
 20
0.4577411790342485
 30
0.0
 11
0.5746177453101305
 21
0.4577411790342485
 31
0.0
  0
ARC
  5
7DE1B343D9E19D9
330
7DE1B343D9E1A6E
100
AcDbEntity
  8
TEXT
100
AcDbCircle
 10
0.5040772351595506
 20
0.5397370424651779
 30
0.0
 40
0.017902360805315
100
AcDbArc
 50
90.0
 51
270.0
  0
LINE
  5
7DE1B343D9E19DA
330
7DE1B343D9E1A6E
100
AcDbEntity
  8
TEXT
100
AcDbLine
 10
0.4167524455987964
 20
0.4238000712721839
 30
0.0
 11
0.4167524455987981
 21
0.3554430649387446
 31
0.0
  0
LINE
  5
7DE1B343D9E19DB
330
7DE1B343D9E1A6E
100
AcDbEntity
  8
TEXT
100
AcDbLine
 10
0.670982889188521
 20
0.5576394032704901
 30
0.0
 11
0.670982889188521
 21
0.4152354562767944
 31
0.0
  0
ARC
  5
7DE1B343D9E19DC
330
7DE1B343D9E1A6E
100
AcDbEntity
  8
TEXT
100
AcDbCircle
 10
0.5696773714038517
 20
0.4386388732993016
 30
0.0
 40
0.0831958083605586
100
AcDbArc
 50
270.0
 51
90.0
  0
ARC
  5
7DE1B343D9E19DD
330
7DE1B343D9E1A6E
100
AcDbEntity
  8
TEXT
100
AcDbCircle
 10
0.5746177453101314
 20
0.440770625153218
 30
0.0
 40
0.0169705538810321
100
AcDbArc
 50
270.0
 51
90.0
  0
LWPOLYLINE
  5
7DE1B343D9E19DE
330
7DE1B343D9E1A6E
100
AcDbEntity
  8
TEXT
100
AcDbPolyline
 90
        2
 70
     0
 43
0.0006660908203125
 10
0.0807622096396474
 20
0.5952724651147581
 10
0.0807622096396474
 20
0.6219160979272591
  0
LWPOLYLINE
  5
7DE1B343D9E19E2
330
7DE1B343D9E1A6E
100
AcDbEntity
  8
TEXT
100
AcDbPolyline
 90
        2
 70
     0
 43
0.0006660908203125
 10
0.120727658858399
 20
0.5952724651147581
 10
0.120727658858399
 20
0.6219160979272591
  0
LINE
  5
7DE1B343D9E19E6
330
7DE1B343D9E1A6E
100
AcDbEntity
  8
TEXT
100
AcDbLine
 10
0.6745716579438139
 20
0.6219160979272555
 30
0.0
 11
0.4988399050453017
 21
0.6219160979272555
 31
0.0
  0
LINE
  5
7DE1B343D9E19E7
330
7DE1B343D9E1A6E
100
AcDbEntity
  8
TEXT
100
AcDbLine
 10
0.6745716579438139
 20
0.6563040155213937
 30
0.0
 11
0.6745716579438139
 21
0.6219160979272555
 31
0.0
  0
LINE
  5
7DE1B343D9E19E8
330
7DE1B343D9E1A6E
100
AcDbEntity
  8
TEXT
100
AcDbLine
 10
0.865043549963666
 20
0.521044101814135
 30
0.0
 11
0.8064132289317281
 21
0.6219160979272555
 31
0.0
  0
LINE
  5
7DE1B343D9E19E9
330
7DE1B343D9E1A6E
100
AcDbEntity
  8
TEXT
100
AcDbLine
 10
0.9237921127695315
 20
0.6219160979272555
 30
0.0
 11
0.865043549963666
 21
0.521044101814135
 31
0.0
  0
LINE
  5
7DE1B343D9E19EA
330
7DE1B343D9E1A6E
100
AcDbEntity
  8
TEXT
100
AcDbLine
 10
1.020722738129272
 20
0.4378309030417438
 30
0.0
 11
1.020722738129272
 21
0.6899275756660661
 31
0.0
  0
LINE
  5
7DE1B343D9E19EB
330
7DE1B343D9E1A6E
100
AcDbEntity
  8
TEXT
100
AcDbLine
 10
1.053034592266933
 20
0.6219160979272555
 30
0.0
 11
1.053034592266933
 21
0.4210518911948473
 31
0.0
  0
LINE
  5
7DE1B343D9E19EC
330
7DE1B343D9E1A6E
100
AcDbEntity
  8
TEXT
100
AcDbLine
 10
1.053034592266933
 20
0.4210518911948473
 30
0.0
 11
1.036040955382331
 21
0.4210518911948473
 31
0.0
  0
LINE
  5
7DE1B343D9E19ED
330
7DE1B343D9E1A6E
100
AcDbEntity
  8
TEXT
100
AcDbLine
 10
1.021862311625467
 20
0.3554430649387446
 30
0.0
 11
1.119865645324902
 21
0.3554430649387446
 31
0.0
  0
LINE
  5
7DE1B343D9E19EE
330
7DE1B343D9E1A6E
100
AcDbEntity
  8
TEXT
100
AcDbLine
 10
0.8554433129667117
 20
0.3754015710437575
 30
0.0
 11
0.9527430190601563
 21
0.5397517819790256
 31
0.0
  0
ARC
  5
7DE1B343D9E19EF
330
7DE1B343D9E1A6E
100
AcDbEntity
  8
TEXT
100
AcDbCircle
 10
0.8213997530544979
 20
0.3949907872124403
 30
0.0
 40
0.0392772371940762
100
AcDbArc
 50
270.1604552698595
 51
330.0831797321295
  0
LINE
  5
7DE1B343D9E19F0
330
7DE1B343D9E1A6E
100
AcDbEntity
  8
TEXT
100
AcDbLine
 10
0.7248694966686267
 20
0.3554430649387446
 30
0.0
 11
0.8215097477436209
 21
0.3557137040370268
 31
0.0
  0
LWPOLYLINE
  5
7DE1B343D9E19F1
330
7DE1B343D9E1A6E
100
AcDbEntity
  8
TEXT
100
AcDbPolyline
 90
        6
 70
     1
 43
0.0
 10
0.7673933002437763
 20
0.5576394032704901
 10
0.7370767060235682
 20
0.5576394032704901
 10
0.7370767060235682
 20
0.4345284052155958
 42
0.407328721240804
 10
0.7486203571850445
 20
0.4227094905392097
 10
0.8092420562297753
 20
0.4227094905392097
 10
0.8267073966370933
 20
0.4555217195826888
  0
LINE
  5
7DE1B343D9E19F9
330
7DE1B343D9E1A6E
100
AcDbEntity
  8
TEXT
100
AcDbLine
 10
0.9527430190601563
 20
0.5397517819790256
 30
0.0
 11
0.9527430190601563
 21
0.4069944071536693
 31
0.0
  0
ARC
  5
7DE1B343D9E19FA
330
7DE1B343D9E1A6E
100
AcDbEntity
  8
TEXT
100
AcDbCircle
 10
1.036040955382329
 20
0.4364336974382728
 30
0.0
 40
0.0153818062434269
100
AcDbArc
 50
174.7883570302258
 51
270.0
  0
LWPOLYLINE
  5
7DE1B343D9E19FB
330
7DE1B343D9E1A6E
100
AcDbEntity
  8
TEXT
100
AcDbPolyline
 90
        2
 70
     0
 43
0.0
 10
0.9527430190601545
 20
0.4069944071536728
 42
0.3318488747599744
 10
1.021862311625467
 20
0.3554430649387446
 42
-6.868794160588311
  0
LINE
  5
7DE1B343D9E19FF
330
7DE1B343D9E1A6E
100
AcDbEntity
  8
TEXT
100
AcDbLine
 10
1.177254714314163
 20
0.3554430649387446
 30
0.0
 11
1.244312761096003
 21
0.3554430649387446
 31
0.0
  0
LINE
  5
7DE1B343D9E1A00
330
7DE1B343D9E1A6E
100
AcDbEntity
  8
TEXT
100
AcDbLine
 10
1.177254714314163
 20
0.5500856141043802
 30
0.0
 11
1.177254714314163
 21
0.3554430649387446
 31
0.0
  0
LINE
  5
7DE1B343D9E1A01
330
7DE1B343D9E1A6E
100
AcDbEntity
  8
TEXT
100
AcDbLine
 10
1.119865645324902
 20
0.5576394032704901
 30
0.0
 11
1.169700925148049
 21
0.5576394032704901
 31
0.0
  0
LINE
  5
7DE1B343D9E1A02
330
7DE1B343D9E1A6E
100
AcDbEntity
  8
TEXT
100
AcDbLine
 10
1.119865645324902
 20
0.3554430649387446
 30
0.0
 11
1.119865645324902
 21
0.5576394032704901
 31
0.0
  0
LWPOLYLINE
  5
7DE1B343D9E1A03
330
7DE1B343D9E1A6E
100
AcDbEntity
  8
TEXT
100
AcDbPolyline
 90
        2
 70
     0
 43
0.0
 10
1.169700925148048
 20
0.5576394032704901
 42
-0.4142135623731017
 10
1.177254714314161
 20
0.5500856141043802
 42
-0.9999999999999998
  0
LINE
  5
7DE1B343D9E1A07
330
7DE1B343D9E1A6E
100
AcDbEntity
  8
TEXT
100
AcDbLine
 10
1.375510925925733
 20
0.5576394032704901
 30
0.0
 11
1.375510925925733
 21
0.4825869971962835
 31
0.0
  0
LINE
  5
7DE1B343D9E1A08
330
7DE1B343D9E1A6E
100
AcDbEntity
  8
TEXT
100
AcDbLine
 10
1.244312761096003
 20
0.5576394032704901
 30
0.0
 11
1.298446358016953
 21
0.5576394032704901
 31
0.0
  0
LINE
  5
7DE1B343D9E1A09
330
7DE1B343D9E1A6E
100
AcDbEntity
  8
TEXT
100
AcDbLine
 10
1.244312761096003
 20
0.3554430649387446
 30
0.0
 11
1.244312761096003
 21
0.5576394032704901
 31
0.0
  0
LWPOLYLINE
  5
7DE1B343D9E1A0A
330
7DE1B343D9E1A6E
100
AcDbEntity
  8
TEXT
100
AcDbPolyline
 90
        2
 70
     0
 43
0.0
 10
1.298446358016951
 20
0.5576394032704901
 42
-0.4142135623731017
 10
1.306000147183065
 20
0.5500856141043802
 42
-0.9999999999999998
  0
LWPOLYLINE
  5
7DE1B343D9E1A0E
330
7DE1B343D9E1A6E
100
AcDbEntity
  8
TEXT
100
AcDbPolyline
 90
        4
 70
     0
 43
0.0
 10
1.306000147183065
 20
0.5500856141043802
 10
1.306000147183065
 20
0.3554430649387446
 10
1.374478430470923
 20
0.3554430649387446
 10
1.374478430470923
 20
0.3989340098891827
 42
-1.714843617202739
  0
LINE
  5
7DE1B343D9E1A14
330
7DE1B343D9E1A6E
100
AcDbEntity
  8
TEXT
100
AcDbLine
 10
0.734614262787821
 20
0.6219160979272555
 30
0.0
 11
0.734614262787821
 21
0.6563040155213937
 31
0.0
  0
LINE
  5
7DE1B343D9E1A15
330
7DE1B343D9E1A6E
100
AcDbEntity
  8
TEXT
100
AcDbLine
 10
0.8064132289317281
 20
0.6219160979272555
 30
0.0
 11
0.734614262787821
 21
0.6219160979272555
 31
0.0
  0
LINE
  5
7DE1B343D9E1A16
330
7DE1B343D9E1A6E
100
AcDbEntity
  8
TEXT
100
AcDbLine
 10
0.9539140255629078
 20
0.6219160979272555
 30
0.0
 11
0.9237921127695315
 21
0.6219160979272555
 31
0.0
  0
LINE
  5
7DE1B343D9E1A17
330
7DE1B343D9E1A6E
100
AcDbEntity
  8
TEXT
100
AcDbLine
 10
0.9539140255629078
 20
0.6899275756660661
 30
0.0
 11
0.9539140255629078
 21
0.6219160979272555
 31
0.0
  0
LINE
  5
7DE1B343D9E1A18
330
7DE1B343D9E1A6E
100
AcDbEntity
  8
TEXT
100
AcDbLine
 10
1.020722738129272
 20
0.6899275756660661
 30
0.0
 11
0.9539140255629078
 21
0.6899275756660661
 31
0.0
  0
LWPOLYLINE
  5
7DE1B343D9E1A19
330
7DE1B343D9E1A6E
100
AcDbEntity
  8
TEXT
100
AcDbPolyline
 90
        3
 70
     0
 43
0.0
 10
1.341134497727275
 20
0.6219160979272591
 10
1.22283433891123
 20
0.6219160979272591
 10
1.22283433891123
 20
0.5947486011663632
 42
-1.960274751411753
  0
LINE
  5
7DE1B343D9E1A1E
330
7DE1B343D9E1A6E
100
AcDbEntity
  8
TEXT
100
AcDbLine
 10
1.187052648198069
 20
0.6219160979272555
 30
0.0
 11
1.053034592266933
 21
0.6219160979272555
 31
0.0
  0
LWPOLYLINE
  5
7DE1B343D9E1A1F
330
7DE1B343D9E1A6E
100
AcDbEntity
  8
TEXT
100
AcDbPolyline
 90
        2
 70
     0
 43
0.0
 10
1.187052648198069
 20
0.6219160979272591
 42
-0.3328679258950098
 10
1.22283433891123
 20
0.5947486011663632
 42
6.772930709997214
  0
LINE
  5
7DE1B343D9E1A23
330
7DE1B343D9E1A6E
100
AcDbEntity
  8
TEXT
100
AcDbLine
 10
1.376916188440441
 20
0.6219160979272555
 30
0.0
 11
1.376916188440441
 21
0.5935935521576117
 31
0.0
  0
LWPOLYLINE
  5
7DE1B343D9E1A24
330
7DE1B343D9E1A6E
100
AcDbEntity
  8
TEXT
100
AcDbPolyline
 90
        2
 70
     0
 43
0.0
 10
1.341134497727275
 20
0.6219160979272591
 42
-0.3277054968067132
 10
1.37691618844044
 20
0.5935935521576152
 42
6.667889725900311
  0
LINE
  5
7DE1B343D9E1A28
330
7DE1B343D9E1A6E
100
AcDbEntity
  8
TEXT
100
AcDbLine
 10
1.590708036532542
 20
0.5167041193738282
 30
0.0
 11
1.54695726535064
 21
0.5989543953699734
 31
0.0
  0
LINE
  5
7DE1B343D9E1A29
330
7DE1B343D9E1A6E
100
AcDbEntity
  8
TEXT
100
AcDbLine
 10
1.590708036532542
 20
0.6219160979272555
 30
0.0
 11
1.590708036532542
 21
0.5167041193738282
 31
0.0
  0
LINE
  5
7DE1B343D9E1A2A
330
7DE1B343D9E1A6E
100
AcDbEntity
  8
TEXT
100
AcDbLine
 10
1.818391775470911
 20
0.5460507715157175
 30
0.0
 11
1.818391775470911
 21
0.6873803036948562
 31
0.0
  0
LINE
  5
7DE1B343D9E1A2B
330
7DE1B343D9E1A6E
100
AcDbEntity
  8
TEXT
100
AcDbLine
 10
1.865489934026895
 20
0.6219160979272555
 30
0.0
 11
1.818391775470911
 21
0.5460507715157175
 31
0.0
  0
LINE
  5
7DE1B343D9E1A2C
330
7DE1B343D9E1A6E
100
AcDbEntity
  8
TEXT
100
AcDbLine
 10
1.875924650790818
 20
0.512022854986282
 30
0.0
 11
1.940481766756523
 21
0.6219160979272555
 31
0.0
  0
LINE
  5
7DE1B343D9E1A2D
330
7DE1B343D9E1A6E
100
AcDbEntity
  8
TEXT
100
AcDbLine
 10
1.754556784248137
 20
0.3554430649387446
 30
0.0
 11
1.818934968566758
 21
0.3554430649387446
 31
0.0
  0
LWPOLYLINE
  5
7DE1B343D9E1A2E
330
7DE1B343D9E1A6E
100
AcDbEntity
  8
TEXT
100
AcDbPolyline
 90
        2
 70
     0
 43
0.0
 10
1.594647713837579
 20
0.3989340098891827
 42
-0.2901071551932486
 10
1.551571780969935
 20
0.3554430649387446
 42
-5.328517124445184
  0
ARC
  5
7DE1B343D9E1A32
330
7DE1B343D9E1A6E
100
AcDbEntity
  8
TEXT
100
AcDbCircle
 10
1.48271719931302
 20
0.5292800282704928
 30
0.0
 40
0.028359375
100
AcDbArc
 50
25.78218179591245
 51
90.0
  0
LINE
  5
7DE1B343D9E1A33
330
7DE1B343D9E1A6E
100
AcDbEntity
  8
TEXT
100
AcDbLine
 10
1.518518274617143
 20
0.5203644298083578
 30
0.0
 11
1.508253514203579
 21
0.5416149693810521
 31
0.0
  0
LINE
  5
7DE1B343D9E1A34
330
7DE1B343D9E1A6E
100
AcDbEntity
  8
TEXT
100
AcDbLine
 10
1.43623028483376
 20
0.5203644298083578
 30
0.0
 11
1.518518274617143
 21
0.5203644298083578
 31
0.0
  0
LWPOLYLINE
  5
7DE1B343D9E1A35
330
7DE1B343D9E1A6E
100
AcDbEntity
  8
TEXT
100
AcDbPolyline
 90
        4
 70
     1
 43
0.0
 10
1.531449315900042
 20
0.4584070429227698
 10
1.442788997240184
 20
0.4584070429227698
 42
0.9999999999999998
 10
1.442788997240184
 20
0.4160085024189091
 10
1.531449315900042
 20
0.4160085024189091
 42
1.0
  0
LWPOLYLINE
  5
7DE1B343D9E1A3B
330
7DE1B343D9E1A6E
100
AcDbEntity
  8
TEXT
100
AcDbPolyline
 90
        2
 70
     0
 43
0.0
 10
1.417554363338558
 20
0.3554430649387446
 10
1.551571780969935
 20
0.3554430649387446
 42
0.9999999999999998
  0
LINE
  5
7DE1B343D9E1A3F
330
7DE1B343D9E1A6E
100
AcDbEntity
  8
TEXT
100
AcDbLine
 10
1.677908802955574
 20
0.5576394032704901
 30
0.0
 11
1.754556784248132
 21
0.5576394032704901
 31
0.0
  0
LINE
  5
7DE1B343D9E1A40
330
7DE1B343D9E1A6E
100
AcDbEntity
  8
TEXT
100
AcDbLine
 10
1.754556784248132
 20
0.5576394032704901
 30
0.0
 11
1.754556784248137
 21
0.3554430649387446
 31
0.0
  0
ARC
  5
7DE1B343D9E1A41
330
7DE1B343D9E1A6E
100
AcDbEntity
  8
TEXT
100
AcDbCircle
 10
1.677908802955573
 20
0.5327335279878274
 30
0.0
 40
0.0249058752826653
100
AcDbArc
 50
89.99971217465335
 51
179.9999999999985
  0
LINE
  5
7DE1B343D9E1A42
330
7DE1B343D9E1A6E
100
AcDbEntity
  8
TEXT
100
AcDbLine
 10
1.653002927672915
 20
0.3554430649387446
 30
0.0
 11
1.65300292767291
 21
0.532733570370213
 31
0.0
  0
LWPOLYLINE
  5
7DE1B343D9E1A43
330
7DE1B343D9E1A6E
100
AcDbEntity
  8
TEXT
100
AcDbPolyline
 90
        2
 70
     0
 43
0.0
 10
1.594647713837579
 20
0.3554430649387446
 10
1.653002927672913
 20
0.3554430649387446
  0
LWPOLYLINE
  5
7DE1B343D9E1A47
330
7DE1B343D9E1A6E
100
AcDbEntity
  8
TEXT
100
AcDbPolyline
 90
        2
 70
     0
 43
0.0
 10
1.594647713837579
 20
0.3989340098891827
 10
1.594647713837579
 20
0.3554430649387446
  0
LINE
  5
7DE1B343D9E1A4B
330
7DE1B343D9E1A6E
100
AcDbEntity
  8
TEXT
100
AcDbLine
 10
1.971416874154428
 20
0.3554430649387446
 30
0.0
 11
1.875924650790818
 21
0.512022854986282
 31
0.0
  0
LINE
  5
7DE1B343D9E1A4C
330
7DE1B343D9E1A6E
100
AcDbEntity
  8
TEXT
100
AcDbLine
 10
1.894838501778222
 20
0.3554430649387446
 30
0.0
 11
1.971416874154428
 21
0.3554430649387446
 31
0.0
  0
LINE
  5
7DE1B343D9E1A4D
330
7DE1B343D9E1A6E
100
AcDbEntity
  8
TEXT
100
AcDbLine
 10
1.818934968566758
 20
0.4870226334149248
 30
0.0
 11
1.894838501778222
 21
0.3554430649387446
 31
0.0
  0
LINE
  5
7DE1B343D9E1A4E
330
7DE1B343D9E1A6E
100
AcDbEntity
  8
TEXT
100
AcDbLine
 10
1.818934968566758
 20
0.3554430649387446
 30
0.0
 11
1.818934968566758
 21
0.4870226334149248
 31
0.0
  0
LINE
  5
7DE1B343D9E1A4F
330
7DE1B343D9E1A6E
100
AcDbEntity
  8
TEXT
100
AcDbLine
 10
1.818391775470911
 20
0.6873803036948562
 30
0.0
 11
1.750076896921637
 21
0.6873803036948562
 31
0.0
  0
ARC
  5
7DE1B343D9E1A50
330
7DE1B343D9E1A6E
100
AcDbEntity
  8
TEXT
100
AcDbCircle
 10
1.509721157880431
 20
0.5803325308063532
 30
0.0
 40
0.0416329381542859
100
AcDbArc
 50
26.56974201007528
 51
87.20939649401342
  0
LINE
  5
7DE1B343D9E1A51
330
7DE1B343D9E1A6E
100
AcDbEntity
  8
TEXT
100
AcDbLine
 10
1.654604942832043
 20
0.6219160979272555
 30
0.0
 11
1.590708036532542
 21
0.6219160979272555
 31
0.0
  0
LINE
  5
7DE1B343D9E1A52
330
7DE1B343D9E1A6E
100
AcDbEntity
  8
TEXT
100
AcDbLine
 10
1.654604942832043
 20
0.5943684480663809
 30
0.0
 11
1.654604942832043
 21
0.6219160979272555
 31
0.0
  0
ARC
  5
7DE1B343D9E1A53
330
7DE1B343D9E1A6E
100
AcDbEntity
  8
TEXT
100
AcDbCircle
 10
1.68579775989515
 20
0.5906703706449907
 30
0.0
 40
0.0314112657011332
100
AcDbArc
 50
95.88484768694724
 51
173.2388340632136
  0
LINE
  5
7DE1B343D9E1A54
330
7DE1B343D9E1A6E
100
AcDbEntity
  8
TEXT
100
AcDbLine
 10
1.750076896921632
 20
0.6219160979272555
 30
0.0
 11
1.682577179272116
 21
0.6219160979272555
 31
0.0
  0
LINE
  5
7DE1B343D9E1A55
330
7DE1B343D9E1A6E
100
AcDbEntity
  8
TEXT
100
AcDbLine
 10
1.750076896921637
 20
0.6873803036948562
 30
0.0
 11
1.750076896921632
 21
0.6219160979272555
 31
0.0
  0
LINE
  5
7DE1B343D9E1A56
330
7DE1B343D9E1A6E
100
AcDbEntity
  8
TEXT
100
AcDbLine
 10
1.940481766756523
 20
0.6219160979272555
 30
0.0
 11
1.865489934026897
 21
0.6219160979272555
 31
0.0
  0
ENDSEC
  0
SECTION
  2
OBJECTS
  0
DICTIONARY
  5
7DE1B343D9E1A62
330
0
100
AcDbDictionary
  3
ACAD_GROUP
350
7DE1B343D9E1A63
  3
ACAD_LAYOUT
350
7DE1B343D9E1A88
  3
ACAD_MLINESTYLE
350
7DE1B343D9E1A64
  3
ACAD_PLOTSETTINGS
350
7DE1B343D9E1A89
  3
ACAD_PLOTSTYLENAME
350
7DE1B343D9E1A86
  3
ACDBHEADERROUNDTRIPXREC
350
7DE1B343D9E1A93
  3
ACDBVARIABLEDICTIONARY
350
7DE1B343D9E1A90
  0
DICTIONARY
  5
7DE1B343D9E1AB5
330
7DE1B343D9E1A6E
100
AcDbDictionary
280
     1
  3
ACAD_LAYOUTSELFREF
360
7DE1B343D9E1AB6
  0
DICTIONARY
  5
7DE1B343D9E1AB3
330
7DE1B343D9E1A6B
100
AcDbDictionary
280
     1
  3
ACAD_LAYOUTSELFREF
360
7DE1B343D9E1AB4
  0
DICTIONARY
  5
7DE1B343D9E1A63
102
{ACAD_REACTORS
330
7DE1B343D9E1A62
102
}
330
7DE1B343D9E1A62
100
AcDbDictionary
  0
DICTIONARY
  5
7DE1B343D9E1A88
102
{ACAD_REACTORS
330
7DE1B343D9E1A62
102
}
330
7DE1B343D9E1A62
100
AcDbDictionary
  0
DICTIONARY
  5
7DE1B343D9E1A64
102
{ACAD_REACTORS
330
7DE1B343D9E1A62
102
}
330
7DE1B343D9E1A62
100
AcDbDictionary
  3
STANDARD
350
7DE1B343D9E1A71
  0
DICTIONARY
  5
7DE1B343D9E1A89
102
{ACAD_REACTORS
330
7DE1B343D9E1A62
102
}
330
7DE1B343D9E1A62
100
AcDbDictionary
  0
ACDBDICTIONARYWDFLT
  5
7DE1B343D9E1A86
102
{ACAD_REACTORS
330
7DE1B343D9E1A62
102
}
330
7DE1B343D9E1A62
100
AcDbDictionary
281
     1
  3
Normal
350
7DE1B343D9E1A87
100
AcDbDictionaryWithDefault
340
7DE1B343D9E1A87
  0
DICTIONARY
  5
7DE1B343D9E1A93
102
{ACAD_REACTORS
330
7DE1B343D9E1A62
102
}
330
7DE1B343D9E1A62
100
AcDbDictionary
  3
CEPSNTYPE
350
7DE1B343D9E1A9D
  3
FINGERPRINTGUID
350
7DE1B343D9E1A9E
  3
HYPERLINKBASE
350
7DE1B343D9E1A96
  3
INSUNITS
350
7DE1B343D9E1A9C
  3
LAYOUTDICT
350
7DE1B343D9E1A98
  3
LWETCUNION
350
7DE1B343D9E1A9B
  3
PLOTSETDICT
350
7DE1B343D9E1A99
  3
PLOTSTYLNAMDICT
350
7DE1B343D9E1A9A
  3
PSVPSCALE
350
7DE1B343D9E1AA0
  3
PUCSBASE
350
7DE1B343D9E1AA3
  3
PUCSORGBACK
350
7DE1B343D9E1AA9
  3
PUCSORGBOTTOM
350
7DE1B343D9E1AA5
  3
PUCSORGFRONT
350
7DE1B343D9E1AA8
  3
PUCSORGLEFT
350
7DE1B343D9E1AA6
  3
PUCSORGRIGHT
350
7DE1B343D9E1AA7
  3
PUCSORGTOP
350
7DE1B343D9E1AA4
  3
PUCSORTHOREF
350
7DE1B343D9E1AA1
  3
PUCSORTHOVIEW
350
7DE1B343D9E1AA2
  3
STYLESHEET
350
7DE1B343D9E1A97
  3
TSTACKALIGN
350
7DE1B343D9E1A94
  3
TSTACKSIZE
350
7DE1B343D9E1A95
  3
UCSBASE
350
7DE1B343D9E1AAC
  3
UCSORGBACK
350
7DE1B343D9E1AB2
  3
UCSORGBOTTOM
350
7DE1B343D9E1AAE
  3
UCSORGFRONT
350
7DE1B343D9E1AB1
  3
UCSORGLEFT
350
7DE1B343D9E1AAF
  3
UCSORGRIGHT
350
7DE1B343D9E1AB0
  3
UCSORGTOP
350
7DE1B343D9E1AAD
  3
UCSORTHOREF
350
7DE1B343D9E1AAA
  3
UCSORTHOVIEW
350
7DE1B343D9E1AAB
  3
VERSIONGUID
350
7DE1B343D9E1A9F
  0
DICTIONARY
  5
7DE1B343D9E1A90
102
{ACAD_REACTORS
330
7DE1B343D9E1A62
102
}
330
7DE1B343D9E1A62
100
AcDbDictionary
  3
DIMASSOC
350
7DE1B343D9E1A91
  0
XRECORD
  5
7DE1B343D9E1AB6
102
{ACAD_REACTORS
330
7DE1B343D9E1AB5
102
}
330
7DE1B343D9E1AB5
100
AcDbXrecord
340
7DE1B343D9E1A6E
  0
XRECORD
  5
7DE1B343D9E1AB4
102
{ACAD_REACTORS
330
7DE1B343D9E1AB3
102
}
330
7DE1B343D9E1AB3
100
AcDbXrecord
340
7DE1B343D9E1A6B
  0
MLINESTYLE
  5
7DE1B343D9E1A71
102
{ACAD_REACTORS
330
7DE1B343D9E1A64
102
}
330
7DE1B343D9E1A64
100
AcDbMlineStyle
  2
STANDARD
 70
     0
  3

 62
     0
 51
90.0
 52
90.0
 71
     2
 49
0.5
 62
   256
  6
BYLAYER
 49
-0.5
 62
   256
  6
BYLAYER
  0
ACDBPLACEHOLDER
  5
7DE1B343D9E1A87
102
{ACAD_REACTORS
330
7DE1B343D9E1A86
102
}
330
7DE1B343D9E1A86
100
AcDbPlaceHolder
280
     0
  0
XRECORD
  5
7DE1B343D9E1A9D
102
{ACAD_REACTORS
330
7DE1B343D9E1A93
102
}
330
7DE1B343D9E1A93
100
AcDbXrecord
 90
        0
  0
XRECORD
  5
7DE1B343D9E1A9E
102
{ACAD_REACTORS
330
7DE1B343D9E1A93
102
}
330
7DE1B343D9E1A93
100
AcDbXrecord
  1
{642F03E0-8DB9-11D6-88E6-0090279574E7}
  0
XRECORD
  5
7DE1B343D9E1A96
102
{ACAD_REACTORS
330
7DE1B343D9E1A93
102
}
330
7DE1B343D9E1A93
100
AcDbXrecord
  1

  0
XRECORD
  5
7DE1B343D9E1A9C
102
{ACAD_REACTORS
330
7DE1B343D9E1A93
102
}
330
7DE1B343D9E1A93
100
AcDbXrecord
 90
        0
  0
XRECORD
  5
7DE1B343D9E1A98
102
{ACAD_REACTORS
330
7DE1B343D9E1A93
102
}
330
7DE1B343D9E1A93
100
AcDbXrecord
340
7DE1B343D9E1A88
  0
XRECORD
  5
7DE1B343D9E1A9B
102
{ACAD_REACTORS
330
7DE1B343D9E1A93
102
}
330
7DE1B343D9E1A93
100
AcDbXrecord
 90
    14877
  0
XRECORD
  5
7DE1B343D9E1A99
102
{ACAD_REACTORS
330
7DE1B343D9E1A93
102
}
330
7DE1B343D9E1A93
100
AcDbXrecord
340
7DE1B343D9E1A89
  0
XRECORD
  5
7DE1B343D9E1A9A
102
{ACAD_REACTORS
330
7DE1B343D9E1A93
102
}
330
7DE1B343D9E1A93
100
AcDbXrecord
340
7DE1B343D9E1A86
  0
XRECORD
  5
7DE1B343D9E1AA0
102
{ACAD_REACTORS
330
7DE1B343D9E1A93
102
}
330
7DE1B343D9E1A93
100
AcDbXrecord
 40
0.0
  0
XRECORD
  5
7DE1B343D9E1AA3
102
{ACAD_REACTORS
330
7DE1B343D9E1A93
102
}
330
7DE1B343D9E1A93
100
AcDbXrecord
340
0
  0
XRECORD
  5
7DE1B343D9E1AA9
102
{ACAD_REACTORS
330
7DE1B343D9E1A93
102
}
330
7DE1B343D9E1A93
100
AcDbXrecord
 10
0.0
 20
0.0
 30
0.0
  0
XRECORD
  5
7DE1B343D9E1AA5
102
{ACAD_REACTORS
330
7DE1B343D9E1A93
102
}
330
7DE1B343D9E1A93
100
AcDbXrecord
 10
0.0
 20
0.0
 30
0.0
  0
XRECORD
  5
7DE1B343D9E1AA8
102
{ACAD_REACTORS
330
7DE1B343D9E1A93
102
}
330
7DE1B343D9E1A93
100
AcDbXrecord
 10
0.0
 20
0.0
 30
0.0
  0
XRECORD
  5
7DE1B343D9E1AA6
102
{ACAD_REACTORS
330
7DE1B343D9E1A93
102
}
330
7DE1B343D9E1A93
100
AcDbXrecord
 10
0.0
 20
0.0
 30
0.0
  0
XRECORD
  5
7DE1B343D9E1AA7
102
{ACAD_REACTORS
330
7DE1B343D9E1A93
102
}
330
7DE1B343D9E1A93
100
AcDbXrecord
 10
0.0
 20
0.0
 30
0.0
  0
XRECORD
  5
7DE1B343D9E1AA4
102
{ACAD_REACTORS
330
7DE1B343D9E1A93
102
}
330
7DE1B343D9E1A93
100
AcDbXrecord
 10
0.0
 20
0.0
 30
0.0
  0
XRECORD
  5
7DE1B343D9E1AA1
102
{ACAD_REACTORS
330
7DE1B343D9E1A93
102
}
330
7DE1B343D9E1A93
100
AcDbXrecord
340
0
  0
XRECORD
  5
7DE1B343D9E1AA2
102
{ACAD_REACTORS
330
7DE1B343D9E1A93
102
}
330
7DE1B343D9E1A93
100
AcDbXrecord
 70
     0
  0
XRECORD
  5
7DE1B343D9E1A97
102
{ACAD_REACTORS
330
7DE1B343D9E1A93
102
}
330
7DE1B343D9E1A93
100
AcDbXrecord
  1

  0
XRECORD
  5
7DE1B343D9E1A94
102
{ACAD_REACTORS
330
7DE1B343D9E1A93
102
}
330
7DE1B343D9E1A93
100
AcDbXrecord
 90
        1
  0
XRECORD
  5
7DE1B343D9E1A95
102
{ACAD_REACTORS
330
7DE1B343D9E1A93
102
}
330
7DE1B343D9E1A93
100
AcDbXrecord
 90
       70
  0
XRECORD
  5
7DE1B343D9E1AAC
102
{ACAD_REACTORS
330
7DE1B343D9E1A93
102
}
330
7DE1B343D9E1A93
100
AcDbXrecord
340
0
  0
XRECORD
  5
7DE1B343D9E1AB2
102
{ACAD_REACTORS
330
7DE1B343D9E1A93
102
}
330
7DE1B343D9E1A93
100
AcDbXrecord
 10
0.0
 20
0.0
 30
0.0
  0
XRECORD
  5
7DE1B343D9E1AAE
102
{ACAD_REACTORS
330
7DE1B343D9E1A93
102
}
330
7DE1B343D9E1A93
100
AcDbXrecord
 10
0.0
 20
0.0
 30
0.0
  0
XRECORD
  5
7DE1B343D9E1AB1
102
{ACAD_REACTORS
330
7DE1B343D9E1A93
102
}
330
7DE1B343D9E1A93
100
AcDbXrecord
 10
0.0
 20
0.0
 30
0.0
  0
XRECORD
  5
7DE1B343D9E1AAF
102
{ACAD_REACTORS
330
7DE1B343D9E1A93
102
}
330
7DE1B343D9E1A93
100
AcDbXrecord
 10
0.0
 20
0.0
 30
0.0
  0
XRECORD
  5
7DE1B343D9E1AB0
102
{ACAD_REACTORS
330
7DE1B343D9E1A93
102
}
330
7DE1B343D9E1A93
100
AcDbXrecord
 10
0.0
 20
0.0
 30
0.0
  0
XRECORD
  5
7DE1B343D9E1AAD
102
{ACAD_REACTORS
330
7DE1B343D9E1A93
102
}
330
7DE1B343D9E1A93
100
AcDbXrecord
 10
0.0
 20
0.0
 30
0.0
  0
XRECORD
  5
7DE1B343D9E1AAA
102
{ACAD_REACTORS
330
7DE1B343D9E1A93
102
}
330
7DE1B343D9E1A93
100
AcDbXrecord
340
0
  0
XRECORD
  5
7DE1B343D9E1AAB
102
{ACAD_REACTORS
330
7DE1B343D9E1A93
102
}
330
7DE1B343D9E1A93
100
AcDbXrecord
 70
     0
  0
XRECORD
  5
7DE1B343D9E1A9F
102
{ACAD_REACTORS
330
7DE1B343D9E1A93
102
}
330
7DE1B343D9E1A93
100
AcDbXrecord
  1
{642F03E2-8DB9-11D6-88E6-0090279574E7}
  0
DICTIONARYVAR
  5
7DE1B343D9E1A91
102
{ACAD_REACTORS
330
7DE1B343D9E1A90
102
}
330
7DE1B343D9E1A90
100
DictionaryVariables
280
     0
  1
1
  0
ENDSEC
  0
EOF
