  0
SECTION
  2
HEADER
  9
$ACADVER
  1
AC1014
  9
$ACADMAINTVER
 70
     9
  9
$DWGCODEPAGE
  3
ANSI_1252
  9
$INSBASE
 10
1.874999996740372
 20
1.617810533592287
 30
0.0
  9
$EXTMIN
 10
0.0765687264061838
 20
0.6004953666960163
 30
0.0
  9
$EXTMAX
 10
3.561788048153311
 20
1.750309671304182
 30
0.0
  9
$LIMMIN
 10
0.0
 20
0.0
  9
$LIMMAX
 10
18.0
 20
12.0
  9
$ORTHOMODE
 70
     1
  9
$REGENMODE
 70
     1
  9
$FILLMODE
 70
     1
  9
$QTEXTMODE
 70
     0
  9
$MIRRTEXT
 70
     0
  9
$DRAGMODE
 70
     2
  9
$LTSCALE
 40
1.0
  9
$OSMODE
 70
    39
  9
$ATTMODE
 70
     1
  9
$TEXTSIZE
 40
0.125
  9
$TRACEWID
 40
0.05
  9
$TEXTSTYLE
  7
ROMANS
  9
$CLAYER
  8
0
  9
$CELTYPE
  6
BYLAYER
  9
$CECOLOR
 62
   256
  9
$CELTSCALE
 40
1.0
  9
$DELOBJ
 70
     1
  9
$DISPSILH
 70
     1
  9
$DIMSCALE
 40
1.0
  9
$DIMASZ
 40
0.125
  9
$DIMEXO
 40
0.125
  9
$DIMDLI
 40
0.375
  9
$DIMRND
 40
0.0
  9
$DIMDLE
 40
0.0
  9
$DIMEXE
 40
0.125
  9
$DIMTP
 40
0.0
  9
$DIMTM
 40
0.0
  9
$DIMTXT
 40
0.125
  9
$DIMCEN
 40
-0.125
  9
$DIMTSZ
 40
0.0
  9
$DIMTOL
 70
     0
  9
$DIMLIM
 70
     0
  9
$DIMTIH
 70
     1
  9
$DIMTOH
 70
     1
  9
$DIMSE1
 70
     0
  9
$DIMSE2
 70
     0
  9
$DIMTAD
 70
     0
  9
$DIMZIN
 70
     4
  9
$DIMBLK
  1

  9
$DIMASO
 70
     1
  9
$DIMSHO
 70
     1
  9
$DIMPOST
  1

  9
$DIMAPOST
  1

  9
$DIMALT
 70
     0
  9
$DIMALTD
 70
     2
  9
$DIMALTF
 40
25.4
  9
$DIMLFAC
 40
1.0
  9
$DIMTOFL
 70
     0
  9
$DIMTVP
 40
0.0
  9
$DIMTIX
 70
     1
  9
$DIMSOXD
 70
     0
  9
$DIMSAH
 70
     0
  9
$DIMBLK1
  1

  9
$DIMBLK2
  1

  9
$DIMSTYLE
  2
STANDARD
  9
$DIMCLRD
 70
     0
  9
$DIMCLRE
 70
     0
  9
$DIMCLRT
 70
     0
  9
$DIMTFAC
 40
1.0
  9
$DIMGAP
 40
0.09
  9
$DIMJUST
 70
     0
  9
$DIMSD1
 70
     0
  9
$DIMSD2
 70
     0
  9
$DIMTOLJ
 70
     1
  9
$DIMTZIN
 70
     4
  9
$DIMALTZ
 70
     0
  9
$DIMALTTZ
 70
     0
  9
$DIMFIT
 70
     3
  9
$DIMUPT
 70
     0
  9
$DIMUNIT
 70
     2
  9
$DIMDEC
 70
     3
  9
$DIMTDEC
 70
     3
  9
$DIMALTU
 70
     2
  9
$DIMALTTD
 70
     2
  9
$DIMTXSTY
  7
ROMANS
  9
$DIMAUNIT
 70
     0
  9
$LUNITS
 70
     2
  9
$LUPREC
 70
     3
  9
$SKETCHINC
 40
0.1
  9
$FILLETRAD
 40
0.03125
  9
$AUNITS
 70
     0
  9
$AUPREC
 70
     0
  9
$MENU
  1
ACAD
  9
$ELEVATION
 40
0.0
  9
$PELEVATION
 40
0.0
  9
$THICKNESS
 40
0.0
  9
$LIMCHECK
 70
     0
  9
$BLIPMODE
 70
     0
  9
$CHAMFERA
 40
0.0
  9
$CHAMFERB
 40
0.0
  9
$CHAMFERC
 40
0.0
  9
$CHAMFERD
 40
0.0
  9
$SKPOLY
 70
     0
  9
$TDCREATE
 40
2448994.682042361
  9
$TDUPDATE
 40
2452458.322212129
  9
$TDINDWG
 40
0.0005063542
  9
$TDUSRTIMER
 40
0.0005063542
  9
$USRTIMER
 70
     1
  9
$ANGBASE
 50
0.0
  9
$ANGDIR
 70
     0
  9
$PDMODE
 70
     0
  9
$PDSIZE
 40
0.0
  9
$PLINEWID
 40
0.0
  9
$COORDS
 70
     2
  9
$SPLFRAME
 70
     0
  9
$SPLINETYPE
 70
     6
  9
$SPLINESEGS
 70
     8
  9
$ATTDIA
 70
     0
  9
$ATTREQ
 70
     1
  9
$HANDLING
 70
 22529
  9
$HANDSEED
  5
7DE1B343D9E169A
  9
$SURFTAB1
 70
     6
  9
$SURFTAB2
 70
     6
  9
$SURFTYPE
 70
     6
  9
$SURFU
 70
     6
  9
$SURFV
 70
     6
  9
$UCSNAME
  2

  9
$UCSORG
 10
0.0
 20
0.0
 30
0.0
  9
$UCSXDIR
 10
1.0
 20
0.0
 30
0.0
  9
$UCSYDIR
 10
0.0
 20
1.0
 30
0.0
  9
$PUCSNAME
  2

  9
$PUCSORG
 10
0.0
 20
0.0
 30
0.0
  9
$PUCSXDIR
 10
1.0
 20
0.0
 30
0.0
  9
$PUCSYDIR
 10
0.0
 20
1.0
 30
0.0
  9
$USERI1
 70
     0
  9
$USERI2
 70
     0
  9
$USERI3
 70
     0
  9
$USERI4
 70
     0
  9
$USERI5
 70
     0
  9
$USERR1
 40
0.0
  9
$USERR2
 40
0.0
  9
$USERR3
 40
0.0
  9
$USERR4
 40
0.0
  9
$USERR5
 40
0.0
  9
$WORLDVIEW
 70
     1
  9
$SHADEDGE
 70
     3
  9
$SHADEDIF
 70
    70
  9
$TILEMODE
 70
     1
  9
$MAXACTVP
 70
    16
  9
$PINSBASE
 10
0.7464474169844142
 20
50.00000000000001
 30
0.8932926825293121
  9
$PLIMCHECK
 70
     0
  9
$PEXTMIN
 10
1.000000000000000E+20
 20
1.000000000000000E+20
 30
1.000000000000000E+20
  9
$PEXTMAX
 10
-1.000000000000000E+20
 20
-1.000000000000000E+20
 30
-1.000000000000000E+20
  9
$PLIMMIN
 10
0.0
 20
0.0
  9
$PLIMMAX
 10
12.0
 20
9.0
  9
$UNITMODE
 70
     0
  9
$VISRETAIN
 70
     0
  9
$PLINEGEN
 70
     1
  9
$PSLTSCALE
 70
     0
  9
$TREEDEPTH
 70
  3020
  9
$PICKSTYLE
 70
     1
  9
$CMLSTYLE
  2
STANDARD
  9
$CMLJUST
 70
     0
  9
$CMLSCALE
 40
1.0
  9
$PROXYGRAPHICS
 70
     1
  9
$MEASUREMENT
 70
     0
  0
ENDSEC
  0
SECTION
  2
CLASSES
  0
CLASS
  1
LWPOLYLINE
  2
AcDbPolyline
  3
AutoCAD 2000
 90
        0
280
     0
281
     1
  0
CLASS
  1
ACDBDICTIONARYWDFLT
  2
AcDbDictionaryWithDefault
  3
AutoCAD 2000
 90
        0
280
     0
281
     0
  0
CLASS
  1
ACDBPLACEHOLDER
  2
AcDbPlaceHolder
  3
AutoCAD 2000
 90
        0
280
     0
281
     0
  0
CLASS
  1
LAYOUT
  2
AcDbLayout
  3
AutoCAD 2000
 90
        0
280
     0
281
     0
  0
CLASS
  1
DICTIONARYVAR
  2
AcDbDictionaryVar
  3
AutoCAD 2000
 90
        0
280
     0
281
     0
  0
CLASS
  1
LONG_TRANSACTION
  2
AcDbLongTransaction
  3
AutoCAD 2000
 90
        0
280
     0
281
     0
  0
CLASS
  1
LWPOLYLINE
  2
AcDbPolyline
  3
AutoCAD 2000
 90
        0
280
     0
281
     1
  0
CLASS
  1
HATCH
  2
AcDbHatch
  3
AutoCAD 2000
 90
        0
280
     0
281
     1
  0
CLASS
  1
XRECORD
  2
AcDbXrecord
  3
AutoCAD 2000
 90
        0
280
     0
281
     0
  0
ENDSEC
  0
SECTION
  2
TABLES
  0
TABLE
  2
VPORT
  5
7DE1B343D9E1641
330
0
100
AcDbSymbolTable
 70
     2
  0
VPORT
  5
7DE1B343D9E1675
330
7DE1B343D9E1641
100
AcDbSymbolTableRecord
100
AcDbViewportTableRecord
  2
*ACTIVE
 70
     0
 10
0.0
 20
0.0
 11
1.0
 21
1.0
 12
4.796084247393896
 22
1.175628684432744
 13
0.0
 23
0.0
 14
0.015625
 24
0.015625
 15
0.0
 25
0.0
 16
0.0
 26
0.0
 36
1.0
 17
0.0
 27
0.0
 37
0.0
 40
2.282647215150728
 41
4.320930232558139
 42
50.0
 43
0.0
 44
0.0
 50
0.0
 51
0.0
 71
     0
 72
  2000
 73
     1
 74
     0
 75
     0
 76
     0
 77
     0
 78
     0
  0
ENDTAB
  0
TABLE
  2
LTYPE
  5
7DE1B343D9E163E
330
0
100
AcDbSymbolTable
 70
     1
  0
LTYPE
  5
7DE1B343D9E164B
330
7DE1B343D9E163E
100
AcDbSymbolTableRecord
100
AcDbLinetypeTableRecord
  2
BYBLOCK
 70
     0
  3

 72
    65
 73
     0
 40
0.0
  0
LTYPE
  5
7DE1B343D9E164C
330
7DE1B343D9E163E
100
AcDbSymbolTableRecord
100
AcDbLinetypeTableRecord
  2
BYLAYER
 70
     0
  3

 72
    65
 73
     0
 40
0.0
  0
LTYPE
  5
7DE1B343D9E164D
330
7DE1B343D9E163E
100
AcDbSymbolTableRecord
100
AcDbLinetypeTableRecord
  2
CONTINUOUS
 70
     0
  3
Solid line
 72
    65
 73
     0
 40
0.0
  0
ENDTAB
  0
TABLE
  2
LAYER
  5
7DE1B343D9E163B
330
0
100
AcDbSymbolTable
 70
     2
  0
LAYER
  5
7DE1B343D9E1648
330
7DE1B343D9E163B
100
AcDbSymbolTableRecord
100
AcDbLayerTableRecord
  2
0
 70
     0
 62
     7
  6
CONTINUOUS
  0
LAYER
  5
7DE1B343D9E1658
330
7DE1B343D9E163B
100
AcDbSymbolTableRecord
100
AcDbLayerTableRecord
  2
TEXT
 70
     0
 62
     3
  6
CONTINUOUS
  0
ENDTAB
  0
TABLE
  2
STYLE
  5
7DE1B343D9E163C
330
0
100
AcDbSymbolTable
 70
     3
  0
STYLE
  5
7DE1B343D9E1649
330
7DE1B343D9E163C
100
AcDbSymbolTableRecord
100
AcDbTextStyleTableRecord
  2
STANDARD
 70
     0
 40
0.0
 41
1.0
 50
0.0
 71
     0
 42
0.3125
  3
txt
  4

  0
STYLE
  5
7DE1B343D9E1655
330
7DE1B343D9E163C
100
AcDbSymbolTableRecord
100
AcDbTextStyleTableRecord
  2
ITALICC
 70
     0
 40
0.0
 41
1.0
 50
0.0
 71
     0
 42
0.125
  3
italicc
  4

  0
STYLE
  5
7DE1B343D9E1665
330
7DE1B343D9E163C
100
AcDbSymbolTableRecord
100
AcDbTextStyleTableRecord
  2
ROMANS
 70
     0
 40
0.0
 41
1.0
 50
0.0
 71
     0
 42
0.125
  3
romans.shx
  4

  0
ENDTAB
  0
TABLE
  2
VIEW
  5
7DE1B343D9E163F
330
0
100
AcDbSymbolTable
 70
     0
  0
ENDTAB
  0
TABLE
  2
UCS
  5
7DE1B343D9E1640
330
0
100
AcDbSymbolTable
 70
     0
  0
ENDTAB
  0
TABLE
  2
APPID
  5
7DE1B343D9E1642
330
0
100
AcDbSymbolTable
 70
     1
  0
APPID
  5
7DE1B343D9E164A
330
7DE1B343D9E1642
100
AcDbSymbolTableRecord
100
AcDbRegAppTableRecord
  2
ACAD
 70
     0
  0
ENDTAB
  0
TABLE
  2
DIMSTYLE
  5
7DE1B343D9E1643
330
0
100
AcDbSymbolTable
 70
     1
  0
DIMSTYLE
105
7DE1B343D9E165D
330
7DE1B343D9E1643
100
AcDbSymbolTableRecord
100
AcDbDimStyleTableRecord
  2
STANDARD
 70
     0
  3

  4

  5

  6

  7

 40
1.0
 41
0.125
 42
0.125
 43
0.375
 44
0.125
 45
0.0
 46
0.0
 47
0.0
 48
0.0
140
0.125
141
-0.125
142
0.0
143
25.4
144
1.0
145
0.0
146
1.0
147
0.09
 71
     0
 72
     0
 73
     1
 74
     1
 75
     0
 76
     0
 77
     0
 78
     4
170
     0
171
     2
172
     0
173
     0
174
     1
175
     0
176
     0
177
     0
178
     0
270
     2
271
     3
272
     3
273
     2
274
     2
340
7DE1B343D9E1665
275
     0
280
     0
281
     0
282
     0
283
     1
284
     4
285
     0
286
     0
287
     3
288
     0
  0
ENDTAB
  0
TABLE
  2
BLOCK_RECORD
  5
7DE1B343D9E163A
330
0
100
AcDbSymbolTable
 70
     0
  0
BLOCK_RECORD
  5
7DE1B343D9E1651
102
{ACAD_XDICTIONARY
360
7DE1B343D9E1698
102
}
330
7DE1B343D9E163A
100
AcDbSymbolTableRecord
100
AcDbBlockTableRecord
  2
*MODEL_SPACE
  0
BLOCK_RECORD
  5
7DE1B343D9E164E
102
{ACAD_XDICTIONARY
360
7DE1B343D9E1696
102
}
330
7DE1B343D9E163A
100
AcDbSymbolTableRecord
100
AcDbBlockTableRecord
  2
*PAPER_SPACE
  0
ENDTAB
  0
ENDSEC
  0
SECTION
  2
BLOCKS
  0
BLOCK
  5
7DE1B343D9E165B
330
7DE1B343D9E1651
100
AcDbEntity
  8
0
100
AcDbBlockBegin
  2
*MODEL_SPACE
 70
     0
 10
0.0
 20
0.0
 30
0.0
  3
*MODEL_SPACE
  1

  0
ENDBLK
  5
7DE1B343D9E165C
330
7DE1B343D9E1651
100
AcDbEntity
  8
0
100
AcDbBlockEnd
  0
BLOCK
  5
7DE1B343D9E1659
330
7DE1B343D9E164E
100
AcDbEntity
 67
     1
  8
0
100
AcDbBlockBegin
  2
*PAPER_SPACE
 70
     0
 10
0.0
 20
0.0
 30
0.0
  3
*PAPER_SPACE
  1

  0
ENDBLK
  5
7DE1B343D9E165A
330
7DE1B343D9E164E
100
AcDbEntity
 67
     1
  8
0
100
AcDbBlockEnd
  0
ENDSEC
  0
SECTION
  2
ENTITIES
  0
LWPOLYLINE
  5
7DE1B343D9E00A7
330
7DE1B343D9E1651
100
AcDbEntity
  8
0
100
AcDbPolyline
 90
       16
 70
     1
 43
0.0
 10
1.452362805633327
 20
1.684573627848142
 10
1.452362805633327
 20
1.747073627848142
 10
2.186737805633327
 20
1.747073627848142
 42
-0.4142135623730951
 10
2.202362805633327
 20
1.731448627848142
 10
2.202362805633327
 20
1.378323627848142
 42
-1.0
 10
2.139862805633327
 20
1.378323627848142
 10
2.139862805633327
 20
1.465823627848142
 10
1.983612805633327
 20
1.465823627848142
 10
1.983612805633327
 20
1.434573627848142
 10
1.733612805633326
 20
1.434573627848141
 10
1.733612805633327
 20
1.528323627848142
 10
2.139862805633327
 20
1.528323627848142
 10
2.139862805633327
 20
1.612073627848142
 10
2.149862805633326
 20
1.622073627848141
 10
2.139862805633327
 20
1.632073627848141
 10
2.139862805633327
 20
1.684573627848142
  0
TEXT
  5
7DE1B343D9E14FC
330
7DE1B343D9E1651
100
AcDbEntity
  8
TEXT
100
AcDbText
 10
1.066574115157136
 20
1.058513970778597
 30
0.0
 40
0.125
  1
PART #120034
  7
ITALICC
 72
     1
 11
1.819550305633327
 21
1.058513970778597
 31
0.0
100
AcDbText
  0
TEXT
  5
7DE1B343D9E14FD
330
7DE1B343D9E1651
100
AcDbEntity
  8
TEXT
100
AcDbText
 10
2.232855463883647
 20
0.6115913281062227
 30
0.0
 40
0.0522247191011236
  1
Phone  1-800-328-2495
 41
1.272321428571429
 72
     5
 11
3.561788048153311
 21
0.6115913281062227
 31
0.0
100
AcDbText
  0
TEXT
  5
7DE1B343D9E14FE
330
7DE1B343D9E1651
100
AcDbEntity
  8
TEXT
100
AcDbText
 10
2.232855463883647
 20
0.8913666090050991
 30
0.0
 40
0.0522247191011236
  1
Stylmark  Incorporated
 41
1.221428571428573
 72
     5
 11
3.561788048153311
 21
0.8913666090050991
 31
0.0
100
AcDbText
  0
TEXT
  5
7DE1B343D9E14FF
330
7DE1B343D9E1651
100
AcDbEntity
  8
TEXT
100
AcDbText
 10
2.232855463883647
 20
0.798108182038807
 30
0.0
 40
0.0522247191011236
  1
6536 Main St. N.E. * P.O. Box 32008
 41
0.8388932496075366
 72
     5
 11
3.561788048153311
 21
0.798108182038807
 31
0.0
100
AcDbText
  0
TEXT
  5
7DE1B343D9E1500
330
7DE1B343D9E1651
100
AcDbEntity
  8
TEXT
100
AcDbText
 10
2.232855463883647
 20
0.7048497550725149
 30
0.0
 40
0.0522247191011236
  1
Minneapolis, MN 55432-0008
 41
1.11444212721585
 72
     5
 11
3.561788048153311
 21
0.7048497550725149
 31
0.0
100
AcDbText
  0
LWPOLYLINE
  5
7DE1B343D9E1501
330
7DE1B343D9E1651
100
AcDbEntity
  8
TEXT
100
AcDbPolyline
 90
        3
 70
     0
 43
0.0006660908203125
 10
0.0769017718163401
 20
0.7252360907436576
 10
0.0769017718163401
 20
0.6120006512905299
 10
0.1901372112694624
 20
0.6120006512905299
  0
LWPOLYLINE
  5
7DE1B343D9E1506
330
7DE1B343D9E1651
100
AcDbEntity
  8
TEXT
100
AcDbPolyline
 90
        3
 70
     0
 43
0.0006660908203125
 10
0.1035454046288375
 20
0.7252360907436576
 10
0.1035454046288375
 20
0.638644284103031
 10
0.1901372112694624
 20
0.638644284103031
  0
LWPOLYLINE
  5
7DE1B343D9E150B
330
7DE1B343D9E1651
100
AcDbEntity
  8
TEXT
100
AcDbPolyline
 90
        2
 70
     0
 43
0.0001332181640625
 10
0.1501717620507144
 20
0.7352274530483428
 10
0.0769017718163401
 20
0.7252360907436576
  0
LWPOLYLINE
  5
7DE1B343D9E150F
330
7DE1B343D9E1651
100
AcDbEntity
  8
TEXT
100
AcDbPolyline
 90
        2
 70
     0
 43
0.0001332181640625
 10
0.1035454046288375
 20
0.7252360907436576
 10
0.1634935784569649
 20
0.7352274530483428
  0
LWPOLYLINE
  5
7DE1B343D9E1513
330
7DE1B343D9E1651
100
AcDbEntity
  8
TEXT
100
AcDbPolyline
 90
        2
 70
     0
 43
0.0001332181640625
 10
0.1035454046288375
 20
0.638644284103031
 10
0.1634935784569649
 20
0.6985924579311565
  0
LWPOLYLINE
  5
7DE1B343D9E1517
330
7DE1B343D9E1651
100
AcDbEntity
  8
TEXT
100
AcDbPolyline
 90
        3
 70
     0
 43
0.0006660908203125
 10
0.1901372112694624
 20
0.8784369794155331
 10
0.0769017718163401
 20
0.8784369794155331
 10
0.0769017718163401
 20
0.7652015399624056
  0
LWPOLYLINE
  5
7DE1B343D9E151C
330
7DE1B343D9E1651
100
AcDbEntity
  8
TEXT
100
AcDbPolyline
 90
        3
 70
     0
 43
0.0006660908203125
 10
0.1901372112694624
 20
0.8517933466030321
 10
0.1035454046288375
 20
0.8517933466030321
 10
0.1035454046288375
 20
0.7652015399624056
  0
LWPOLYLINE
  5
7DE1B343D9E1521
330
7DE1B343D9E1651
100
AcDbEntity
  8
TEXT
100
AcDbPolyline
 90
        2
 70
     0
 43
0.0001332181640625
 10
0.1035454046288375
 20
0.8517933466030321
 10
0.1634935784569631
 20
0.7918451727749066
  0
LWPOLYLINE
  5
7DE1B343D9E1525
330
7DE1B343D9E1651
100
AcDbEntity
  8
TEXT
100
AcDbPolyline
 90
        2
 70
     0
 43
0.0001332181640625
 10
0.1035454046288375
 20
0.7652015399624056
 10
0.1634935784569631
 20
0.7552101776577168
  0
LWPOLYLINE
  5
7DE1B343D9E1529
330
7DE1B343D9E1651
100
AcDbEntity
  8
TEXT
100
AcDbPolyline
 90
        2
 70
     0
 43
0.0001332181640625
 10
0.0769017718163401
 20
0.7652015399624056
 10
0.1501717620507144
 20
0.7552101776577168
  0
LWPOLYLINE
  5
7DE1B343D9E152D
330
7DE1B343D9E1651
100
AcDbEntity
  8
TEXT
100
AcDbPolyline
 90
        2
 70
     0
 43
0.0006660908203125
 10
0.1035454046288375
 20
0.7252360907436576
 10
0.0769017718163401
 20
0.7252360907436576
  0
LWPOLYLINE
  5
7DE1B343D9E1531
330
7DE1B343D9E1651
100
AcDbEntity
  8
TEXT
100
AcDbPolyline
 90
        2
 70
     0
 43
0.0006660908203125
 10
0.1035454046288375
 20
0.7652015399624056
 10
0.0769017718163401
 20
0.7652015399624056
  0
LINE
  5
7DE1B343D9E1535
330
7DE1B343D9E1651
100
AcDbEntity
  8
TEXT
100
AcDbLine
 10
1.592092200942837
 20
0.8141602847587641
 30
0.0
 11
1.484885927555548
 21
0.8141602847587641
 31
0.0
  0
LINE
  5
7DE1B343D9E1536
330
7DE1B343D9E1651
100
AcDbEntity
  8
TEXT
100
AcDbLine
 10
1.621123099287316
 20
0.8784369794155296
 30
0.0
 11
1.486291190070256
 21
0.8784369794155296
 31
0.0
  0
ARC
  5
7DE1B343D9E1537
330
7DE1B343D9E1651
100
AcDbEntity
  8
TEXT
100
AcDbCircle
 10
1.545605286463573
 20
0.7091997301525133
 30
0.0
 40
0.0676855811441166
100
AcDbArc
 50
90.0
 51
153.7768192527749
  0
LWPOLYLINE
  5
7DE1B343D9E1538
330
7DE1B343D9E1651
100
AcDbEntity
  8
TEXT
100
AcDbPolyline
 90
        2
 70
     0
 43
0.0
 10
1.483853432100738
 20
0.6554548913774568
 42
0.2901071551932823
 10
1.526929364968373
 20
0.6119639464270187
 42
5.328517124445801
  0
ARC
  5
7DE1B343D9E153C
330
7DE1B343D9E1651
100
AcDbEntity
  8
TEXT
100
AcDbCircle
 10
0.840473908792088
 20
0.6717563377650685
 30
0.0
 40
0.0601160179737537
100
AcDbArc
 50
180.0000000000003
 51
264.0521544866073
  0
LINE
  5
7DE1B343D9E153D
330
7DE1B343D9E1651
100
AcDbEntity
  8
TEXT
100
AcDbLine
 10
0.8439892644176358
 20
0.9128248970096677
 30
0.0
 11
0.7839466595736289
 21
0.9128248970096677
 31
0.0
  0
ARC
  5
7DE1B343D9E153E
330
7DE1B343D9E1651
100
AcDbEntity
  8
TEXT
100
AcDbCircle
 10
0.6082149066751175
 20
0.7963495199690279
 30
0.0
 40
0.0820874594465043
100
AcDbArc
 50
90.0
 51
270.0
  0
LWPOLYLINE
  5
7DE1B343D9E153F
330
7DE1B343D9E1651
100
AcDbEntity
  8
TEXT
100
AcDbPolyline
 90
        2
 70
     0
 43
0.0001332181640625
 10
0.2001285735741529
 20
0.8051669891811535
 10
0.1901372112694624
 20
0.8784369794155331
  0
LWPOLYLINE
  5
7DE1B343D9E1543
330
7DE1B343D9E1651
100
AcDbEntity
  8
TEXT
100
AcDbPolyline
 90
        2
 70
     0
 43
0.0001332181640625
 10
0.1901372112694624
 20
0.8517933466030321
 10
0.2001285735741529
 20
0.7918451727749066
  0
LWPOLYLINE
  5
7DE1B343D9E1547
330
7DE1B343D9E1651
100
AcDbEntity
  8
TEXT
100
AcDbPolyline
 90
        3
 70
     0
 43
0.0006660908203125
 10
0.3433380999413398
 20
0.7652015399624056
 10
0.3433380999413398
 20
0.8784369794155331
 10
0.2301026604882139
 20
0.8784369794155331
  0
LWPOLYLINE
  5
7DE1B343D9E154C
330
7DE1B343D9E1651
100
AcDbEntity
  8
TEXT
100
AcDbPolyline
 90
        3
 70
     0
 43
0.0006660908203125
 10
0.3166944671288387
 20
0.7652015399624056
 10
0.3166944671288387
 20
0.8517933466030321
 10
0.2301026604882139
 20
0.8517933466030321
  0
LWPOLYLINE
  5
7DE1B343D9E1551
330
7DE1B343D9E1651
100
AcDbEntity
  8
TEXT
100
AcDbPolyline
 90
        2
 70
     0
 43
0.0001332181640625
 10
0.3166944671288387
 20
0.8517933466030321
 10
0.256746293300715
 20
0.7918451727749066
  0
LWPOLYLINE
  5
7DE1B343D9E1555
330
7DE1B343D9E1651
100
AcDbEntity
  8
TEXT
100
AcDbPolyline
 90
        2
 70
     0
 43
0.0001332181640625
 10
0.2301026604882139
 20
0.8517933466030321
 10
0.2201112981835251
 20
0.7918451727749066
  0
LWPOLYLINE
  5
7DE1B343D9E1559
330
7DE1B343D9E1651
100
AcDbEntity
  8
TEXT
100
AcDbPolyline
 90
        2
 70
     0
 43
0.0001332181640625
 10
0.2301026604882139
 20
0.8784369794155331
 10
0.2201112981835251
 20
0.8051669891811535
  0
LWPOLYLINE
  5
7DE1B343D9E155D
330
7DE1B343D9E1651
100
AcDbEntity
  8
TEXT
100
AcDbPolyline
 90
        2
 70
     0
 43
0.0001332181640625
 10
0.2700681097069637
 20
0.7552101776577168
 10
0.3433380999413398
 20
0.7652015399624056
  0
LWPOLYLINE
  5
7DE1B343D9E1561
330
7DE1B343D9E1651
100
AcDbEntity
  8
TEXT
100
AcDbPolyline
 90
        2
 70
     0
 43
0.0001332181640625
 10
0.3166944671288387
 20
0.7652015399624056
 10
0.256746293300715
 20
0.7552101776577168
  0
LWPOLYLINE
  5
7DE1B343D9E1565
330
7DE1B343D9E1651
100
AcDbEntity
  8
TEXT
100
AcDbPolyline
 90
        2
 70
     0
 43
0.0001332181640625
 10
0.3433380999413398
 20
0.7252360907436576
 10
0.2700681097069637
 20
0.7352274530483428
  0
LWPOLYLINE
  5
7DE1B343D9E1569
330
7DE1B343D9E1651
100
AcDbEntity
  8
TEXT
100
AcDbPolyline
 90
        2
 70
     0
 43
0.0001332181640625
 10
0.3166944671288387
 20
0.7252360907436576
 10
0.256746293300715
 20
0.7352274530483428
  0
LWPOLYLINE
  5
7DE1B343D9E156D
330
7DE1B343D9E1651
100
AcDbEntity
  8
TEXT
100
AcDbPolyline
 90
        2
 70
     0
 43
0.0001332181640625
 10
0.3166944671288387
 20
0.638644284103031
 10
0.256746293300715
 20
0.6985924579311565
  0
LWPOLYLINE
  5
7DE1B343D9E1571
330
7DE1B343D9E1651
100
AcDbEntity
  8
TEXT
100
AcDbPolyline
 90
        3
 70
     0
 43
0.0006660908203125
 10
0.2301026604882139
 20
0.638644284103031
 10
0.3166944671288387
 20
0.638644284103031
 10
0.3166944671288387
 20
0.7252360907436576
  0
LWPOLYLINE
  5
7DE1B343D9E1576
330
7DE1B343D9E1651
100
AcDbEntity
  8
TEXT
100
AcDbPolyline
 90
        3
 70
     0
 43
0.0006660908203125
 10
0.2301026604882139
 20
0.6120006512905299
 10
0.3433380999413398
 20
0.6120006512905299
 10
0.3433380999413398
 20
0.7252360907436576
  0
LWPOLYLINE
  5
7DE1B343D9E157B
330
7DE1B343D9E1651
100
AcDbEntity
  8
TEXT
100
AcDbPolyline
 90
        5
 70
     0
 43
0.0001332181640625
 10
0.2001285735741529
 20
0.685270641524906
 10
0.2001285735741529
 20
0.6985924579311565
 10
0.1634935784569649
 20
0.6985924579311565
 10
0.1634935784569649
 20
0.7352274530483428
 10
0.1501717620507144
 20
0.7352274530483428
  0
LWPOLYLINE
  5
7DE1B343D9E1582
330
7DE1B343D9E1651
100
AcDbEntity
  8
TEXT
100
AcDbPolyline
 90
        2
 70
     0
 43
0.0006660908203125
 10
0.1901372112694624
 20
0.638644284103031
 10
0.1901372112694624
 20
0.6120006512905299
  0
LWPOLYLINE
  5
7DE1B343D9E1586
330
7DE1B343D9E1651
100
AcDbEntity
  8
TEXT
100
AcDbPolyline
 90
        2
 70
     0
 43
0.0001332181640625
 10
0.1901372112694624
 20
0.638644284103031
 10
0.2001285735741529
 20
0.6985924579311565
  0
LWPOLYLINE
  5
7DE1B343D9E158A
330
7DE1B343D9E1651
100
AcDbEntity
  8
TEXT
100
AcDbPolyline
 90
        2
 70
     0
 43
0.0001332181640625
 10
0.1901372112694624
 20
0.6120006512905299
 10
0.2001285735741529
 20
0.685270641524906
  0
LWPOLYLINE
  5
7DE1B343D9E158E
330
7DE1B343D9E1651
100
AcDbEntity
  8
TEXT
100
AcDbPolyline
 90
        5
 70
     0
 43
0.0001332181640625
 10
0.1501717620507144
 20
0.7552101776577168
 10
0.1634935784569631
 20
0.7552101776577168
 10
0.1634935784569631
 20
0.7918451727749066
 10
0.2001285735741529
 20
0.7918451727749066
 10
0.2001285735741529
 20
0.8051669891811535
  0
LWPOLYLINE
  5
7DE1B343D9E1595
330
7DE1B343D9E1651
100
AcDbEntity
  8
TEXT
100
AcDbPolyline
 90
        5
 70
     0
 43
0.0001332181640625
 10
0.2201112981835251
 20
0.8051669891811535
 10
0.2201112981835251
 20
0.7918451727749066
 10
0.256746293300715
 20
0.7918451727749066
 10
0.256746293300715
 20
0.7552101776577168
 10
0.2700681097069637
 20
0.7552101776577168
  0
LWPOLYLINE
  5
7DE1B343D9E159C
330
7DE1B343D9E1651
100
AcDbEntity
  8
TEXT
100
AcDbPolyline
 90
        2
 70
     0
 43
0.0001332181640625
 10
0.2301026604882139
 20
0.638644284103031
 10
0.2201112981835251
 20
0.6985924579311565
  0
LWPOLYLINE
  5
7DE1B343D9E15A0
330
7DE1B343D9E1651
100
AcDbEntity
  8
TEXT
100
AcDbPolyline
 90
        2
 70
     0
 43
0.0001332181640625
 10
0.2201112981835251
 20
0.685270641524906
 10
0.2301026604882139
 20
0.6120006512905299
  0
LWPOLYLINE
  5
7DE1B343D9E15A4
330
7DE1B343D9E1651
100
AcDbEntity
  8
TEXT
100
AcDbPolyline
 90
        2
 70
     0
 43
0.0006660908203125
 10
0.2301026604882139
 20
0.638644284103031
 10
0.2301026604882139
 20
0.6120006512905299
  0
LWPOLYLINE
  5
7DE1B343D9E15A8
330
7DE1B343D9E1651
100
AcDbEntity
  8
TEXT
100
AcDbPolyline
 90
        5
 70
     0
 43
0.0001332181640625
 10
0.2700681097069637
 20
0.7352274530483428
 10
0.256746293300715
 20
0.7352274530483428
 10
0.256746293300715
 20
0.6985924579311565
 10
0.2201112981835251
 20
0.6985924579311565
 10
0.2201112981835251
 20
0.685270641524906
  0
LWPOLYLINE
  5
7DE1B343D9E15AF
330
7DE1B343D9E1651
100
AcDbEntity
  8
TEXT
100
AcDbPolyline
 90
        2
 70
     0
 43
0.0006660908203125
 10
0.3166944671288387
 20
0.7652015399624056
 10
0.3433380999413398
 20
0.7652015399624056
  0
LWPOLYLINE
  5
7DE1B343D9E15B3
330
7DE1B343D9E1651
100
AcDbEntity
  8
TEXT
100
AcDbPolyline
 90
        2
 70
     0
 43
0.0006660908203125
 10
0.3166944671288387
 20
0.7252360907436576
 10
0.3433380999413398
 20
0.7252360907436576
  0
LINE
  5
7DE1B343D9E15B7
330
7DE1B343D9E1651
100
AcDbEntity
  8
TEXT
100
AcDbLine
 10
0.6134522367893647
 20
0.8141602847587641
 30
0.0
 11
0.780357890818336
 21
0.8141602847587641
 31
0.0
  0
LINE
  5
7DE1B343D9E15B8
330
7DE1B343D9E1651
100
AcDbEntity
  8
TEXT
100
AcDbLine
 10
0.6790523730336658
 20
0.7783555631481363
 30
0.0
 11
0.6134522367893647
 21
0.7783555631481363
 31
0.0
  0
LINE
  5
7DE1B343D9E15B9
330
7DE1B343D9E1651
100
AcDbEntity
  8
TEXT
100
AcDbLine
 10
0.5261274472286131
 20
0.6119639464270187
 30
0.0
 11
0.6790523730336658
 21
0.6119639464270187
 31
0.0
  0
LINE
  5
7DE1B343D9E15BA
330
7DE1B343D9E1651
100
AcDbEntity
  8
TEXT
100
AcDbLine
 10
0.6839927469399454
 20
0.680320952760458
 30
0.0
 11
0.5261274472286113
 21
0.680320952760458
 31
0.0
  0
LINE
  5
7DE1B343D9E15BB
330
7DE1B343D9E1651
100
AcDbEntity
  8
TEXT
100
AcDbLine
 10
0.6082149066751166
 20
0.7142620605225226
 30
0.0
 11
0.6839927469399454
 21
0.7142620605225226
 31
0.0
  0
ARC
  5
7DE1B343D9E15BC
330
7DE1B343D9E1651
100
AcDbEntity
  8
TEXT
100
AcDbCircle
 10
0.6134522367893656
 20
0.796257923953452
 30
0.0
 40
0.017902360805315
100
AcDbArc
 50
90.0
 51
270.0
  0
LINE
  5
7DE1B343D9E15BD
330
7DE1B343D9E1651
100
AcDbEntity
  8
TEXT
100
AcDbLine
 10
0.5261274472286113
 20
0.680320952760458
 30
0.0
 11
0.5261274472286131
 21
0.6119639464270187
 31
0.0
  0
LINE
  5
7DE1B343D9E15BE
330
7DE1B343D9E1651
100
AcDbEntity
  8
TEXT
100
AcDbLine
 10
0.780357890818336
 20
0.8141602847587641
 30
0.0
 11
0.780357890818336
 21
0.6717563377650685
 31
0.0
  0
ARC
  5
7DE1B343D9E15BF
330
7DE1B343D9E1651
100
AcDbEntity
  8
TEXT
100
AcDbCircle
 10
0.6790523730336667
 20
0.6951597547875757
 30
0.0
 40
0.0831958083605586
100
AcDbArc
 50
270.0
 51
90.0
  0
ARC
  5
7DE1B343D9E15C0
330
7DE1B343D9E1651
100
AcDbEntity
  8
TEXT
100
AcDbCircle
 10
0.6839927469399463
 20
0.6972915066414921
 30
0.0
 40
0.0169705538810321
100
AcDbArc
 50
270.0
 51
90.0
  0
LWPOLYLINE
  5
7DE1B343D9E15C1
330
7DE1B343D9E1651
100
AcDbEntity
  8
TEXT
100
AcDbPolyline
 90
        2
 70
     0
 43
0.0006660908203125
 10
0.1901372112694624
 20
0.8517933466030321
 10
0.1901372112694624
 20
0.8784369794155331
  0
LWPOLYLINE
  5
7DE1B343D9E15C5
330
7DE1B343D9E1651
100
AcDbEntity
  8
TEXT
100
AcDbPolyline
 90
        2
 70
     0
 43
0.0006660908203125
 10
0.2301026604882139
 20
0.8517933466030321
 10
0.2301026604882139
 20
0.8784369794155331
  0
LINE
  5
7DE1B343D9E15C9
330
7DE1B343D9E1651
100
AcDbEntity
  8
TEXT
100
AcDbLine
 10
0.7839466595736289
 20
0.8784369794155296
 30
0.0
 11
0.6082149066751166
 21
0.8784369794155296
 31
0.0
  0
LINE
  5
7DE1B343D9E15CA
330
7DE1B343D9E1651
100
AcDbEntity
  8
TEXT
100
AcDbLine
 10
0.7839466595736289
 20
0.9128248970096677
 30
0.0
 11
0.7839466595736289
 21
0.8784369794155296
 31
0.0
  0
LINE
  5
7DE1B343D9E15CB
330
7DE1B343D9E1651
100
AcDbEntity
  8
TEXT
100
AcDbLine
 10
0.9744185515934811
 20
0.7775649833024091
 30
0.0
 11
0.9157882305615432
 21
0.8784369794155296
 31
0.0
  0
LINE
  5
7DE1B343D9E15CC
330
7DE1B343D9E1651
100
AcDbEntity
  8
TEXT
100
AcDbLine
 10
1.033167114399346
 20
0.8784369794155296
 30
0.0
 11
0.9744185515934811
 21
0.7775649833024091
 31
0.0
  0
LINE
  5
7DE1B343D9E15CD
330
7DE1B343D9E1651
100
AcDbEntity
  8
TEXT
100
AcDbLine
 10
1.130097739759087
 20
0.6943517845300179
 30
0.0
 11
1.130097739759087
 21
0.9464484571543401
 31
0.0
  0
LINE
  5
7DE1B343D9E15CE
330
7DE1B343D9E1651
100
AcDbEntity
  8
TEXT
100
AcDbLine
 10
1.162409593896748
 20
0.8784369794155296
 30
0.0
 11
1.162409593896748
 21
0.6775727726831214
 31
0.0
  0
LINE
  5
7DE1B343D9E15CF
330
7DE1B343D9E1651
100
AcDbEntity
  8
TEXT
100
AcDbLine
 10
1.162409593896748
 20
0.6775727726831214
 30
0.0
 11
1.145415957012146
 21
0.6775727726831214
 31
0.0
  0
LINE
  5
7DE1B343D9E15D0
330
7DE1B343D9E1651
100
AcDbEntity
  8
TEXT
100
AcDbLine
 10
1.131237313255282
 20
0.6119639464270187
 30
0.0
 11
1.229240646954717
 21
0.6119639464270187
 31
0.0
  0
LINE
  5
7DE1B343D9E15D1
330
7DE1B343D9E1651
100
AcDbEntity
  8
TEXT
100
AcDbLine
 10
0.9648183145965267
 20
0.6319224525320316
 30
0.0
 11
1.062118020689971
 21
0.7962726634672997
 31
0.0
  0
ARC
  5
7DE1B343D9E15D2
330
7DE1B343D9E1651
100
AcDbEntity
  8
TEXT
100
AcDbCircle
 10
0.9307747546843128
 20
0.6515116687007144
 30
0.0
 40
0.0392772371940762
100
AcDbArc
 50
270.1604552698595
 51
330.0831797321295
  0
LINE
  5
7DE1B343D9E15D3
330
7DE1B343D9E1651
100
AcDbEntity
  8
TEXT
100
AcDbLine
 10
0.8342444982984416
 20
0.6119639464270187
 30
0.0
 11
0.930884749373436
 21
0.6122345855253009
 31
0.0
  0
LWPOLYLINE
  5
7DE1B343D9E15D4
330
7DE1B343D9E1651
100
AcDbEntity
  8
TEXT
100
AcDbPolyline
 90
        6
 70
     1
 43
0.0
 10
0.8767683018735912
 20
0.8141602847587641
 10
0.846451707653383
 20
0.8141602847587641
 10
0.846451707653383
 20
0.6910492867038699
 42
0.407328721240804
 10
0.8579953588148594
 20
0.6792303720274838
 10
0.9186170578595902
 20
0.6792303720274838
 10
0.9360823982669081
 20
0.7120426010709629
  0
LINE
  5
7DE1B343D9E15DC
330
7DE1B343D9E1651
100
AcDbEntity
  8
TEXT
100
AcDbLine
 10
1.062118020689971
 20
0.7962726634672997
 30
0.0
 11
1.062118020689971
 21
0.6635152886419434
 31
0.0
  0
ARC
  5
7DE1B343D9E15DD
330
7DE1B343D9E1651
100
AcDbEntity
  8
TEXT
100
AcDbCircle
 10
1.145415957012144
 20
0.6929545789265469
 30
0.0
 40
0.0153818062434269
100
AcDbArc
 50
174.7883570302258
 51
270.0
  0
LWPOLYLINE
  5
7DE1B343D9E15DE
330
7DE1B343D9E1651
100
AcDbEntity
  8
TEXT
100
AcDbPolyline
 90
        2
 70
     0
 43
0.0
 10
1.062118020689969
 20
0.6635152886419469
 42
0.3318488747599744
 10
1.131237313255282
 20
0.6119639464270187
 42
-6.868794160588311
  0
LINE
  5
7DE1B343D9E15E2
330
7DE1B343D9E1651
100
AcDbEntity
  8
TEXT
100
AcDbLine
 10
1.286629715943978
 20
0.6119639464270187
 30
0.0
 11
1.353687762725818
 21
0.6119639464270187
 31
0.0
  0
LINE
  5
7DE1B343D9E15E3
330
7DE1B343D9E1651
100
AcDbEntity
  8
TEXT
100
AcDbLine
 10
1.286629715943978
 20
0.8066064955926542
 30
0.0
 11
1.286629715943978
 21
0.6119639464270187
 31
0.0
  0
LINE
  5
7DE1B343D9E15E4
330
7DE1B343D9E1651
100
AcDbEntity
  8
TEXT
100
AcDbLine
 10
1.229240646954717
 20
0.8141602847587641
 30
0.0
 11
1.279075926777864
 21
0.8141602847587641
 31
0.0
  0
LINE
  5
7DE1B343D9E15E5
330
7DE1B343D9E1651
100
AcDbEntity
  8
TEXT
100
AcDbLine
 10
1.229240646954717
 20
0.6119639464270187
 30
0.0
 11
1.229240646954717
 21
0.8141602847587641
 31
0.0
  0
LWPOLYLINE
  5
7DE1B343D9E15E6
330
7DE1B343D9E1651
100
AcDbEntity
  8
TEXT
100
AcDbPolyline
 90
        2
 70
     0
 43
0.0
 10
1.279075926777863
 20
0.8141602847587641
 42
-0.4142135623731017
 10
1.286629715943976
 20
0.8066064955926542
 42
-0.9999999999999998
  0
LINE
  5
7DE1B343D9E15EA
330
7DE1B343D9E1651
100
AcDbEntity
  8
TEXT
100
AcDbLine
 10
1.484885927555548
 20
0.8141602847587641
 30
0.0
 11
1.484885927555548
 21
0.7391078786845576
 31
0.0
  0
LINE
  5
7DE1B343D9E15EB
330
7DE1B343D9E1651
100
AcDbEntity
  8
TEXT
100
AcDbLine
 10
1.353687762725818
 20
0.8141602847587641
 30
0.0
 11
1.407821359646768
 21
0.8141602847587641
 31
0.0
  0
LINE
  5
7DE1B343D9E15EC
330
7DE1B343D9E1651
100
AcDbEntity
  8
TEXT
100
AcDbLine
 10
1.353687762725818
 20
0.6119639464270187
 30
0.0
 11
1.353687762725818
 21
0.8141602847587641
 31
0.0
  0
LWPOLYLINE
  5
7DE1B343D9E15ED
330
7DE1B343D9E1651
100
AcDbEntity
  8
TEXT
100
AcDbPolyline
 90
        2
 70
     0
 43
0.0
 10
1.407821359646766
 20
0.8141602847587641
 42
-0.4142135623731017
 10
1.41537514881288
 20
0.8066064955926542
 42
-0.9999999999999998
  0
LWPOLYLINE
  5
7DE1B343D9E15F1
330
7DE1B343D9E1651
100
AcDbEntity
  8
TEXT
100
AcDbPolyline
 90
        4
 70
     0
 43
0.0
 10
1.41537514881288
 20
0.8066064955926542
 10
1.41537514881288
 20
0.6119639464270187
 10
1.483853432100738
 20
0.6119639464270187
 10
1.483853432100738
 20
0.6554548913774568
 42
-1.714843617202739
  0
LINE
  5
7DE1B343D9E15F7
330
7DE1B343D9E1651
100
AcDbEntity
  8
TEXT
100
AcDbLine
 10
0.8439892644176358
 20
0.8784369794155296
 30
0.0
 11
0.8439892644176358
 21
0.9128248970096677
 31
0.0
  0
LINE
  5
7DE1B343D9E15F8
330
7DE1B343D9E1651
100
AcDbEntity
  8
TEXT
100
AcDbLine
 10
0.9157882305615432
 20
0.8784369794155296
 30
0.0
 11
0.8439892644176358
 21
0.8784369794155296
 31
0.0
  0
LINE
  5
7DE1B343D9E15F9
330
7DE1B343D9E1651
100
AcDbEntity
  8
TEXT
100
AcDbLine
 10
1.063289027192722
 20
0.8784369794155296
 30
0.0
 11
1.033167114399346
 21
0.8784369794155296
 31
0.0
  0
LINE
  5
7DE1B343D9E15FA
330
7DE1B343D9E1651
100
AcDbEntity
  8
TEXT
100
AcDbLine
 10
1.063289027192722
 20
0.9464484571543401
 30
0.0
 11
1.063289027192722
 21
0.8784369794155296
 31
0.0
  0
LINE
  5
7DE1B343D9E15FB
330
7DE1B343D9E1651
100
AcDbEntity
  8
TEXT
100
AcDbLine
 10
1.130097739759087
 20
0.9464484571543401
 30
0.0
 11
1.063289027192722
 21
0.9464484571543401
 31
0.0
  0
LWPOLYLINE
  5
7DE1B343D9E15FC
330
7DE1B343D9E1651
100
AcDbEntity
  8
TEXT
100
AcDbPolyline
 90
        3
 70
     0
 43
0.0
 10
1.45050949935709
 20
0.8784369794155331
 10
1.332209340541045
 20
0.8784369794155331
 10
1.332209340541045
 20
0.8512694826546372
 42
-1.960274751411753
  0
LINE
  5
7DE1B343D9E1601
330
7DE1B343D9E1651
100
AcDbEntity
  8
TEXT
100
AcDbLine
 10
1.296427649827884
 20
0.8784369794155296
 30
0.0
 11
1.162409593896748
 21
0.8784369794155296
 31
0.0
  0
LWPOLYLINE
  5
7DE1B343D9E1602
330
7DE1B343D9E1651
100
AcDbEntity
  8
TEXT
100
AcDbPolyline
 90
        2
 70
     0
 43
0.0
 10
1.296427649827884
 20
0.8784369794155331
 42
-0.3328679258950098
 10
1.332209340541045
 20
0.8512694826546372
 42
6.772930709997214
  0
LINE
  5
7DE1B343D9E1606
330
7DE1B343D9E1651
100
AcDbEntity
  8
TEXT
100
AcDbLine
 10
1.486291190070256
 20
0.8784369794155296
 30
0.0
 11
1.486291190070256
 21
0.8501144336458857
 31
0.0
  0
LWPOLYLINE
  5
7DE1B343D9E1607
330
7DE1B343D9E1651
100
AcDbEntity
  8
TEXT
100
AcDbPolyline
 90
        2
 70
     0
 43
0.0
 10
1.45050949935709
 20
0.8784369794155331
 42
-0.3277054968067132
 10
1.486291190070255
 20
0.8501144336458892
 42
6.667889725900311
  0
LINE
  5
7DE1B343D9E160B
330
7DE1B343D9E1651
100
AcDbEntity
  8
TEXT
100
AcDbLine
 10
1.700083038162357
 20
0.7732250008621023
 30
0.0
 11
1.656332266980455
 21
0.8554752768582474
 31
0.0
  0
LINE
  5
7DE1B343D9E160C
330
7DE1B343D9E1651
100
AcDbEntity
  8
TEXT
100
AcDbLine
 10
1.700083038162357
 20
0.8784369794155296
 30
0.0
 11
1.700083038162357
 21
0.7732250008621023
 31
0.0
  0
LINE
  5
7DE1B343D9E160D
330
7DE1B343D9E1651
100
AcDbEntity
  8
TEXT
100
AcDbLine
 10
1.927766777100726
 20
0.8025716530039915
 30
0.0
 11
1.927766777100726
 21
0.9439011851831303
 31
0.0
  0
LINE
  5
7DE1B343D9E160E
330
7DE1B343D9E1651
100
AcDbEntity
  8
TEXT
100
AcDbLine
 10
1.97486493565671
 20
0.8784369794155296
 30
0.0
 11
1.927766777100726
 21
0.8025716530039915
 31
0.0
  0
LINE
  5
7DE1B343D9E160F
330
7DE1B343D9E1651
100
AcDbEntity
  8
TEXT
100
AcDbLine
 10
1.985299652420633
 20
0.7685437364745561
 30
0.0
 11
2.049856768386338
 21
0.8784369794155296
 31
0.0
  0
LINE
  5
7DE1B343D9E1610
330
7DE1B343D9E1651
100
AcDbEntity
  8
TEXT
100
AcDbLine
 10
1.863931785877952
 20
0.6119639464270187
 30
0.0
 11
1.928309970196573
 21
0.6119639464270187
 31
0.0
  0
LWPOLYLINE
  5
7DE1B343D9E1611
330
7DE1B343D9E1651
100
AcDbEntity
  8
TEXT
100
AcDbPolyline
 90
        2
 70
     0
 43
0.0
 10
1.704022715467394
 20
0.6554548913774568
 42
-0.2901071551932486
 10
1.66094678259975
 20
0.6119639464270187
 42
-5.328517124445184
  0
ARC
  5
7DE1B343D9E1615
330
7DE1B343D9E1651
100
AcDbEntity
  8
TEXT
100
AcDbCircle
 10
1.592092200942835
 20
0.7858009097587669
 30
0.0
 40
0.028359375
100
AcDbArc
 50
25.78218179591245
 51
90.0
  0
LINE
  5
7DE1B343D9E1616
330
7DE1B343D9E1651
100
AcDbEntity
  8
TEXT
100
AcDbLine
 10
1.627893276246958
 20
0.7768853112966319
 30
0.0
 11
1.617628515833394
 21
0.7981358508693262
 31
0.0
  0
LINE
  5
7DE1B343D9E1617
330
7DE1B343D9E1651
100
AcDbEntity
  8
TEXT
100
AcDbLine
 10
1.545605286463575
 20
0.7768853112966319
 30
0.0
 11
1.627893276246958
 21
0.7768853112966319
 31
0.0
  0
LWPOLYLINE
  5
7DE1B343D9E1618
330
7DE1B343D9E1651
100
AcDbEntity
  8
TEXT
100
AcDbPolyline
 90
        4
 70
     1
 43
0.0
 10
1.640824317529857
 20
0.7149279244110439
 10
1.552163998869999
 20
0.7149279244110439
 42
0.9999999999999998
 10
1.552163998869999
 20
0.6725293839071832
 10
1.640824317529857
 20
0.6725293839071832
 42
1.0
  0
LWPOLYLINE
  5
7DE1B343D9E161E
330
7DE1B343D9E1651
100
AcDbEntity
  8
TEXT
100
AcDbPolyline
 90
        2
 70
     0
 43
0.0
 10
1.526929364968373
 20
0.6119639464270187
 10
1.66094678259975
 20
0.6119639464270187
 42
0.9999999999999998
  0
LINE
  5
7DE1B343D9E1622
330
7DE1B343D9E1651
100
AcDbEntity
  8
TEXT
100
AcDbLine
 10
1.787283804585389
 20
0.8141602847587641
 30
0.0
 11
1.863931785877947
 21
0.8141602847587641
 31
0.0
  0
LINE
  5
7DE1B343D9E1623
330
7DE1B343D9E1651
100
AcDbEntity
  8
TEXT
100
AcDbLine
 10
1.863931785877947
 20
0.8141602847587641
 30
0.0
 11
1.863931785877952
 21
0.6119639464270187
 31
0.0
  0
ARC
  5
7DE1B343D9E1624
330
7DE1B343D9E1651
100
AcDbEntity
  8
TEXT
100
AcDbCircle
 10
1.787283804585388
 20
0.7892544094761015
 30
0.0
 40
0.0249058752826653
100
AcDbArc
 50
89.99971217465335
 51
179.9999999999985
  0
LINE
  5
7DE1B343D9E1625
330
7DE1B343D9E1651
100
AcDbEntity
  8
TEXT
100
AcDbLine
 10
1.76237792930273
 20
0.6119639464270187
 30
0.0
 11
1.762377929302725
 21
0.7892544518584871
 31
0.0
  0
LWPOLYLINE
  5
7DE1B343D9E1626
330
7DE1B343D9E1651
100
AcDbEntity
  8
TEXT
100
AcDbPolyline
 90
        2
 70
     0
 43
0.0
 10
1.704022715467394
 20
0.6119639464270187
 10
1.762377929302728
 20
0.6119639464270187
  0
LWPOLYLINE
  5
7DE1B343D9E162A
330
7DE1B343D9E1651
100
AcDbEntity
  8
TEXT
100
AcDbPolyline
 90
        2
 70
     0
 43
0.0
 10
1.704022715467394
 20
0.6554548913774568
 10
1.704022715467394
 20
0.6119639464270187
  0
LINE
  5
7DE1B343D9E162E
330
7DE1B343D9E1651
100
AcDbEntity
  8
TEXT
100
AcDbLine
 10
2.080791875784243
 20
0.6119639464270187
 30
0.0
 11
1.985299652420633
 21
0.7685437364745561
 31
0.0
  0
LINE
  5
7DE1B343D9E162F
330
7DE1B343D9E1651
100
AcDbEntity
  8
TEXT
100
AcDbLine
 10
2.004213503408037
 20
0.6119639464270187
 30
0.0
 11
2.080791875784243
 21
0.6119639464270187
 31
0.0
  0
LINE
  5
7DE1B343D9E1630
330
7DE1B343D9E1651
100
AcDbEntity
  8
TEXT
100
AcDbLine
 10
1.928309970196573
 20
0.7435435149031989
 30
0.0
 11
2.004213503408037
 21
0.6119639464270187
 31
0.0
  0
LINE
  5
7DE1B343D9E1631
330
7DE1B343D9E1651
100
AcDbEntity
  8
TEXT
100
AcDbLine
 10
1.928309970196573
 20
0.6119639464270187
 30
0.0
 11
1.928309970196573
 21
0.7435435149031989
 31
0.0
  0
LINE
  5
7DE1B343D9E1632
330
7DE1B343D9E1651
100
AcDbEntity
  8
TEXT
100
AcDbLine
 10
1.927766777100726
 20
0.9439011851831303
 30
0.0
 11
1.859451898551452
 21
0.9439011851831303
 31
0.0
  0
ARC
  5
7DE1B343D9E1633
330
7DE1B343D9E1651
100
AcDbEntity
  8
TEXT
100
AcDbCircle
 10
1.619096159510246
 20
0.8368534122946272
 30
0.0
 40
0.0416329381542859
100
AcDbArc
 50
26.56974201007528
 51
87.20939649401342
  0
LINE
  5
7DE1B343D9E1634
330
7DE1B343D9E1651
100
AcDbEntity
  8
TEXT
100
AcDbLine
 10
1.763979944461858
 20
0.8784369794155296
 30
0.0
 11
1.700083038162357
 21
0.8784369794155296
 31
0.0
  0
LINE
  5
7DE1B343D9E1635
330
7DE1B343D9E1651
100
AcDbEntity
  8
TEXT
100
AcDbLine
 10
1.763979944461858
 20
0.8508893295546549
 30
0.0
 11
1.763979944461858
 21
0.8784369794155296
 31
0.0
  0
ARC
  5
7DE1B343D9E1636
330
7DE1B343D9E1651
100
AcDbEntity
  8
TEXT
100
AcDbCircle
 10
1.795172761524965
 20
0.8471912521332647
 30
0.0
 40
0.0314112657011332
100
AcDbArc
 50
95.88484768694724
 51
173.2388340632136
  0
LINE
  5
7DE1B343D9E1637
330
7DE1B343D9E1651
100
AcDbEntity
  8
TEXT
100
AcDbLine
 10
1.859451898551447
 20
0.8784369794155296
 30
0.0
 11
1.79195218090193
 21
0.8784369794155296
 31
0.0
  0
LINE
  5
7DE1B343D9E1638
330
7DE1B343D9E1651
100
AcDbEntity
  8
TEXT
100
AcDbLine
 10
1.859451898551452
 20
0.9439011851831303
 30
0.0
 11
1.859451898551447
 21
0.8784369794155296
 31
0.0
  0
LINE
  5
7DE1B343D9E1639
330
7DE1B343D9E1651
100
AcDbEntity
  8
TEXT
100
AcDbLine
 10
2.049856768386338
 20
0.8784369794155296
 30
0.0
 11
1.974864935656712
 21
0.8784369794155296
 31
0.0
  0
ENDSEC
  0
SECTION
  2
OBJECTS
  0
DICTIONARY
  5
7DE1B343D9E1645
330
0
100
AcDbDictionary
  3
ACAD_GROUP
350
7DE1B343D9E1646
  3
ACAD_LAYOUT
350
7DE1B343D9E166B
  3
ACAD_MLINESTYLE
350
7DE1B343D9E1647
  3
ACAD_PLOTSETTINGS
350
7DE1B343D9E166C
  3
ACAD_PLOTSTYLENAME
350
7DE1B343D9E1669
  3
ACDBHEADERROUNDTRIPXREC
350
7DE1B343D9E1676
  3
ACDBVARIABLEDICTIONARY
350
7DE1B343D9E1673
  0
DICTIONARY
  5
7DE1B343D9E1698
330
7DE1B343D9E1651
100
AcDbDictionary
280
     1
  3
ACAD_LAYOUTSELFREF
360
7DE1B343D9E1699
  0
DICTIONARY
  5
7DE1B343D9E1696
330
7DE1B343D9E164E
100
AcDbDictionary
280
     1
  3
ACAD_LAYOUTSELFREF
360
7DE1B343D9E1697
  0
DICTIONARY
  5
7DE1B343D9E1646
102
{ACAD_REACTORS
330
7DE1B343D9E1645
102
}
330
7DE1B343D9E1645
100
AcDbDictionary
  0
DICTIONARY
  5
7DE1B343D9E166B
102
{ACAD_REACTORS
330
7DE1B343D9E1645
102
}
330
7DE1B343D9E1645
100
AcDbDictionary
  0
DICTIONARY
  5
7DE1B343D9E1647
102
{ACAD_REACTORS
330
7DE1B343D9E1645
102
}
330
7DE1B343D9E1645
100
AcDbDictionary
  3
STANDARD
350
7DE1B343D9E1654
  0
DICTIONARY
  5
7DE1B343D9E166C
102
{ACAD_REACTORS
330
7DE1B343D9E1645
102
}
330
7DE1B343D9E1645
100
AcDbDictionary
  0
ACDBDICTIONARYWDFLT
  5
7DE1B343D9E1669
102
{ACAD_REACTORS
330
7DE1B343D9E1645
102
}
330
7DE1B343D9E1645
100
AcDbDictionary
281
     1
  3
Normal
350
7DE1B343D9E166A
100
AcDbDictionaryWithDefault
340
7DE1B343D9E166A
  0
DICTIONARY
  5
7DE1B343D9E1676
102
{ACAD_REACTORS
330
7DE1B343D9E1645
102
}
330
7DE1B343D9E1645
100
AcDbDictionary
  3
CEPSNTYPE
350
7DE1B343D9E1680
  3
FINGERPRINTGUID
350
7DE1B343D9E1681
  3
HYPERLINKBASE
350
7DE1B343D9E1679
  3
INSUNITS
350
7DE1B343D9E167F
  3
LAYOUTDICT
350
7DE1B343D9E167B
  3
LWETCUNION
350
7DE1B343D9E167E
  3
PLOTSETDICT
350
7DE1B343D9E167C
  3
PLOTSTYLNAMDICT
350
7DE1B343D9E167D
  3
PSVPSCALE
350
7DE1B343D9E1683
  3
PUCSBASE
350
7DE1B343D9E1686
  3
PUCSORGBACK
350
7DE1B343D9E168C
  3
PUCSORGBOTTOM
350
7DE1B343D9E1688
  3
PUCSORGFRONT
350
7DE1B343D9E168B
  3
PUCSORGLEFT
350
7DE1B343D9E1689
  3
PUCSORGRIGHT
350
7DE1B343D9E168A
  3
PUCSORGTOP
350
7DE1B343D9E1687
  3
PUCSORTHOREF
350
7DE1B343D9E1684
  3
PUCSORTHOVIEW
350
7DE1B343D9E1685
  3
STYLESHEET
350
7DE1B343D9E167A
  3
TSTACKALIGN
350
7DE1B343D9E1677
  3
TSTACKSIZE
350
7DE1B343D9E1678
  3
UCSBASE
350
7DE1B343D9E168F
  3
UCSORGBACK
350
7DE1B343D9E1695
  3
UCSORGBOTTOM
350
7DE1B343D9E1691
  3
UCSORGFRONT
350
7DE1B343D9E1694
  3
UCSORGLEFT
350
7DE1B343D9E1692
  3
UCSORGRIGHT
350
7DE1B343D9E1693
  3
UCSORGTOP
350
7DE1B343D9E1690
  3
UCSORTHOREF
350
7DE1B343D9E168D
  3
UCSORTHOVIEW
350
7DE1B343D9E168E
  3
VERSIONGUID
350
7DE1B343D9E1682
  0
DICTIONARY
  5
7DE1B343D9E1673
102
{ACAD_REACTORS
330
7DE1B343D9E1645
102
}
330
7DE1B343D9E1645
100
AcDbDictionary
  3
DIMASSOC
350
7DE1B343D9E1674
  0
XRECORD
  5
7DE1B343D9E1699
102
{ACAD_REACTORS
330
7DE1B343D9E1698
102
}
330
7DE1B343D9E1698
100
AcDbXrecord
340
7DE1B343D9E1651
  0
XRECORD
  5
7DE1B343D9E1697
102
{ACAD_REACTORS
330
7DE1B343D9E1696
102
}
330
7DE1B343D9E1696
100
AcDbXrecord
340
7DE1B343D9E164E
  0
MLINESTYLE
  5
7DE1B343D9E1654
102
{ACAD_REACTORS
330
7DE1B343D9E1647
102
}
330
7DE1B343D9E1647
100
AcDbMlineStyle
  2
STANDARD
 70
     0
  3

 62
     0
 51
90.0
 52
90.0
 71
     2
 49
0.5
 62
   256
  6
BYLAYER
 49
-0.5
 62
   256
  6
BYLAYER
  0
ACDBPLACEHOLDER
  5
7DE1B343D9E166A
102
{ACAD_REACTORS
330
7DE1B343D9E1669
102
}
330
7DE1B343D9E1669
100
AcDbPlaceHolder
280
     0
  0
XRECORD
  5
7DE1B343D9E1680
102
{ACAD_REACTORS
330
7DE1B343D9E1676
102
}
330
7DE1B343D9E1676
100
AcDbXrecord
 90
        0
  0
XRECORD
  5
7DE1B343D9E1681
102
{ACAD_REACTORS
330
7DE1B343D9E1676
102
}
330
7DE1B343D9E1676
100
AcDbXrecord
  1
{5E603270-8DB9-11D6-88E6-0090279574E7}
  0
XRECORD
  5
7DE1B343D9E1679
102
{ACAD_REACTORS
330
7DE1B343D9E1676
102
}
330
7DE1B343D9E1676
100
AcDbXrecord
  1

  0
XRECORD
  5
7DE1B343D9E167F
102
{ACAD_REACTORS
330
7DE1B343D9E1676
102
}
330
7DE1B343D9E1676
100
AcDbXrecord
 90
        0
  0
XRECORD
  5
7DE1B343D9E167B
102
{ACAD_REACTORS
330
7DE1B343D9E1676
102
}
330
7DE1B343D9E1676
100
AcDbXrecord
340
7DE1B343D9E166B
  0
XRECORD
  5
7DE1B343D9E167E
102
{ACAD_REACTORS
330
7DE1B343D9E1676
102
}
330
7DE1B343D9E1676
100
AcDbXrecord
 90
    14877
  0
XRECORD
  5
7DE1B343D9E167C
102
{ACAD_REACTORS
330
7DE1B343D9E1676
102
}
330
7DE1B343D9E1676
100
AcDbXrecord
340
7DE1B343D9E166C
  0
XRECORD
  5
7DE1B343D9E167D
102
{ACAD_REACTORS
330
7DE1B343D9E1676
102
}
330
7DE1B343D9E1676
100
AcDbXrecord
340
7DE1B343D9E1669
  0
XRECORD
  5
7DE1B343D9E1683
102
{ACAD_REACTORS
330
7DE1B343D9E1676
102
}
330
7DE1B343D9E1676
100
AcDbXrecord
 40
0.0
  0
XRECORD
  5
7DE1B343D9E1686
102
{ACAD_REACTORS
330
7DE1B343D9E1676
102
}
330
7DE1B343D9E1676
100
AcDbXrecord
340
0
  0
XRECORD
  5
7DE1B343D9E168C
102
{ACAD_REACTORS
330
7DE1B343D9E1676
102
}
330
7DE1B343D9E1676
100
AcDbXrecord
 10
0.0
 20
0.0
 30
0.0
  0
XRECORD
  5
7DE1B343D9E1688
102
{ACAD_REACTORS
330
7DE1B343D9E1676
102
}
330
7DE1B343D9E1676
100
AcDbXrecord
 10
0.0
 20
0.0
 30
0.0
  0
XRECORD
  5
7DE1B343D9E168B
102
{ACAD_REACTORS
330
7DE1B343D9E1676
102
}
330
7DE1B343D9E1676
100
AcDbXrecord
 10
0.0
 20
0.0
 30
0.0
  0
XRECORD
  5
7DE1B343D9E1689
102
{ACAD_REACTORS
330
7DE1B343D9E1676
102
}
330
7DE1B343D9E1676
100
AcDbXrecord
 10
0.0
 20
0.0
 30
0.0
  0
XRECORD
  5
7DE1B343D9E168A
102
{ACAD_REACTORS
330
7DE1B343D9E1676
102
}
330
7DE1B343D9E1676
100
AcDbXrecord
 10
0.0
 20
0.0
 30
0.0
  0
XRECORD
  5
7DE1B343D9E1687
102
{ACAD_REACTORS
330
7DE1B343D9E1676
102
}
330
7DE1B343D9E1676
100
AcDbXrecord
 10
0.0
 20
0.0
 30
0.0
  0
XRECORD
  5
7DE1B343D9E1684
102
{ACAD_REACTORS
330
7DE1B343D9E1676
102
}
330
7DE1B343D9E1676
100
AcDbXrecord
340
0
  0
XRECORD
  5
7DE1B343D9E1685
102
{ACAD_REACTORS
330
7DE1B343D9E1676
102
}
330
7DE1B343D9E1676
100
AcDbXrecord
 70
     0
  0
XRECORD
  5
7DE1B343D9E167A
102
{ACAD_REACTORS
330
7DE1B343D9E1676
102
}
330
7DE1B343D9E1676
100
AcDbXrecord
  1

  0
XRECORD
  5
7DE1B343D9E1677
102
{ACAD_REACTORS
330
7DE1B343D9E1676
102
}
330
7DE1B343D9E1676
100
AcDbXrecord
 90
        1
  0
XRECORD
  5
7DE1B343D9E1678
102
{ACAD_REACTORS
330
7DE1B343D9E1676
102
}
330
7DE1B343D9E1676
100
AcDbXrecord
 90
       70
  0
XRECORD
  5
7DE1B343D9E168F
102
{ACAD_REACTORS
330
7DE1B343D9E1676
102
}
330
7DE1B343D9E1676
100
AcDbXrecord
340
0
  0
XRECORD
  5
7DE1B343D9E1695
102
{ACAD_REACTORS
330
7DE1B343D9E1676
102
}
330
7DE1B343D9E1676
100
AcDbXrecord
 10
0.0
 20
0.0
 30
0.0
  0
XRECORD
  5
7DE1B343D9E1691
102
{ACAD_REACTORS
330
7DE1B343D9E1676
102
}
330
7DE1B343D9E1676
100
AcDbXrecord
 10
0.0
 20
0.0
 30
0.0
  0
XRECORD
  5
7DE1B343D9E1694
102
{ACAD_REACTORS
330
7DE1B343D9E1676
102
}
330
7DE1B343D9E1676
100
AcDbXrecord
 10
0.0
 20
0.0
 30
0.0
  0
XRECORD
  5
7DE1B343D9E1692
102
{ACAD_REACTORS
330
7DE1B343D9E1676
102
}
330
7DE1B343D9E1676
100
AcDbXrecord
 10
0.0
 20
0.0
 30
0.0
  0
XRECORD
  5
7DE1B343D9E1693
102
{ACAD_REACTORS
330
7DE1B343D9E1676
102
}
330
7DE1B343D9E1676
100
AcDbXrecord
 10
0.0
 20
0.0
 30
0.0
  0
XRECORD
  5
7DE1B343D9E1690
102
{ACAD_REACTORS
330
7DE1B343D9E1676
102
}
330
7DE1B343D9E1676
100
AcDbXrecord
 10
0.0
 20
0.0
 30
0.0
  0
XRECORD
  5
7DE1B343D9E168D
102
{ACAD_REACTORS
330
7DE1B343D9E1676
102
}
330
7DE1B343D9E1676
100
AcDbXrecord
340
0
  0
XRECORD
  5
7DE1B343D9E168E
102
{ACAD_REACTORS
330
7DE1B343D9E1676
102
}
330
7DE1B343D9E1676
100
AcDbXrecord
 70
     0
  0
XRECORD
  5
7DE1B343D9E1682
102
{ACAD_REACTORS
330
7DE1B343D9E1676
102
}
330
7DE1B343D9E1676
100
AcDbXrecord
  1
{5E603272-8DB9-11D6-88E6-0090279574E7}
  0
DICTIONARYVAR
  5
7DE1B343D9E1674
102
{ACAD_REACTORS
330
7DE1B343D9E1673
102
}
330
7DE1B343D9E1673
100
DictionaryVariables
280
     0
  1
1
  0
ENDSEC
  0
EOF
