  0
SECTION
  2
HEADER
  9
$ACADVER
  1
AC1014
  9
$ACADMAINTVER
 70
     9
  9
$DWGCODEPAGE
  3
ANSI_1252
  9
$INSBASE
 10
1.582317076350858
 20
1.611717083575723
 30
0.0
  9
$EXTMIN
 10
-0.1911523149528069
 20
0.3615502032003845
 30
0.0
  9
$EXTMAX
 10
3.29406700679432
 20
2.055547077674402
 30
0.0
  9
$LIMMIN
 10
0.0
 20
0.0
  9
$LIMMAX
 10
18.0
 20
12.0
  9
$ORTHOMODE
 70
     1
  9
$REGENMODE
 70
     1
  9
$FILLMODE
 70
     1
  9
$QTEXTMODE
 70
     0
  9
$MIRRTEXT
 70
     0
  9
$DRAGMODE
 70
     2
  9
$LTSCALE
 40
1.0
  9
$OSMODE
 70
    39
  9
$ATTMODE
 70
     1
  9
$TEXTSIZE
 40
0.125
  9
$TRACEWID
 40
0.05
  9
$TEXTSTYLE
  7
ROMANS
  9
$CLAYER
  8
0
  9
$CELTYPE
  6
BYLAYER
  9
$CECOLOR
 62
   256
  9
$CELTSCALE
 40
1.0
  9
$DELOBJ
 70
     1
  9
$DISPSILH
 70
     1
  9
$DIMSCALE
 40
1.0
  9
$DIMASZ
 40
0.125
  9
$DIMEXO
 40
0.125
  9
$DIMDLI
 40
0.375
  9
$DIMRND
 40
0.0
  9
$DIMDLE
 40
0.0
  9
$DIMEXE
 40
0.125
  9
$DIMTP
 40
0.0
  9
$DIMTM
 40
0.0
  9
$DIMTXT
 40
0.125
  9
$DIMCEN
 40
-0.125
  9
$DIMTSZ
 40
0.0
  9
$DIMTOL
 70
     0
  9
$DIMLIM
 70
     0
  9
$DIMTIH
 70
     1
  9
$DIMTOH
 70
     1
  9
$DIMSE1
 70
     0
  9
$DIMSE2
 70
     0
  9
$DIMTAD
 70
     0
  9
$DIMZIN
 70
     4
  9
$DIMBLK
  1

  9
$DIMASO
 70
     1
  9
$DIMSHO
 70
     1
  9
$DIMPOST
  1

  9
$DIMAPOST
  1

  9
$DIMALT
 70
     0
  9
$DIMALTD
 70
     2
  9
$DIMALTF
 40
25.4
  9
$DIMLFAC
 40
1.0
  9
$DIMTOFL
 70
     0
  9
$DIMTVP
 40
0.0
  9
$DIMTIX
 70
     1
  9
$DIMSOXD
 70
     0
  9
$DIMSAH
 70
     0
  9
$DIMBLK1
  1

  9
$DIMBLK2
  1

  9
$DIMSTYLE
  2
STANDARD
  9
$DIMCLRD
 70
     0
  9
$DIMCLRE
 70
     0
  9
$DIMCLRT
 70
     0
  9
$DIMTFAC
 40
1.0
  9
$DIMGAP
 40
0.09
  9
$DIMJUST
 70
     0
  9
$DIMSD1
 70
     0
  9
$DIMSD2
 70
     0
  9
$DIMTOLJ
 70
     1
  9
$DIMTZIN
 70
     4
  9
$DIMALTZ
 70
     0
  9
$DIMALTTZ
 70
     0
  9
$DIMFIT
 70
     3
  9
$DIMUPT
 70
     0
  9
$DIMUNIT
 70
     2
  9
$DIMDEC
 70
     3
  9
$DIMTDEC
 70
     3
  9
$DIMALTU
 70
     2
  9
$DIMALTTD
 70
     2
  9
$DIMTXSTY
  7
ROMANS
  9
$DIMAUNIT
 70
     0
  9
$LUNITS
 70
     2
  9
$LUPREC
 70
     3
  9
$SKETCHINC
 40
0.1
  9
$FILLETRAD
 40
0.03125
  9
$AUNITS
 70
     0
  9
$AUPREC
 70
     0
  9
$MENU
  1
ACAD
  9
$ELEVATION
 40
0.0
  9
$PELEVATION
 40
0.0
  9
$THICKNESS
 40
0.0
  9
$LIMCHECK
 70
     0
  9
$BLIPMODE
 70
     0
  9
$CHAMFERA
 40
0.0
  9
$CHAMFERB
 40
0.0
  9
$CHAMFERC
 40
0.0
  9
$CHAMFERD
 40
0.0
  9
$SKPOLY
 70
     0
  9
$TDCREATE
 40
2448994.681350694
  9
$TDUPDATE
 40
2452458.322100509
  9
$TDINDWG
 40
0.0004436111
  9
$TDUSRTIMER
 40
0.0004436111
  9
$USRTIMER
 70
     1
  9
$ANGBASE
 50
0.0
  9
$ANGDIR
 70
     0
  9
$PDMODE
 70
     0
  9
$PDSIZE
 40
0.0
  9
$PLINEWID
 40
0.0
  9
$COORDS
 70
     2
  9
$SPLFRAME
 70
     0
  9
$SPLINETYPE
 70
     6
  9
$SPLINESEGS
 70
     8
  9
$ATTDIA
 70
     0
  9
$ATTREQ
 70
     1
  9
$HANDLING
 70
 22529
  9
$HANDSEED
  5
7DE1B343D9E129D
  9
$SURFTAB1
 70
     6
  9
$SURFTAB2
 70
     6
  9
$SURFTYPE
 70
     6
  9
$SURFU
 70
     6
  9
$SURFV
 70
     6
  9
$UCSNAME
  2

  9
$UCSORG
 10
0.0
 20
0.0
 30
0.0
  9
$UCSXDIR
 10
1.0
 20
0.0
 30
0.0
  9
$UCSYDIR
 10
0.0
 20
1.0
 30
0.0
  9
$PUCSNAME
  2

  9
$PUCSORG
 10
0.0
 20
0.0
 30
0.0
  9
$PUCSXDIR
 10
1.0
 20
0.0
 30
0.0
  9
$PUCSYDIR
 10
0.0
 20
1.0
 30
0.0
  9
$USERI1
 70
     0
  9
$USERI2
 70
     0
  9
$USERI3
 70
     0
  9
$USERI4
 70
     0
  9
$USERI5
 70
     0
  9
$USERR1
 40
0.0
  9
$USERR2
 40
0.0
  9
$USERR3
 40
0.0
  9
$USERR4
 40
0.0
  9
$USERR5
 40
0.0
  9
$WORLDVIEW
 70
     1
  9
$SHADEDGE
 70
     3
  9
$SHADEDIF
 70
    70
  9
$TILEMODE
 70
     1
  9
$MAXACTVP
 70
    16
  9
$PINSBASE
 10
0.5088029368214934
 20
50.00000000000001
 30
0.6798780479854545
  9
$PLIMCHECK
 70
     0
  9
$PEXTMIN
 10
1.000000000000000E+20
 20
1.000000000000000E+20
 30
1.000000000000000E+20
  9
$PEXTMAX
 10
-1.000000000000000E+20
 20
-1.000000000000000E+20
 30
-1.000000000000000E+20
  9
$PLIMMIN
 10
0.0
 20
0.0
  9
$PLIMMAX
 10
12.0
 20
9.0
  9
$UNITMODE
 70
     0
  9
$VISRETAIN
 70
     0
  9
$PLINEGEN
 70
     1
  9
$PSLTSCALE
 70
     0
  9
$TREEDEPTH
 70
  3020
  9
$PICKSTYLE
 70
     1
  9
$CMLSTYLE
  2
STANDARD
  9
$CMLJUST
 70
     0
  9
$CMLSCALE
 40
1.0
  9
$PROXYGRAPHICS
 70
     1
  9
$MEASUREMENT
 70
     0
  0
ENDSEC
  0
SECTION
  2
CLASSES
  0
CLASS
  1
LWPOLYLINE
  2
AcDbPolyline
  3
AutoCAD 2000
 90
        0
280
     0
281
     1
  0
CLASS
  1
ACDBDICTIONARYWDFLT
  2
AcDbDictionaryWithDefault
  3
AutoCAD 2000
 90
        0
280
     0
281
     0
  0
CLASS
  1
ACDBPLACEHOLDER
  2
AcDbPlaceHolder
  3
AutoCAD 2000
 90
        0
280
     0
281
     0
  0
CLASS
  1
LAYOUT
  2
AcDbLayout
  3
AutoCAD 2000
 90
        0
280
     0
281
     0
  0
CLASS
  1
DICTIONARYVAR
  2
AcDbDictionaryVar
  3
AutoCAD 2000
 90
        0
280
     0
281
     0
  0
CLASS
  1
LONG_TRANSACTION
  2
AcDbLongTransaction
  3
AutoCAD 2000
 90
        0
280
     0
281
     0
  0
CLASS
  1
LWPOLYLINE
  2
AcDbPolyline
  3
AutoCAD 2000
 90
        0
280
     0
281
     1
  0
CLASS
  1
HATCH
  2
AcDbHatch
  3
AutoCAD 2000
 90
        0
280
     0
281
     1
  0
CLASS
  1
XRECORD
  2
AcDbXrecord
  3
AutoCAD 2000
 90
        0
280
     0
281
     0
  0
ENDSEC
  0
SECTION
  2
TABLES
  0
TABLE
  2
VPORT
  5
7DE1B343D9E1244
330
0
100
AcDbSymbolTable
 70
     2
  0
VPORT
  5
7DE1B343D9E1278
330
7DE1B343D9E1244
100
AcDbSymbolTableRecord
100
AcDbViewportTableRecord
  2
*ACTIVE
 70
     0
 10
0.0
 20
0.0
 11
1.0
 21
1.0
 12
4.527420203951935
 22
1.208587668846114
 13
0.0
 23
0.0
 14
0.015625
 24
0.015625
 15
0.0
 25
0.0
 16
0.0
 26
0.0
 36
1.0
 17
0.0
 27
0.0
 37
0.0
 40
2.282356258404485
 41
4.320930232558139
 42
50.0
 43
0.0
 44
0.0
 50
0.0
 51
0.0
 71
     0
 72
  2000
 73
     1
 74
     0
 75
     0
 76
     0
 77
     0
 78
     0
  0
ENDTAB
  0
TABLE
  2
LTYPE
  5
7DE1B343D9E1241
330
0
100
AcDbSymbolTable
 70
     1
  0
LTYPE
  5
7DE1B343D9E124E
330
7DE1B343D9E1241
100
AcDbSymbolTableRecord
100
AcDbLinetypeTableRecord
  2
BYBLOCK
 70
     0
  3

 72
    65
 73
     0
 40
0.0
  0
LTYPE
  5
7DE1B343D9E124F
330
7DE1B343D9E1241
100
AcDbSymbolTableRecord
100
AcDbLinetypeTableRecord
  2
BYLAYER
 70
     0
  3

 72
    65
 73
     0
 40
0.0
  0
LTYPE
  5
7DE1B343D9E1250
330
7DE1B343D9E1241
100
AcDbSymbolTableRecord
100
AcDbLinetypeTableRecord
  2
CONTINUOUS
 70
     0
  3
Solid line
 72
    65
 73
     0
 40
0.0
  0
ENDTAB
  0
TABLE
  2
LAYER
  5
7DE1B343D9E123E
330
0
100
AcDbSymbolTable
 70
     2
  0
LAYER
  5
7DE1B343D9E124B
330
7DE1B343D9E123E
100
AcDbSymbolTableRecord
100
AcDbLayerTableRecord
  2
0
 70
     0
 62
     7
  6
CONTINUOUS
  0
LAYER
  5
7DE1B343D9E125B
330
7DE1B343D9E123E
100
AcDbSymbolTableRecord
100
AcDbLayerTableRecord
  2
TEXT
 70
     0
 62
     3
  6
CONTINUOUS
  0
ENDTAB
  0
TABLE
  2
STYLE
  5
7DE1B343D9E123F
330
0
100
AcDbSymbolTable
 70
     3
  0
STYLE
  5
7DE1B343D9E124C
330
7DE1B343D9E123F
100
AcDbSymbolTableRecord
100
AcDbTextStyleTableRecord
  2
STANDARD
 70
     0
 40
0.0
 41
1.0
 50
0.0
 71
     0
 42
0.3125
  3
txt
  4

  0
STYLE
  5
7DE1B343D9E1258
330
7DE1B343D9E123F
100
AcDbSymbolTableRecord
100
AcDbTextStyleTableRecord
  2
ITALICC
 70
     0
 40
0.0
 41
1.0
 50
0.0
 71
     0
 42
0.125
  3
italicc
  4

  0
STYLE
  5
7DE1B343D9E1268
330
7DE1B343D9E123F
100
AcDbSymbolTableRecord
100
AcDbTextStyleTableRecord
  2
ROMANS
 70
     0
 40
0.0
 41
1.0
 50
0.0
 71
     0
 42
0.125
  3
romans.shx
  4

  0
ENDTAB
  0
TABLE
  2
VIEW
  5
7DE1B343D9E1242
330
0
100
AcDbSymbolTable
 70
     0
  0
ENDTAB
  0
TABLE
  2
UCS
  5
7DE1B343D9E1243
330
0
100
AcDbSymbolTable
 70
     0
  0
ENDTAB
  0
TABLE
  2
APPID
  5
7DE1B343D9E1245
330
0
100
AcDbSymbolTable
 70
     1
  0
APPID
  5
7DE1B343D9E124D
330
7DE1B343D9E1245
100
AcDbSymbolTableRecord
100
AcDbRegAppTableRecord
  2
ACAD
 70
     0
  0
ENDTAB
  0
TABLE
  2
DIMSTYLE
  5
7DE1B343D9E1246
330
0
100
AcDbSymbolTable
 70
     1
  0
DIMSTYLE
105
7DE1B343D9E1260
330
7DE1B343D9E1246
100
AcDbSymbolTableRecord
100
AcDbDimStyleTableRecord
  2
STANDARD
 70
     0
  3

  4

  5

  6

  7

 40
1.0
 41
0.125
 42
0.125
 43
0.375
 44
0.125
 45
0.0
 46
0.0
 47
0.0
 48
0.0
140
0.125
141
-0.125
142
0.0
143
25.4
144
1.0
145
0.0
146
1.0
147
0.09
 71
     0
 72
     0
 73
     1
 74
     1
 75
     0
 76
     0
 77
     0
 78
     4
170
     0
171
     2
172
     0
173
     0
174
     1
175
     0
176
     0
177
     0
178
     0
270
     2
271
     3
272
     3
273
     2
274
     2
340
7DE1B343D9E1268
275
     0
280
     0
281
     0
282
     0
283
     1
284
     4
285
     0
286
     0
287
     3
288
     0
  0
ENDTAB
  0
TABLE
  2
BLOCK_RECORD
  5
7DE1B343D9E123D
330
0
100
AcDbSymbolTable
 70
     0
  0
BLOCK_RECORD
  5
7DE1B343D9E1254
102
{ACAD_XDICTIONARY
360
7DE1B343D9E129B
102
}
330
7DE1B343D9E123D
100
AcDbSymbolTableRecord
100
AcDbBlockTableRecord
  2
*MODEL_SPACE
  0
BLOCK_RECORD
  5
7DE1B343D9E1251
102
{ACAD_XDICTIONARY
360
7DE1B343D9E1299
102
}
330
7DE1B343D9E123D
100
AcDbSymbolTableRecord
100
AcDbBlockTableRecord
  2
*PAPER_SPACE
  0
ENDTAB
  0
ENDSEC
  0
SECTION
  2
BLOCKS
  0
BLOCK
  5
7DE1B343D9E125E
330
7DE1B343D9E1254
100
AcDbEntity
  8
0
100
AcDbBlockBegin
  2
*MODEL_SPACE
 70
     0
 10
0.0
 20
0.0
 30
0.0
  3
*MODEL_SPACE
  1

  0
ENDBLK
  5
7DE1B343D9E125F
330
7DE1B343D9E1254
100
AcDbEntity
  8
0
100
AcDbBlockEnd
  0
BLOCK
  5
7DE1B343D9E125C
330
7DE1B343D9E1251
100
AcDbEntity
 67
     1
  8
0
100
AcDbBlockBegin
  2
*PAPER_SPACE
 70
     0
 10
0.0
 20
0.0
 30
0.0
  3
*PAPER_SPACE
  1

  0
ENDBLK
  5
7DE1B343D9E125D
330
7DE1B343D9E1251
100
AcDbEntity
 67
     1
  8
0
100
AcDbBlockEnd
  0
ENDSEC
  0
SECTION
  2
ENTITIES
  0
LWPOLYLINE
  5
7DE1B343D9DFC75
330
7DE1B343D9E1254
100
AcDbEntity
  8
0
100
AcDbPolyline
 90
       22
 70
     1
 43
0.0
 10
1.519637839431
 20
1.118047077674402
 10
1.287618426854164
 20
1.350066490251238
 10
1.331812600678323
 20
1.394260664075397
 10
1.545526187079319
 20
1.180547077674402
 10
1.582137839431
 20
1.180547077674402
 10
1.582137839431
 20
1.733047077674402
 10
1.592137839431
 20
1.743047077674402
 10
1.582137839431
 20
1.753047077674402
 10
1.582137839431
 20
2.055547077674402
 10
1.738387839431
 20
2.055547077674402
 10
1.738387839431
 20
1.993047077674402
 10
1.675887839431
 20
1.993047077674402
 10
1.675887839431
 20
1.868047077674402
 10
1.738387839431
 20
1.868047077674402
 10
1.738387839431
 20
1.618047077674402
 10
1.675887839431
 20
1.618047077674402
 10
1.675887839431
 20
1.503047077674402
 10
1.665887839431001
 20
1.493047077674402
 10
1.675887839431
 20
1.483047077674403
 10
1.675887839431
 20
1.180547077674402
 10
1.738387839431
 20
1.180547077674402
 10
1.738387839431
 20
1.118047077674402
  0
TEXT
  5
7DE1B343D9E10FF
330
7DE1B343D9E1254
100
AcDbEntity
  8
TEXT
100
AcDbText
 10
0.7988530737981458
 20
0.8195688072829659
 30
0.0
 40
0.125
  1
PART #120032
  7
ITALICC
 72
     1
 11
1.551829264274336
 21
0.8195688072829659
 31
0.0
100
AcDbText
  0
TEXT
  5
7DE1B343D9E1100
330
7DE1B343D9E1254
100
AcDbEntity
  8
TEXT
100
AcDbText
 10
1.965134422524656
 20
0.3726461646105909
 30
0.0
 40
0.0522247191011236
  1
Phone  1-800-328-2495
 41
1.272321428571429
 72
     5
 11
3.29406700679432
 21
0.3726461646105909
 31
0.0
100
AcDbText
  0
TEXT
  5
7DE1B343D9E1101
330
7DE1B343D9E1254
100
AcDbEntity
  8
TEXT
100
AcDbText
 10
1.965134422524656
 20
0.6524214455094674
 30
0.0
 40
0.0522247191011236
  1
Stylmark  Incorporated
 41
1.221428571428573
 72
     5
 11
3.29406700679432
 21
0.6524214455094674
 31
0.0
100
AcDbText
  0
TEXT
  5
7DE1B343D9E1102
330
7DE1B343D9E1254
100
AcDbEntity
  8
TEXT
100
AcDbText
 10
1.965134422524656
 20
0.5591630185431752
 30
0.0
 40
0.0522247191011236
  1
6536 Main St. N.E. * P.O. Box 32008
 41
0.8388932496075366
 72
     5
 11
3.29406700679432
 21
0.5591630185431752
 31
0.0
100
AcDbText
  0
TEXT
  5
7DE1B343D9E1103
330
7DE1B343D9E1254
100
AcDbEntity
  8
TEXT
100
AcDbText
 10
1.965134422524656
 20
0.4659045915768831
 30
0.0
 40
0.0522247191011236
  1
Minneapolis, MN 55432-0008
 41
1.11444212721585
 72
     5
 11
3.29406700679432
 21
0.4659045915768831
 31
0.0
100
AcDbText
  0
LWPOLYLINE
  5
7DE1B343D9E1104
330
7DE1B343D9E1254
100
AcDbEntity
  8
TEXT
100
AcDbPolyline
 90
        3
 70
     0
 43
0.0006660908203125
 10
-0.1908192695426507
 20
0.4862909272480258
 10
-0.1908192695426507
 20
0.3730554877948981
 10
-0.0775838300895284
 20
0.3730554877948981
  0
LWPOLYLINE
  5
7DE1B343D9E1109
330
7DE1B343D9E1254
100
AcDbEntity
  8
TEXT
100
AcDbPolyline
 90
        3
 70
     0
 43
0.0006660908203125
 10
-0.1641756367301532
 20
0.4862909272480258
 10
-0.1641756367301532
 20
0.3996991206073991
 10
-0.0775838300895284
 20
0.3996991206073991
  0
LWPOLYLINE
  5
7DE1B343D9E110E
330
7DE1B343D9E1254
100
AcDbEntity
  8
TEXT
100
AcDbPolyline
 90
        2
 70
     0
 43
0.0001332181640625
 10
-0.1175492793082764
 20
0.496282289552711
 10
-0.1908192695426507
 20
0.4862909272480258
  0
LWPOLYLINE
  5
7DE1B343D9E1112
330
7DE1B343D9E1254
100
AcDbEntity
  8
TEXT
100
AcDbPolyline
 90
        2
 70
     0
 43
0.0001332181640625
 10
-0.1641756367301532
 20
0.4862909272480258
 10
-0.1042274629020259
 20
0.496282289552711
  0
LWPOLYLINE
  5
7DE1B343D9E1116
330
7DE1B343D9E1254
100
AcDbEntity
  8
TEXT
100
AcDbPolyline
 90
        2
 70
     0
 43
0.0001332181640625
 10
-0.1641756367301532
 20
0.3996991206073991
 10
-0.1042274629020259
 20
0.4596472944355247
  0
LWPOLYLINE
  5
7DE1B343D9E111A
330
7DE1B343D9E1254
100
AcDbEntity
  8
TEXT
100
AcDbPolyline
 90
        3
 70
     0
 43
0.0006660908203125
 10
-0.0775838300895284
 20
0.6394918159199014
 10
-0.1908192695426507
 20
0.6394918159199014
 10
-0.1908192695426507
 20
0.5262563764667738
  0
LWPOLYLINE
  5
7DE1B343D9E111F
330
7DE1B343D9E1254
100
AcDbEntity
  8
TEXT
100
AcDbPolyline
 90
        3
 70
     0
 43
0.0006660908203125
 10
-0.0775838300895284
 20
0.6128481831074004
 10
-0.1641756367301532
 20
0.6128481831074004
 10
-0.1641756367301532
 20
0.5262563764667738
  0
LWPOLYLINE
  5
7DE1B343D9E1124
330
7DE1B343D9E1254
100
AcDbEntity
  8
TEXT
100
AcDbPolyline
 90
        2
 70
     0
 43
0.0001332181640625
 10
-0.1641756367301532
 20
0.6128481831074004
 10
-0.1042274629020277
 20
0.5529000092792748
  0
LWPOLYLINE
  5
7DE1B343D9E1128
330
7DE1B343D9E1254
100
AcDbEntity
  8
TEXT
100
AcDbPolyline
 90
        2
 70
     0
 43
0.0001332181640625
 10
-0.1641756367301532
 20
0.5262563764667738
 10
-0.1042274629020277
 20
0.516265014162085
  0
LWPOLYLINE
  5
7DE1B343D9E112C
330
7DE1B343D9E1254
100
AcDbEntity
  8
TEXT
100
AcDbPolyline
 90
        2
 70
     0
 43
0.0001332181640625
 10
-0.1908192695426507
 20
0.5262563764667738
 10
-0.1175492793082764
 20
0.516265014162085
  0
LWPOLYLINE
  5
7DE1B343D9E1130
330
7DE1B343D9E1254
100
AcDbEntity
  8
TEXT
100
AcDbPolyline
 90
        2
 70
     0
 43
0.0006660908203125
 10
-0.1641756367301532
 20
0.4862909272480258
 10
-0.1908192695426507
 20
0.4862909272480258
  0
LWPOLYLINE
  5
7DE1B343D9E1134
330
7DE1B343D9E1254
100
AcDbEntity
  8
TEXT
100
AcDbPolyline
 90
        2
 70
     0
 43
0.0006660908203125
 10
-0.1641756367301532
 20
0.5262563764667738
 10
-0.1908192695426507
 20
0.5262563764667738
  0
LINE
  5
7DE1B343D9E1138
330
7DE1B343D9E1254
100
AcDbEntity
  8
TEXT
100
AcDbLine
 10
1.324371159583846
 20
0.5752151212631324
 30
0.0
 11
1.217164886196557
 21
0.5752151212631324
 31
0.0
  0
LINE
  5
7DE1B343D9E1139
330
7DE1B343D9E1254
100
AcDbEntity
  8
TEXT
100
AcDbLine
 10
1.353402057928325
 20
0.6394918159198978
 30
0.0
 11
1.218570148711266
 21
0.6394918159198978
 31
0.0
  0
ARC
  5
7DE1B343D9E113A
330
7DE1B343D9E1254
100
AcDbEntity
  8
TEXT
100
AcDbCircle
 10
1.277884245104583
 20
0.4702545666568815
 30
0.0
 40
0.0676855811441166
100
AcDbArc
 50
90.0
 51
153.7768192527749
  0
LWPOLYLINE
  5
7DE1B343D9E113B
330
7DE1B343D9E1254
100
AcDbEntity
  8
TEXT
100
AcDbPolyline
 90
        2
 70
     0
 43
0.0
 10
1.216132390741747
 20
0.416509727881825
 42
0.2901071551932823
 10
1.259208323609382
 20
0.3730187829313868
 42
5.328517124445801
  0
ARC
  5
7DE1B343D9E113F
330
7DE1B343D9E1254
100
AcDbEntity
  8
TEXT
100
AcDbCircle
 10
0.5727528674330973
 20
0.4328111742694367
 30
0.0
 40
0.0601160179737537
100
AcDbArc
 50
180.0000000000003
 51
264.0521544866073
  0
LINE
  5
7DE1B343D9E1140
330
7DE1B343D9E1254
100
AcDbEntity
  8
TEXT
100
AcDbLine
 10
0.5762682230586452
 20
0.673879733514036
 30
0.0
 11
0.5162256182146381
 21
0.673879733514036
 31
0.0
  0
ARC
  5
7DE1B343D9E1141
330
7DE1B343D9E1254
100
AcDbEntity
  8
TEXT
100
AcDbCircle
 10
0.3404938653161267
 20
0.5574043564733961
 30
0.0
 40
0.0820874594465043
100
AcDbArc
 50
90.0
 51
270.0
  0
LWPOLYLINE
  5
7DE1B343D9E1142
330
7DE1B343D9E1254
100
AcDbEntity
  8
TEXT
100
AcDbPolyline
 90
        2
 70
     0
 43
0.0001332181640625
 10
-0.0675924677848379
 20
0.5662218256855218
 10
-0.0775838300895284
 20
0.6394918159199014
  0
LWPOLYLINE
  5
7DE1B343D9E1146
330
7DE1B343D9E1254
100
AcDbEntity
  8
TEXT
100
AcDbPolyline
 90
        2
 70
     0
 43
0.0001332181640625
 10
-0.0775838300895284
 20
0.6128481831074004
 10
-0.0675924677848379
 20
0.5529000092792748
  0
LWPOLYLINE
  5
7DE1B343D9E114A
330
7DE1B343D9E1254
100
AcDbEntity
  8
TEXT
100
AcDbPolyline
 90
        3
 70
     0
 43
0.0006660908203125
 10
0.075617058582349
 20
0.5262563764667738
 10
0.075617058582349
 20
0.6394918159199014
 10
-0.0376183808707769
 20
0.6394918159199014
  0
LWPOLYLINE
  5
7DE1B343D9E114F
330
7DE1B343D9E1254
100
AcDbEntity
  8
TEXT
100
AcDbPolyline
 90
        3
 70
     0
 43
0.0006660908203125
 10
0.048973425769848
 20
0.5262563764667738
 10
0.048973425769848
 20
0.6128481831074004
 10
-0.0376183808707769
 20
0.6128481831074004
  0
LWPOLYLINE
  5
7DE1B343D9E1154
330
7DE1B343D9E1254
100
AcDbEntity
  8
TEXT
100
AcDbPolyline
 90
        2
 70
     0
 43
0.0001332181640625
 10
0.048973425769848
 20
0.6128481831074004
 10
-0.0109747480582758
 20
0.5529000092792748
  0
LWPOLYLINE
  5
7DE1B343D9E1158
330
7DE1B343D9E1254
100
AcDbEntity
  8
TEXT
100
AcDbPolyline
 90
        2
 70
     0
 43
0.0001332181640625
 10
-0.0376183808707769
 20
0.6128481831074004
 10
-0.0476097431754656
 20
0.5529000092792748
  0
LWPOLYLINE
  5
7DE1B343D9E115C
330
7DE1B343D9E1254
100
AcDbEntity
  8
TEXT
100
AcDbPolyline
 90
        2
 70
     0
 43
0.0001332181640625
 10
-0.0376183808707769
 20
0.6394918159199014
 10
-0.0476097431754656
 20
0.5662218256855218
  0
LWPOLYLINE
  5
7DE1B343D9E1160
330
7DE1B343D9E1254
100
AcDbEntity
  8
TEXT
100
AcDbPolyline
 90
        2
 70
     0
 43
0.0001332181640625
 10
0.0023470683479729
 20
0.516265014162085
 10
0.075617058582349
 20
0.5262563764667738
  0
LWPOLYLINE
  5
7DE1B343D9E1164
330
7DE1B343D9E1254
100
AcDbEntity
  8
TEXT
100
AcDbPolyline
 90
        2
 70
     0
 43
0.0001332181640625
 10
0.048973425769848
 20
0.5262563764667738
 10
-0.0109747480582758
 20
0.516265014162085
  0
LWPOLYLINE
  5
7DE1B343D9E1168
330
7DE1B343D9E1254
100
AcDbEntity
  8
TEXT
100
AcDbPolyline
 90
        2
 70
     0
 43
0.0001332181640625
 10
0.075617058582349
 20
0.4862909272480258
 10
0.0023470683479729
 20
0.496282289552711
  0
LWPOLYLINE
  5
7DE1B343D9E116C
330
7DE1B343D9E1254
100
AcDbEntity
  8
TEXT
100
AcDbPolyline
 90
        2
 70
     0
 43
0.0001332181640625
 10
0.048973425769848
 20
0.4862909272480258
 10
-0.0109747480582758
 20
0.496282289552711
  0
LWPOLYLINE
  5
7DE1B343D9E1170
330
7DE1B343D9E1254
100
AcDbEntity
  8
TEXT
100
AcDbPolyline
 90
        2
 70
     0
 43
0.0001332181640625
 10
0.048973425769848
 20
0.3996991206073991
 10
-0.0109747480582758
 20
0.4596472944355247
  0
LWPOLYLINE
  5
7DE1B343D9E1174
330
7DE1B343D9E1254
100
AcDbEntity
  8
TEXT
100
AcDbPolyline
 90
        3
 70
     0
 43
0.0006660908203125
 10
-0.0376183808707769
 20
0.3996991206073991
 10
0.048973425769848
 20
0.3996991206073991
 10
0.048973425769848
 20
0.4862909272480258
  0
LWPOLYLINE
  5
7DE1B343D9E1179
330
7DE1B343D9E1254
100
AcDbEntity
  8
TEXT
100
AcDbPolyline
 90
        3
 70
     0
 43
0.0006660908203125
 10
-0.0376183808707769
 20
0.3730554877948981
 10
0.075617058582349
 20
0.3730554877948981
 10
0.075617058582349
 20
0.4862909272480258
  0
LWPOLYLINE
  5
7DE1B343D9E117E
330
7DE1B343D9E1254
100
AcDbEntity
  8
TEXT
100
AcDbPolyline
 90
        5
 70
     0
 43
0.0001332181640625
 10
-0.0675924677848379
 20
0.4463254780292742
 10
-0.0675924677848379
 20
0.4596472944355247
 10
-0.1042274629020259
 20
0.4596472944355247
 10
-0.1042274629020259
 20
0.496282289552711
 10
-0.1175492793082764
 20
0.496282289552711
  0
LWPOLYLINE
  5
7DE1B343D9E1185
330
7DE1B343D9E1254
100
AcDbEntity
  8
TEXT
100
AcDbPolyline
 90
        2
 70
     0
 43
0.0006660908203125
 10
-0.0775838300895284
 20
0.3996991206073991
 10
-0.0775838300895284
 20
0.3730554877948981
  0
LWPOLYLINE
  5
7DE1B343D9E1189
330
7DE1B343D9E1254
100
AcDbEntity
  8
TEXT
100
AcDbPolyline
 90
        2
 70
     0
 43
0.0001332181640625
 10
-0.0775838300895284
 20
0.3996991206073991
 10
-0.0675924677848379
 20
0.4596472944355247
  0
LWPOLYLINE
  5
7DE1B343D9E118D
330
7DE1B343D9E1254
100
AcDbEntity
  8
TEXT
100
AcDbPolyline
 90
        2
 70
     0
 43
0.0001332181640625
 10
-0.0775838300895284
 20
0.3730554877948981
 10
-0.0675924677848379
 20
0.4463254780292742
  0
LWPOLYLINE
  5
7DE1B343D9E1191
330
7DE1B343D9E1254
100
AcDbEntity
  8
TEXT
100
AcDbPolyline
 90
        5
 70
     0
 43
0.0001332181640625
 10
-0.1175492793082764
 20
0.516265014162085
 10
-0.1042274629020277
 20
0.516265014162085
 10
-0.1042274629020277
 20
0.5529000092792748
 10
-0.0675924677848379
 20
0.5529000092792748
 10
-0.0675924677848379
 20
0.5662218256855218
  0
LWPOLYLINE
  5
7DE1B343D9E1198
330
7DE1B343D9E1254
100
AcDbEntity
  8
TEXT
100
AcDbPolyline
 90
        5
 70
     0
 43
0.0001332181640625
 10
-0.0476097431754656
 20
0.5662218256855218
 10
-0.0476097431754656
 20
0.5529000092792748
 10
-0.0109747480582758
 20
0.5529000092792748
 10
-0.0109747480582758
 20
0.516265014162085
 10
0.0023470683479729
 20
0.516265014162085
  0
LWPOLYLINE
  5
7DE1B343D9E119F
330
7DE1B343D9E1254
100
AcDbEntity
  8
TEXT
100
AcDbPolyline
 90
        2
 70
     0
 43
0.0001332181640625
 10
-0.0376183808707769
 20
0.3996991206073991
 10
-0.0476097431754656
 20
0.4596472944355247
  0
LWPOLYLINE
  5
7DE1B343D9E11A3
330
7DE1B343D9E1254
100
AcDbEntity
  8
TEXT
100
AcDbPolyline
 90
        2
 70
     0
 43
0.0001332181640625
 10
-0.0476097431754656
 20
0.4463254780292742
 10
-0.0376183808707769
 20
0.3730554877948981
  0
LWPOLYLINE
  5
7DE1B343D9E11A7
330
7DE1B343D9E1254
100
AcDbEntity
  8
TEXT
100
AcDbPolyline
 90
        2
 70
     0
 43
0.0006660908203125
 10
-0.0376183808707769
 20
0.3996991206073991
 10
-0.0376183808707769
 20
0.3730554877948981
  0
LWPOLYLINE
  5
7DE1B343D9E11AB
330
7DE1B343D9E1254
100
AcDbEntity
  8
TEXT
100
AcDbPolyline
 90
        5
 70
     0
 43
0.0001332181640625
 10
0.0023470683479729
 20
0.496282289552711
 10
-0.0109747480582758
 20
0.496282289552711
 10
-0.0109747480582758
 20
0.4596472944355247
 10
-0.0476097431754656
 20
0.4596472944355247
 10
-0.0476097431754656
 20
0.4463254780292742
  0
LWPOLYLINE
  5
7DE1B343D9E11B2
330
7DE1B343D9E1254
100
AcDbEntity
  8
TEXT
100
AcDbPolyline
 90
        2
 70
     0
 43
0.0006660908203125
 10
0.048973425769848
 20
0.5262563764667738
 10
0.075617058582349
 20
0.5262563764667738
  0
LWPOLYLINE
  5
7DE1B343D9E11B6
330
7DE1B343D9E1254
100
AcDbEntity
  8
TEXT
100
AcDbPolyline
 90
        2
 70
     0
 43
0.0006660908203125
 10
0.048973425769848
 20
0.4862909272480258
 10
0.075617058582349
 20
0.4862909272480258
  0
LINE
  5
7DE1B343D9E11BA
330
7DE1B343D9E1254
100
AcDbEntity
  8
TEXT
100
AcDbLine
 10
0.3457311954303739
 20
0.5752151212631324
 30
0.0
 11
0.5126368494593452
 21
0.5752151212631324
 31
0.0
  0
LINE
  5
7DE1B343D9E11BB
330
7DE1B343D9E1254
100
AcDbEntity
  8
TEXT
100
AcDbLine
 10
0.411331331674675
 20
0.5394103996525045
 30
0.0
 11
0.3457311954303739
 21
0.5394103996525045
 31
0.0
  0
LINE
  5
7DE1B343D9E11BC
330
7DE1B343D9E1254
100
AcDbEntity
  8
TEXT
100
AcDbLine
 10
0.2584064058696223
 20
0.3730187829313868
 30
0.0
 11
0.411331331674675
 21
0.3730187829313868
 31
0.0
  0
LINE
  5
7DE1B343D9E11BD
330
7DE1B343D9E1254
100
AcDbEntity
  8
TEXT
100
AcDbLine
 10
0.4162717055809546
 20
0.4413757892648262
 30
0.0
 11
0.2584064058696205
 21
0.4413757892648262
 31
0.0
  0
LINE
  5
7DE1B343D9E11BE
330
7DE1B343D9E1254
100
AcDbEntity
  8
TEXT
100
AcDbLine
 10
0.3404938653161258
 20
0.4753168970268908
 30
0.0
 11
0.4162717055809546
 21
0.4753168970268908
 31
0.0
  0
ARC
  5
7DE1B343D9E11BF
330
7DE1B343D9E1254
100
AcDbEntity
  8
TEXT
100
AcDbCircle
 10
0.3457311954303748
 20
0.5573127604578202
 30
0.0
 40
0.017902360805315
100
AcDbArc
 50
90.0
 51
270.0
  0
LINE
  5
7DE1B343D9E11C0
330
7DE1B343D9E1254
100
AcDbEntity
  8
TEXT
100
AcDbLine
 10
0.2584064058696205
 20
0.4413757892648262
 30
0.0
 11
0.2584064058696223
 21
0.3730187829313868
 31
0.0
  0
LINE
  5
7DE1B343D9E11C1
330
7DE1B343D9E1254
100
AcDbEntity
  8
TEXT
100
AcDbLine
 10
0.5126368494593452
 20
0.5752151212631324
 30
0.0
 11
0.5126368494593452
 21
0.4328111742694367
 31
0.0
  0
ARC
  5
7DE1B343D9E11C2
330
7DE1B343D9E1254
100
AcDbEntity
  8
TEXT
100
AcDbCircle
 10
0.4113313316746759
 20
0.4562145912919439
 30
0.0
 40
0.0831958083605586
100
AcDbArc
 50
270.0
 51
90.0
  0
ARC
  5
7DE1B343D9E11C3
330
7DE1B343D9E1254
100
AcDbEntity
  8
TEXT
100
AcDbCircle
 10
0.4162717055809555
 20
0.4583463431458603
 30
0.0
 40
0.0169705538810321
100
AcDbArc
 50
270.0
 51
90.0
  0
LWPOLYLINE
  5
7DE1B343D9E11C4
330
7DE1B343D9E1254
100
AcDbEntity
  8
TEXT
100
AcDbPolyline
 90
        2
 70
     0
 43
0.0006660908203125
 10
-0.0775838300895284
 20
0.6128481831074004
 10
-0.0775838300895284
 20
0.6394918159199014
  0
LWPOLYLINE
  5
7DE1B343D9E11C8
330
7DE1B343D9E1254
100
AcDbEntity
  8
TEXT
100
AcDbPolyline
 90
        2
 70
     0
 43
0.0006660908203125
 10
-0.0376183808707769
 20
0.6128481831074004
 10
-0.0376183808707769
 20
0.6394918159199014
  0
LINE
  5
7DE1B343D9E11CC
330
7DE1B343D9E1254
100
AcDbEntity
  8
TEXT
100
AcDbLine
 10
0.5162256182146381
 20
0.6394918159198978
 30
0.0
 11
0.3404938653161258
 21
0.6394918159198978
 31
0.0
  0
LINE
  5
7DE1B343D9E11CD
330
7DE1B343D9E1254
100
AcDbEntity
  8
TEXT
100
AcDbLine
 10
0.5162256182146381
 20
0.673879733514036
 30
0.0
 11
0.5162256182146381
 21
0.6394918159198978
 31
0.0
  0
LINE
  5
7DE1B343D9E11CE
330
7DE1B343D9E1254
100
AcDbEntity
  8
TEXT
100
AcDbLine
 10
0.7066975102344904
 20
0.5386198198067773
 30
0.0
 11
0.6480671892025525
 21
0.6394918159198978
 31
0.0
  0
LINE
  5
7DE1B343D9E11CF
330
7DE1B343D9E1254
100
AcDbEntity
  8
TEXT
100
AcDbLine
 10
0.7654460730403559
 20
0.6394918159198978
 30
0.0
 11
0.7066975102344904
 21
0.5386198198067773
 31
0.0
  0
LINE
  5
7DE1B343D9E11D0
330
7DE1B343D9E1254
100
AcDbEntity
  8
TEXT
100
AcDbLine
 10
0.8623766984000971
 20
0.4554066210343861
 30
0.0
 11
0.8623766984000971
 21
0.7075032936587084
 31
0.0
  0
LINE
  5
7DE1B343D9E11D1
330
7DE1B343D9E1254
100
AcDbEntity
  8
TEXT
100
AcDbLine
 10
0.8946885525377572
 20
0.6394918159198978
 30
0.0
 11
0.8946885525377572
 21
0.4386276091874896
 31
0.0
  0
LINE
  5
7DE1B343D9E11D2
330
7DE1B343D9E1254
100
AcDbEntity
  8
TEXT
100
AcDbLine
 10
0.8946885525377572
 20
0.4386276091874896
 30
0.0
 11
0.8776949156531559
 21
0.4386276091874896
 31
0.0
  0
LINE
  5
7DE1B343D9E11D3
330
7DE1B343D9E1254
100
AcDbEntity
  8
TEXT
100
AcDbLine
 10
0.8635162718962918
 20
0.3730187829313868
 30
0.0
 11
0.9615196055957264
 21
0.3730187829313868
 31
0.0
  0
LINE
  5
7DE1B343D9E11D4
330
7DE1B343D9E1254
100
AcDbEntity
  8
TEXT
100
AcDbLine
 10
0.697097273237536
 20
0.3929772890363997
 30
0.0
 11
0.7943969793309807
 21
0.5573274999716679
 31
0.0
  0
ARC
  5
7DE1B343D9E11D5
330
7DE1B343D9E1254
100
AcDbEntity
  8
TEXT
100
AcDbCircle
 10
0.6630537133253221
 20
0.4125665052050826
 30
0.0
 40
0.0392772371940762
100
AcDbArc
 50
270.1604552698595
 51
330.0831797321295
  0
LINE
  5
7DE1B343D9E11D6
330
7DE1B343D9E1254
100
AcDbEntity
  8
TEXT
100
AcDbLine
 10
0.5665234569394509
 20
0.3730187829313868
 30
0.0
 11
0.6631637080144453
 21
0.3732894220296691
 31
0.0
  0
LWPOLYLINE
  5
7DE1B343D9E11D7
330
7DE1B343D9E1254
100
AcDbEntity
  8
TEXT
100
AcDbPolyline
 90
        6
 70
     1
 43
0.0
 10
0.6090472605146005
 20
0.5752151212631324
 10
0.5787306662943923
 20
0.5752151212631324
 10
0.5787306662943923
 20
0.4521041232082381
 42
0.407328721240804
 10
0.5902743174558687
 20
0.440285208531852
 10
0.6508960165005995
 20
0.440285208531852
 10
0.6683613569079175
 20
0.4730974375753311
  0
LINE
  5
7DE1B343D9E11DF
330
7DE1B343D9E1254
100
AcDbEntity
  8
TEXT
100
AcDbLine
 10
0.7943969793309807
 20
0.5573274999716679
 30
0.0
 11
0.7943969793309807
 21
0.4245701251463116
 31
0.0
  0
ARC
  5
7DE1B343D9E11E0
330
7DE1B343D9E1254
100
AcDbEntity
  8
TEXT
100
AcDbCircle
 10
0.8776949156531541
 20
0.4540094154309151
 30
0.0
 40
0.0153818062434269
100
AcDbArc
 50
174.7883570302258
 51
270.0
  0
LWPOLYLINE
  5
7DE1B343D9E11E1
330
7DE1B343D9E1254
100
AcDbEntity
  8
TEXT
100
AcDbPolyline
 90
        2
 70
     0
 43
0.0
 10
0.7943969793309789
 20
0.4245701251463152
 42
0.3318488747599744
 10
0.8635162718962918
 20
0.3730187829313868
 42
-6.868794160588311
  0
LINE
  5
7DE1B343D9E11E5
330
7DE1B343D9E1254
100
AcDbEntity
  8
TEXT
100
AcDbLine
 10
1.018908674584987
 20
0.3730187829313868
 30
0.0
 11
1.085966721366827
 21
0.3730187829313868
 31
0.0
  0
LINE
  5
7DE1B343D9E11E6
330
7DE1B343D9E1254
100
AcDbEntity
  8
TEXT
100
AcDbLine
 10
1.018908674584987
 20
0.5676613320970225
 30
0.0
 11
1.018908674584987
 21
0.3730187829313868
 31
0.0
  0
LINE
  5
7DE1B343D9E11E7
330
7DE1B343D9E1254
100
AcDbEntity
  8
TEXT
100
AcDbLine
 10
0.9615196055957264
 20
0.5752151212631324
 30
0.0
 11
1.011354885418874
 21
0.5752151212631324
 31
0.0
  0
LINE
  5
7DE1B343D9E11E8
330
7DE1B343D9E1254
100
AcDbEntity
  8
TEXT
100
AcDbLine
 10
0.9615196055957264
 20
0.3730187829313868
 30
0.0
 11
0.9615196055957264
 21
0.5752151212631324
 31
0.0
  0
LWPOLYLINE
  5
7DE1B343D9E11E9
330
7DE1B343D9E1254
100
AcDbEntity
  8
TEXT
100
AcDbPolyline
 90
        2
 70
     0
 43
0.0
 10
1.011354885418872
 20
0.5752151212631324
 42
-0.4142135623731017
 10
1.018908674584985
 20
0.5676613320970225
 42
-0.9999999999999998
  0
LINE
  5
7DE1B343D9E11ED
330
7DE1B343D9E1254
100
AcDbEntity
  8
TEXT
100
AcDbLine
 10
1.217164886196557
 20
0.5752151212631324
 30
0.0
 11
1.217164886196557
 21
0.5001627151889258
 31
0.0
  0
LINE
  5
7DE1B343D9E11EE
330
7DE1B343D9E1254
100
AcDbEntity
  8
TEXT
100
AcDbLine
 10
1.085966721366827
 20
0.5752151212631324
 30
0.0
 11
1.140100318287777
 21
0.5752151212631324
 31
0.0
  0
LINE
  5
7DE1B343D9E11EF
330
7DE1B343D9E1254
100
AcDbEntity
  8
TEXT
100
AcDbLine
 10
1.085966721366827
 20
0.3730187829313868
 30
0.0
 11
1.085966721366827
 21
0.5752151212631324
 31
0.0
  0
LWPOLYLINE
  5
7DE1B343D9E11F0
330
7DE1B343D9E1254
100
AcDbEntity
  8
TEXT
100
AcDbPolyline
 90
        2
 70
     0
 43
0.0
 10
1.140100318287776
 20
0.5752151212631324
 42
-0.4142135623731017
 10
1.147654107453889
 20
0.5676613320970225
 42
-0.9999999999999998
  0
LWPOLYLINE
  5
7DE1B343D9E11F4
330
7DE1B343D9E1254
100
AcDbEntity
  8
TEXT
100
AcDbPolyline
 90
        4
 70
     0
 43
0.0
 10
1.147654107453889
 20
0.5676613320970225
 10
1.147654107453889
 20
0.3730187829313868
 10
1.216132390741747
 20
0.3730187829313868
 10
1.216132390741747
 20
0.416509727881825
 42
-1.714843617202739
  0
LINE
  5
7DE1B343D9E11FA
330
7DE1B343D9E1254
100
AcDbEntity
  8
TEXT
100
AcDbLine
 10
0.5762682230586452
 20
0.6394918159198978
 30
0.0
 11
0.5762682230586452
 21
0.673879733514036
 31
0.0
  0
LINE
  5
7DE1B343D9E11FB
330
7DE1B343D9E1254
100
AcDbEntity
  8
TEXT
100
AcDbLine
 10
0.6480671892025525
 20
0.6394918159198978
 30
0.0
 11
0.5762682230586452
 21
0.6394918159198978
 31
0.0
  0
LINE
  5
7DE1B343D9E11FC
330
7DE1B343D9E1254
100
AcDbEntity
  8
TEXT
100
AcDbLine
 10
0.7955679858337322
 20
0.6394918159198978
 30
0.0
 11
0.7654460730403559
 21
0.6394918159198978
 31
0.0
  0
LINE
  5
7DE1B343D9E11FD
330
7DE1B343D9E1254
100
AcDbEntity
  8
TEXT
100
AcDbLine
 10
0.7955679858337322
 20
0.7075032936587084
 30
0.0
 11
0.7955679858337322
 21
0.6394918159198978
 31
0.0
  0
LINE
  5
7DE1B343D9E11FE
330
7DE1B343D9E1254
100
AcDbEntity
  8
TEXT
100
AcDbLine
 10
0.8623766984000971
 20
0.7075032936587084
 30
0.0
 11
0.7955679858337322
 21
0.7075032936587084
 31
0.0
  0
LWPOLYLINE
  5
7DE1B343D9E11FF
330
7DE1B343D9E1254
100
AcDbEntity
  8
TEXT
100
AcDbPolyline
 90
        3
 70
     0
 43
0.0
 10
1.182788457998099
 20
0.6394918159199014
 10
1.064488299182055
 20
0.6394918159199014
 10
1.064488299182055
 20
0.6123243191590055
 42
-1.960274751411753
  0
LINE
  5
7DE1B343D9E1204
330
7DE1B343D9E1254
100
AcDbEntity
  8
TEXT
100
AcDbLine
 10
1.028706608468893
 20
0.6394918159198978
 30
0.0
 11
0.8946885525377572
 21
0.6394918159198978
 31
0.0
  0
LWPOLYLINE
  5
7DE1B343D9E1205
330
7DE1B343D9E1254
100
AcDbEntity
  8
TEXT
100
AcDbPolyline
 90
        2
 70
     0
 43
0.0
 10
1.028706608468893
 20
0.6394918159199014
 42
-0.3328679258950098
 10
1.064488299182055
 20
0.6123243191590055
 42
6.772930709997214
  0
LINE
  5
7DE1B343D9E1209
330
7DE1B343D9E1254
100
AcDbEntity
  8
TEXT
100
AcDbLine
 10
1.218570148711266
 20
0.6394918159198978
 30
0.0
 11
1.218570148711266
 21
0.611169270150254
 31
0.0
  0
LWPOLYLINE
  5
7DE1B343D9E120A
330
7DE1B343D9E1254
100
AcDbEntity
  8
TEXT
100
AcDbPolyline
 90
        2
 70
     0
 43
0.0
 10
1.182788457998099
 20
0.6394918159199014
 42
-0.3277054968067132
 10
1.218570148711264
 20
0.6111692701502575
 42
6.667889725900311
  0
LINE
  5
7DE1B343D9E120E
330
7DE1B343D9E1254
100
AcDbEntity
  8
TEXT
100
AcDbLine
 10
1.432361996803366
 20
0.5342798373664705
 30
0.0
 11
1.388611225621464
 21
0.6165301133626157
 31
0.0
  0
LINE
  5
7DE1B343D9E120F
330
7DE1B343D9E1254
100
AcDbEntity
  8
TEXT
100
AcDbLine
 10
1.432361996803366
 20
0.6394918159198978
 30
0.0
 11
1.432361996803366
 21
0.5342798373664705
 31
0.0
  0
LINE
  5
7DE1B343D9E1210
330
7DE1B343D9E1254
100
AcDbEntity
  8
TEXT
100
AcDbLine
 10
1.660045735741735
 20
0.5636264895083598
 30
0.0
 11
1.660045735741735
 21
0.7049560216874986
 31
0.0
  0
LINE
  5
7DE1B343D9E1211
330
7DE1B343D9E1254
100
AcDbEntity
  8
TEXT
100
AcDbLine
 10
1.707143894297719
 20
0.6394918159198978
 30
0.0
 11
1.660045735741735
 21
0.5636264895083598
 31
0.0
  0
LINE
  5
7DE1B343D9E1212
330
7DE1B343D9E1254
100
AcDbEntity
  8
TEXT
100
AcDbLine
 10
1.717578611061642
 20
0.5295985729789243
 30
0.0
 11
1.782135727027347
 21
0.6394918159198978
 31
0.0
  0
LINE
  5
7DE1B343D9E1213
330
7DE1B343D9E1254
100
AcDbEntity
  8
TEXT
100
AcDbLine
 10
1.596210744518962
 20
0.3730187829313868
 30
0.0
 11
1.660588928837582
 21
0.3730187829313868
 31
0.0
  0
LWPOLYLINE
  5
7DE1B343D9E1214
330
7DE1B343D9E1254
100
AcDbEntity
  8
TEXT
100
AcDbPolyline
 90
        2
 70
     0
 43
0.0
 10
1.436301674108404
 20
0.416509727881825
 42
-0.2901071551932486
 10
1.393225741240759
 20
0.3730187829313868
 42
-5.328517124445184
  0
ARC
  5
7DE1B343D9E1218
330
7DE1B343D9E1254
100
AcDbEntity
  8
TEXT
100
AcDbCircle
 10
1.324371159583844
 20
0.5468557462631351
 30
0.0
 40
0.028359375
100
AcDbArc
 50
25.78218179591245
 51
90.0
  0
LINE
  5
7DE1B343D9E1219
330
7DE1B343D9E1254
100
AcDbEntity
  8
TEXT
100
AcDbLine
 10
1.360172234887968
 20
0.5379401478010001
 30
0.0
 11
1.349907474474403
 21
0.5591906873736944
 31
0.0
  0
LINE
  5
7DE1B343D9E121A
330
7DE1B343D9E1254
100
AcDbEntity
  8
TEXT
100
AcDbLine
 10
1.277884245104584
 20
0.5379401478010001
 30
0.0
 11
1.360172234887968
 21
0.5379401478010001
 31
0.0
  0
LWPOLYLINE
  5
7DE1B343D9E121B
330
7DE1B343D9E1254
100
AcDbEntity
  8
TEXT
100
AcDbPolyline
 90
        4
 70
     1
 43
0.0
 10
1.373103276170867
 20
0.4759827609154121
 10
1.284442957511008
 20
0.4759827609154121
 42
0.9999999999999998
 10
1.284442957511008
 20
0.4335842204115514
 10
1.373103276170867
 20
0.4335842204115514
 42
1.0
  0
LWPOLYLINE
  5
7DE1B343D9E1221
330
7DE1B343D9E1254
100
AcDbEntity
  8
TEXT
100
AcDbPolyline
 90
        2
 70
     0
 43
0.0
 10
1.259208323609382
 20
0.3730187829313868
 10
1.393225741240759
 20
0.3730187829313868
 42
0.9999999999999998
  0
LINE
  5
7DE1B343D9E1225
330
7DE1B343D9E1254
100
AcDbEntity
  8
TEXT
100
AcDbLine
 10
1.519562763226399
 20
0.5752151212631324
 30
0.0
 11
1.596210744518956
 21
0.5752151212631324
 31
0.0
  0
LINE
  5
7DE1B343D9E1226
330
7DE1B343D9E1254
100
AcDbEntity
  8
TEXT
100
AcDbLine
 10
1.596210744518956
 20
0.5752151212631324
 30
0.0
 11
1.596210744518962
 21
0.3730187829313868
 31
0.0
  0
ARC
  5
7DE1B343D9E1227
330
7DE1B343D9E1254
100
AcDbEntity
  8
TEXT
100
AcDbCircle
 10
1.519562763226397
 20
0.5503092459804697
 30
0.0
 40
0.0249058752826653
100
AcDbArc
 50
89.99971217465335
 51
179.9999999999985
  0
LINE
  5
7DE1B343D9E1228
330
7DE1B343D9E1254
100
AcDbEntity
  8
TEXT
100
AcDbLine
 10
1.494656887943739
 20
0.3730187829313868
 30
0.0
 11
1.494656887943734
 21
0.5503092883628553
 31
0.0
  0
LWPOLYLINE
  5
7DE1B343D9E1229
330
7DE1B343D9E1254
100
AcDbEntity
  8
TEXT
100
AcDbPolyline
 90
        2
 70
     0
 43
0.0
 10
1.436301674108404
 20
0.3730187829313868
 10
1.494656887943738
 20
0.3730187829313868
  0
LWPOLYLINE
  5
7DE1B343D9E122D
330
7DE1B343D9E1254
100
AcDbEntity
  8
TEXT
100
AcDbPolyline
 90
        2
 70
     0
 43
0.0
 10
1.436301674108404
 20
0.416509727881825
 10
1.436301674108404
 20
0.3730187829313868
  0
LINE
  5
7DE1B343D9E1231
330
7DE1B343D9E1254
100
AcDbEntity
  8
TEXT
100
AcDbLine
 10
1.813070834425253
 20
0.3730187829313868
 30
0.0
 11
1.717578611061642
 21
0.5295985729789243
 31
0.0
  0
LINE
  5
7DE1B343D9E1232
330
7DE1B343D9E1254
100
AcDbEntity
  8
TEXT
100
AcDbLine
 10
1.736492462049047
 20
0.3730187829313868
 30
0.0
 11
1.813070834425253
 21
0.3730187829313868
 31
0.0
  0
LINE
  5
7DE1B343D9E1233
330
7DE1B343D9E1254
100
AcDbEntity
  8
TEXT
100
AcDbLine
 10
1.660588928837582
 20
0.5045983514075671
 30
0.0
 11
1.736492462049047
 21
0.3730187829313868
 31
0.0
  0
LINE
  5
7DE1B343D9E1234
330
7DE1B343D9E1254
100
AcDbEntity
  8
TEXT
100
AcDbLine
 10
1.660588928837582
 20
0.3730187829313868
 30
0.0
 11
1.660588928837582
 21
0.5045983514075671
 31
0.0
  0
LINE
  5
7DE1B343D9E1235
330
7DE1B343D9E1254
100
AcDbEntity
  8
TEXT
100
AcDbLine
 10
1.660045735741735
 20
0.7049560216874986
 30
0.0
 11
1.591730857192461
 21
0.7049560216874986
 31
0.0
  0
ARC
  5
7DE1B343D9E1236
330
7DE1B343D9E1254
100
AcDbEntity
  8
TEXT
100
AcDbCircle
 10
1.351375118151255
 20
0.5979082487989955
 30
0.0
 40
0.0416329381542859
100
AcDbArc
 50
26.56974201007528
 51
87.20939649401342
  0
LINE
  5
7DE1B343D9E1237
330
7DE1B343D9E1254
100
AcDbEntity
  8
TEXT
100
AcDbLine
 10
1.496258903102867
 20
0.6394918159198978
 30
0.0
 11
1.432361996803366
 21
0.6394918159198978
 31
0.0
  0
LINE
  5
7DE1B343D9E1238
330
7DE1B343D9E1254
100
AcDbEntity
  8
TEXT
100
AcDbLine
 10
1.496258903102867
 20
0.6119441660590232
 30
0.0
 11
1.496258903102867
 21
0.6394918159198978
 31
0.0
  0
ARC
  5
7DE1B343D9E1239
330
7DE1B343D9E1254
100
AcDbEntity
  8
TEXT
100
AcDbCircle
 10
1.527451720165974
 20
0.608246088637633
 30
0.0
 40
0.0314112657011332
100
AcDbArc
 50
95.88484768694724
 51
173.2388340632136
  0
LINE
  5
7DE1B343D9E123A
330
7DE1B343D9E1254
100
AcDbEntity
  8
TEXT
100
AcDbLine
 10
1.591730857192456
 20
0.6394918159198978
 30
0.0
 11
1.52423113954294
 21
0.6394918159198978
 31
0.0
  0
LINE
  5
7DE1B343D9E123B
330
7DE1B343D9E1254
100
AcDbEntity
  8
TEXT
100
AcDbLine
 10
1.591730857192461
 20
0.7049560216874986
 30
0.0
 11
1.591730857192456
 21
0.6394918159198978
 31
0.0
  0
LINE
  5
7DE1B343D9E123C
330
7DE1B343D9E1254
100
AcDbEntity
  8
TEXT
100
AcDbLine
 10
1.782135727027347
 20
0.6394918159198978
 30
0.0
 11
1.707143894297721
 21
0.6394918159198978
 31
0.0
  0
ENDSEC
  0
SECTION
  2
OBJECTS
  0
DICTIONARY
  5
7DE1B343D9E1248
330
0
100
AcDbDictionary
  3
ACAD_GROUP
350
7DE1B343D9E1249
  3
ACAD_LAYOUT
350
7DE1B343D9E126E
  3
ACAD_MLINESTYLE
350
7DE1B343D9E124A
  3
ACAD_PLOTSETTINGS
350
7DE1B343D9E126F
  3
ACAD_PLOTSTYLENAME
350
7DE1B343D9E126C
  3
ACDBHEADERROUNDTRIPXREC
350
7DE1B343D9E1279
  3
ACDBVARIABLEDICTIONARY
350
7DE1B343D9E1276
  0
DICTIONARY
  5
7DE1B343D9E129B
330
7DE1B343D9E1254
100
AcDbDictionary
280
     1
  3
ACAD_LAYOUTSELFREF
360
7DE1B343D9E129C
  0
DICTIONARY
  5
7DE1B343D9E1299
330
7DE1B343D9E1251
100
AcDbDictionary
280
     1
  3
ACAD_LAYOUTSELFREF
360
7DE1B343D9E129A
  0
DICTIONARY
  5
7DE1B343D9E1249
102
{ACAD_REACTORS
330
7DE1B343D9E1248
102
}
330
7DE1B343D9E1248
100
AcDbDictionary
  0
DICTIONARY
  5
7DE1B343D9E126E
102
{ACAD_REACTORS
330
7DE1B343D9E1248
102
}
330
7DE1B343D9E1248
100
AcDbDictionary
  0
DICTIONARY
  5
7DE1B343D9E124A
102
{ACAD_REACTORS
330
7DE1B343D9E1248
102
}
330
7DE1B343D9E1248
100
AcDbDictionary
  3
STANDARD
350
7DE1B343D9E1257
  0
DICTIONARY
  5
7DE1B343D9E126F
102
{ACAD_REACTORS
330
7DE1B343D9E1248
102
}
330
7DE1B343D9E1248
100
AcDbDictionary
  0
ACDBDICTIONARYWDFLT
  5
7DE1B343D9E126C
102
{ACAD_REACTORS
330
7DE1B343D9E1248
102
}
330
7DE1B343D9E1248
100
AcDbDictionary
281
     1
  3
Normal
350
7DE1B343D9E126D
100
AcDbDictionaryWithDefault
340
7DE1B343D9E126D
  0
DICTIONARY
  5
7DE1B343D9E1279
102
{ACAD_REACTORS
330
7DE1B343D9E1248
102
}
330
7DE1B343D9E1248
100
AcDbDictionary
  3
CEPSNTYPE
350
7DE1B343D9E1283
  3
FINGERPRINTGUID
350
7DE1B343D9E1284
  3
HYPERLINKBASE
350
7DE1B343D9E127C
  3
INSUNITS
350
7DE1B343D9E1282
  3
LAYOUTDICT
350
7DE1B343D9E127E
  3
LWETCUNION
350
7DE1B343D9E1281
  3
PLOTSETDICT
350
7DE1B343D9E127F
  3
PLOTSTYLNAMDICT
350
7DE1B343D9E1280
  3
PSVPSCALE
350
7DE1B343D9E1286
  3
PUCSBASE
350
7DE1B343D9E1289
  3
PUCSORGBACK
350
7DE1B343D9E128F
  3
PUCSORGBOTTOM
350
7DE1B343D9E128B
  3
PUCSORGFRONT
350
7DE1B343D9E128E
  3
PUCSORGLEFT
350
7DE1B343D9E128C
  3
PUCSORGRIGHT
350
7DE1B343D9E128D
  3
PUCSORGTOP
350
7DE1B343D9E128A
  3
PUCSORTHOREF
350
7DE1B343D9E1287
  3
PUCSORTHOVIEW
350
7DE1B343D9E1288
  3
STYLESHEET
350
7DE1B343D9E127D
  3
TSTACKALIGN
350
7DE1B343D9E127A
  3
TSTACKSIZE
350
7DE1B343D9E127B
  3
UCSBASE
350
7DE1B343D9E1292
  3
UCSORGBACK
350
7DE1B343D9E1298
  3
UCSORGBOTTOM
350
7DE1B343D9E1294
  3
UCSORGFRONT
350
7DE1B343D9E1297
  3
UCSORGLEFT
350
7DE1B343D9E1295
  3
UCSORGRIGHT
350
7DE1B343D9E1296
  3
UCSORGTOP
350
7DE1B343D9E1293
  3
UCSORTHOREF
350
7DE1B343D9E1290
  3
UCSORTHOVIEW
350
7DE1B343D9E1291
  3
VERSIONGUID
350
7DE1B343D9E1285
  0
DICTIONARY
  5
7DE1B343D9E1276
102
{ACAD_REACTORS
330
7DE1B343D9E1248
102
}
330
7DE1B343D9E1248
100
AcDbDictionary
  3
DIMASSOC
350
7DE1B343D9E1277
  0
XRECORD
  5
7DE1B343D9E129C
102
{ACAD_REACTORS
330
7DE1B343D9E129B
102
}
330
7DE1B343D9E129B
100
AcDbXrecord
340
7DE1B343D9E1254
  0
XRECORD
  5
7DE1B343D9E129A
102
{ACAD_REACTORS
330
7DE1B343D9E1299
102
}
330
7DE1B343D9E1299
100
AcDbXrecord
340
7DE1B343D9E1251
  0
MLINESTYLE
  5
7DE1B343D9E1257
102
{ACAD_REACTORS
330
7DE1B343D9E124A
102
}
330
7DE1B343D9E124A
100
AcDbMlineStyle
  2
STANDARD
 70
     0
  3

 62
     0
 51
90.0
 52
90.0
 71
     2
 49
0.5
 62
   256
  6
BYLAYER
 49
-0.5
 62
   256
  6
BYLAYER
  0
ACDBPLACEHOLDER
  5
7DE1B343D9E126D
102
{ACAD_REACTORS
330
7DE1B343D9E126C
102
}
330
7DE1B343D9E126C
100
AcDbPlaceHolder
280
     0
  0
XRECORD
  5
7DE1B343D9E1283
102
{ACAD_REACTORS
330
7DE1B343D9E1279
102
}
330
7DE1B343D9E1279
100
AcDbXrecord
 90
        0
  0
XRECORD
  5
7DE1B343D9E1284
102
{ACAD_REACTORS
330
7DE1B343D9E1279
102
}
330
7DE1B343D9E1279
100
AcDbXrecord
  1
{599FD930-8DB9-11D6-88E6-0090279574E7}
  0
XRECORD
  5
7DE1B343D9E127C
102
{ACAD_REACTORS
330
7DE1B343D9E1279
102
}
330
7DE1B343D9E1279
100
AcDbXrecord
  1

  0
XRECORD
  5
7DE1B343D9E1282
102
{ACAD_REACTORS
330
7DE1B343D9E1279
102
}
330
7DE1B343D9E1279
100
AcDbXrecord
 90
        0
  0
XRECORD
  5
7DE1B343D9E127E
102
{ACAD_REACTORS
330
7DE1B343D9E1279
102
}
330
7DE1B343D9E1279
100
AcDbXrecord
340
7DE1B343D9E126E
  0
XRECORD
  5
7DE1B343D9E1281
102
{ACAD_REACTORS
330
7DE1B343D9E1279
102
}
330
7DE1B343D9E1279
100
AcDbXrecord
 90
    14877
  0
XRECORD
  5
7DE1B343D9E127F
102
{ACAD_REACTORS
330
7DE1B343D9E1279
102
}
330
7DE1B343D9E1279
100
AcDbXrecord
340
7DE1B343D9E126F
  0
XRECORD
  5
7DE1B343D9E1280
102
{ACAD_REACTORS
330
7DE1B343D9E1279
102
}
330
7DE1B343D9E1279
100
AcDbXrecord
340
7DE1B343D9E126C
  0
XRECORD
  5
7DE1B343D9E1286
102
{ACAD_REACTORS
330
7DE1B343D9E1279
102
}
330
7DE1B343D9E1279
100
AcDbXrecord
 40
0.0
  0
XRECORD
  5
7DE1B343D9E1289
102
{ACAD_REACTORS
330
7DE1B343D9E1279
102
}
330
7DE1B343D9E1279
100
AcDbXrecord
340
0
  0
XRECORD
  5
7DE1B343D9E128F
102
{ACAD_REACTORS
330
7DE1B343D9E1279
102
}
330
7DE1B343D9E1279
100
AcDbXrecord
 10
0.0
 20
0.0
 30
0.0
  0
XRECORD
  5
7DE1B343D9E128B
102
{ACAD_REACTORS
330
7DE1B343D9E1279
102
}
330
7DE1B343D9E1279
100
AcDbXrecord
 10
0.0
 20
0.0
 30
0.0
  0
XRECORD
  5
7DE1B343D9E128E
102
{ACAD_REACTORS
330
7DE1B343D9E1279
102
}
330
7DE1B343D9E1279
100
AcDbXrecord
 10
0.0
 20
0.0
 30
0.0
  0
XRECORD
  5
7DE1B343D9E128C
102
{ACAD_REACTORS
330
7DE1B343D9E1279
102
}
330
7DE1B343D9E1279
100
AcDbXrecord
 10
0.0
 20
0.0
 30
0.0
  0
XRECORD
  5
7DE1B343D9E128D
102
{ACAD_REACTORS
330
7DE1B343D9E1279
102
}
330
7DE1B343D9E1279
100
AcDbXrecord
 10
0.0
 20
0.0
 30
0.0
  0
XRECORD
  5
7DE1B343D9E128A
102
{ACAD_REACTORS
330
7DE1B343D9E1279
102
}
330
7DE1B343D9E1279
100
AcDbXrecord
 10
0.0
 20
0.0
 30
0.0
  0
XRECORD
  5
7DE1B343D9E1287
102
{ACAD_REACTORS
330
7DE1B343D9E1279
102
}
330
7DE1B343D9E1279
100
AcDbXrecord
340
0
  0
XRECORD
  5
7DE1B343D9E1288
102
{ACAD_REACTORS
330
7DE1B343D9E1279
102
}
330
7DE1B343D9E1279
100
AcDbXrecord
 70
     0
  0
XRECORD
  5
7DE1B343D9E127D
102
{ACAD_REACTORS
330
7DE1B343D9E1279
102
}
330
7DE1B343D9E1279
100
AcDbXrecord
  1

  0
XRECORD
  5
7DE1B343D9E127A
102
{ACAD_REACTORS
330
7DE1B343D9E1279
102
}
330
7DE1B343D9E1279
100
AcDbXrecord
 90
        1
  0
XRECORD
  5
7DE1B343D9E127B
102
{ACAD_REACTORS
330
7DE1B343D9E1279
102
}
330
7DE1B343D9E1279
100
AcDbXrecord
 90
       70
  0
XRECORD
  5
7DE1B343D9E1292
102
{ACAD_REACTORS
330
7DE1B343D9E1279
102
}
330
7DE1B343D9E1279
100
AcDbXrecord
340
0
  0
XRECORD
  5
7DE1B343D9E1298
102
{ACAD_REACTORS
330
7DE1B343D9E1279
102
}
330
7DE1B343D9E1279
100
AcDbXrecord
 10
0.0
 20
0.0
 30
0.0
  0
XRECORD
  5
7DE1B343D9E1294
102
{ACAD_REACTORS
330
7DE1B343D9E1279
102
}
330
7DE1B343D9E1279
100
AcDbXrecord
 10
0.0
 20
0.0
 30
0.0
  0
XRECORD
  5
7DE1B343D9E1297
102
{ACAD_REACTORS
330
7DE1B343D9E1279
102
}
330
7DE1B343D9E1279
100
AcDbXrecord
 10
0.0
 20
0.0
 30
0.0
  0
XRECORD
  5
7DE1B343D9E1295
102
{ACAD_REACTORS
330
7DE1B343D9E1279
102
}
330
7DE1B343D9E1279
100
AcDbXrecord
 10
0.0
 20
0.0
 30
0.0
  0
XRECORD
  5
7DE1B343D9E1296
102
{ACAD_REACTORS
330
7DE1B343D9E1279
102
}
330
7DE1B343D9E1279
100
AcDbXrecord
 10
0.0
 20
0.0
 30
0.0
  0
XRECORD
  5
7DE1B343D9E1293
102
{ACAD_REACTORS
330
7DE1B343D9E1279
102
}
330
7DE1B343D9E1279
100
AcDbXrecord
 10
0.0
 20
0.0
 30
0.0
  0
XRECORD
  5
7DE1B343D9E1290
102
{ACAD_REACTORS
330
7DE1B343D9E1279
102
}
330
7DE1B343D9E1279
100
AcDbXrecord
340
0
  0
XRECORD
  5
7DE1B343D9E1291
102
{ACAD_REACTORS
330
7DE1B343D9E1279
102
}
330
7DE1B343D9E1279
100
AcDbXrecord
 70
     0
  0
XRECORD
  5
7DE1B343D9E1285
102
{ACAD_REACTORS
330
7DE1B343D9E1279
102
}
330
7DE1B343D9E1279
100
AcDbXrecord
  1
{599FD932-8DB9-11D6-88E6-0090279574E7}
  0
DICTIONARYVAR
  5
7DE1B343D9E1277
102
{ACAD_REACTORS
330
7DE1B343D9E1276
102
}
330
7DE1B343D9E1276
100
DictionaryVariables
280
     0
  1
1
  0
ENDSEC
  0
EOF
