  0
SECTION
  2
HEADER
  9
$ACADVER
  1
AC1014
  9
$ACADMAINTVER
 70
     9
  9
$DWGCODEPAGE
  3
ANSI_1252
  9
$INSBASE
 10
1.630641772034957
 20
1.369674899473069
 30
0.0
  9
$EXTMIN
 10
-0.3923718208940653
 20
0.6113815767561491
 30
0.0
  9
$EXTMAX
 10
3.092847500853062
 20
2.33842489947307
 30
0.0
  9
$LIMMIN
 10
0.0
 20
0.0
  9
$LIMMAX
 10
18.0
 20
12.0
  9
$ORTHOMODE
 70
     1
  9
$REGENMODE
 70
     1
  9
$FILLMODE
 70
     1
  9
$QTEXTMODE
 70
     0
  9
$MIRRTEXT
 70
     0
  9
$DRAGMODE
 70
     2
  9
$LTSCALE
 40
1.0
  9
$OSMODE
 70
    39
  9
$ATTMODE
 70
     1
  9
$TEXTSIZE
 40
0.125
  9
$TRACEWID
 40
0.05
  9
$TEXTSTYLE
  7
ROMANS
  9
$CLAYER
  8
0
  9
$CELTYPE
  6
BYLAYER
  9
$CECOLOR
 62
   256
  9
$CELTSCALE
 40
1.0
  9
$DELOBJ
 70
     1
  9
$DISPSILH
 70
     1
  9
$DIMSCALE
 40
1.0
  9
$DIMASZ
 40
0.125
  9
$DIMEXO
 40
0.125
  9
$DIMDLI
 40
0.375
  9
$DIMRND
 40
0.0
  9
$DIMDLE
 40
0.0
  9
$DIMEXE
 40
0.125
  9
$DIMTP
 40
0.0
  9
$DIMTM
 40
0.0
  9
$DIMTXT
 40
0.125
  9
$DIMCEN
 40
-0.125
  9
$DIMTSZ
 40
0.0
  9
$DIMTOL
 70
     0
  9
$DIMLIM
 70
     0
  9
$DIMTIH
 70
     1
  9
$DIMTOH
 70
     1
  9
$DIMSE1
 70
     0
  9
$DIMSE2
 70
     0
  9
$DIMTAD
 70
     0
  9
$DIMZIN
 70
     4
  9
$DIMBLK
  1

  9
$DIMASO
 70
     1
  9
$DIMSHO
 70
     1
  9
$DIMPOST
  1

  9
$DIMAPOST
  1

  9
$DIMALT
 70
     0
  9
$DIMALTD
 70
     2
  9
$DIMALTF
 40
25.4
  9
$DIMLFAC
 40
1.0
  9
$DIMTOFL
 70
     0
  9
$DIMTVP
 40
0.0
  9
$DIMTIX
 70
     1
  9
$DIMSOXD
 70
     0
  9
$DIMSAH
 70
     0
  9
$DIMBLK1
  1

  9
$DIMBLK2
  1

  9
$DIMSTYLE
  2
STANDARD
  9
$DIMCLRD
 70
     0
  9
$DIMCLRE
 70
     0
  9
$DIMCLRT
 70
     0
  9
$DIMTFAC
 40
1.0
  9
$DIMGAP
 40
0.09
  9
$DIMJUST
 70
     0
  9
$DIMSD1
 70
     0
  9
$DIMSD2
 70
     0
  9
$DIMTOLJ
 70
     1
  9
$DIMTZIN
 70
     4
  9
$DIMALTZ
 70
     0
  9
$DIMALTTZ
 70
     0
  9
$DIMFIT
 70
     3
  9
$DIMUPT
 70
     0
  9
$DIMUNIT
 70
     2
  9
$DIMDEC
 70
     3
  9
$DIMTDEC
 70
     3
  9
$DIMALTU
 70
     2
  9
$DIMALTTD
 70
     2
  9
$DIMTXSTY
  7
ROMANS
  9
$DIMAUNIT
 70
     0
  9
$LUNITS
 70
     2
  9
$LUPREC
 70
     3
  9
$SKETCHINC
 40
0.1
  9
$FILLETRAD
 40
0.03125
  9
$AUNITS
 70
     0
  9
$AUPREC
 70
     0
  9
$MENU
  1
ACAD
  9
$ELEVATION
 40
0.0
  9
$PELEVATION
 40
0.0
  9
$THICKNESS
 40
0.0
  9
$LIMCHECK
 70
     0
  9
$BLIPMODE
 70
     0
  9
$CHAMFERA
 40
0.0
  9
$CHAMFERB
 40
0.0
  9
$CHAMFERC
 40
0.0
  9
$CHAMFERD
 40
0.0
  9
$SKPOLY
 70
     0
  9
$TDCREATE
 40
2448994.680647569
  9
$TDUPDATE
 40
2452458.322001643
  9
$TDINDWG
 40
0.0005734491
  9
$TDUSRTIMER
 40
0.0005734491
  9
$USRTIMER
 70
     1
  9
$ANGBASE
 50
0.0
  9
$ANGDIR
 70
     0
  9
$PDMODE
 70
     0
  9
$PDSIZE
 40
0.0
  9
$PLINEWID
 40
0.0
  9
$COORDS
 70
     2
  9
$SPLFRAME
 70
     0
  9
$SPLINETYPE
 70
     6
  9
$SPLINESEGS
 70
     8
  9
$ATTDIA
 70
     0
  9
$ATTREQ
 70
     1
  9
$HANDLING
 70
 22529
  9
$HANDSEED
  5
7DE1B343D9E0E38
  9
$SURFTAB1
 70
     6
  9
$SURFTAB2
 70
     6
  9
$SURFTYPE
 70
     6
  9
$SURFU
 70
     6
  9
$SURFV
 70
     6
  9
$UCSNAME
  2

  9
$UCSORG
 10
0.0
 20
0.0
 30
0.0
  9
$UCSXDIR
 10
1.0
 20
0.0
 30
0.0
  9
$UCSYDIR
 10
0.0
 20
1.0
 30
0.0
  9
$PUCSNAME
  2

  9
$PUCSORG
 10
0.0
 20
0.0
 30
0.0
  9
$PUCSXDIR
 10
1.0
 20
0.0
 30
0.0
  9
$PUCSYDIR
 10
0.0
 20
1.0
 30
0.0
  9
$USERI1
 70
     0
  9
$USERI2
 70
     0
  9
$USERI3
 70
     0
  9
$USERI4
 70
     0
  9
$USERI5
 70
     0
  9
$USERR1
 40
0.0
  9
$USERR2
 40
0.0
  9
$USERR3
 40
0.0
  9
$USERR4
 40
0.0
  9
$USERR5
 40
0.0
  9
$WORLDVIEW
 70
     1
  9
$SHADEDGE
 70
     3
  9
$SHADEDIF
 70
    70
  9
$TILEMODE
 70
     1
  9
$MAXACTVP
 70
    16
  9
$PINSBASE
 10
0.5453636251736982
 20
50.00000000000001
 30
0.3810975596240536
  9
$PLIMCHECK
 70
     0
  9
$PEXTMIN
 10
1.000000000000000E+20
 20
1.000000000000000E+20
 30
1.000000000000000E+20
  9
$PEXTMAX
 10
-1.000000000000000E+20
 20
-1.000000000000000E+20
 30
-1.000000000000000E+20
  9
$PLIMMIN
 10
0.0
 20
0.0
  9
$PLIMMAX
 10
12.0
 20
9.0
  9
$UNITMODE
 70
     0
  9
$VISRETAIN
 70
     0
  9
$PLINEGEN
 70
     1
  9
$PSLTSCALE
 70
     0
  9
$TREEDEPTH
 70
  3020
  9
$PICKSTYLE
 70
     1
  9
$CMLSTYLE
  2
STANDARD
  9
$CMLJUST
 70
     0
  9
$CMLSCALE
 40
1.0
  9
$PROXYGRAPHICS
 70
     1
  9
$MEASUREMENT
 70
     0
  0
ENDSEC
  0
SECTION
  2
CLASSES
  0
CLASS
  1
LWPOLYLINE
  2
AcDbPolyline
  3
AutoCAD 2000
 90
        0
280
     0
281
     1
  0
CLASS
  1
ACDBDICTIONARYWDFLT
  2
AcDbDictionaryWithDefault
  3
AutoCAD 2000
 90
        0
280
     0
281
     0
  0
CLASS
  1
ACDBPLACEHOLDER
  2
AcDbPlaceHolder
  3
AutoCAD 2000
 90
        0
280
     0
281
     0
  0
CLASS
  1
LAYOUT
  2
AcDbLayout
  3
AutoCAD 2000
 90
        0
280
     0
281
     0
  0
CLASS
  1
DICTIONARYVAR
  2
AcDbDictionaryVar
  3
AutoCAD 2000
 90
        0
280
     0
281
     0
  0
CLASS
  1
LONG_TRANSACTION
  2
AcDbLongTransaction
  3
AutoCAD 2000
 90
        0
280
     0
281
     0
  0
CLASS
  1
LWPOLYLINE
  2
AcDbPolyline
  3
AutoCAD 2000
 90
        0
280
     0
281
     1
  0
CLASS
  1
HATCH
  2
AcDbHatch
  3
AutoCAD 2000
 90
        0
280
     0
281
     1
  0
CLASS
  1
XRECORD
  2
AcDbXrecord
  3
AutoCAD 2000
 90
        0
280
     0
281
     0
  0
ENDSEC
  0
SECTION
  2
TABLES
  0
TABLE
  2
VPORT
  5
7DE1B343D9E0DDF
330
0
100
AcDbSymbolTable
 70
     2
  0
VPORT
  5
7DE1B343D9E0E13
330
7DE1B343D9E0DDF
100
AcDbSymbolTableRecord
100
AcDbViewportTableRecord
  2
*ACTIVE
 70
     0
 10
0.0
 20
0.0
 11
1.0
 21
1.0
 12
4.327110512458737
 22
1.475006126187516
 13
0.0
 23
0.0
 14
0.015625
 24
0.015625
 15
0.0
 25
0.0
 16
0.0
 26
0.0
 36
1.0
 17
0.0
 27
0.0
 37
0.0
 40
2.282799250231325
 41
4.320930232558139
 42
50.0
 43
0.0
 44
0.0
 50
0.0
 51
0.0
 71
     0
 72
  2000
 73
     1
 74
     0
 75
     0
 76
     0
 77
     0
 78
     0
  0
ENDTAB
  0
TABLE
  2
LTYPE
  5
7DE1B343D9E0DDC
330
0
100
AcDbSymbolTable
 70
     1
  0
LTYPE
  5
7DE1B343D9E0DE9
330
7DE1B343D9E0DDC
100
AcDbSymbolTableRecord
100
AcDbLinetypeTableRecord
  2
BYBLOCK
 70
     0
  3

 72
    65
 73
     0
 40
0.0
  0
LTYPE
  5
7DE1B343D9E0DEA
330
7DE1B343D9E0DDC
100
AcDbSymbolTableRecord
100
AcDbLinetypeTableRecord
  2
BYLAYER
 70
     0
  3

 72
    65
 73
     0
 40
0.0
  0
LTYPE
  5
7DE1B343D9E0DEB
330
7DE1B343D9E0DDC
100
AcDbSymbolTableRecord
100
AcDbLinetypeTableRecord
  2
CONTINUOUS
 70
     0
  3
Solid line
 72
    65
 73
     0
 40
0.0
  0
ENDTAB
  0
TABLE
  2
LAYER
  5
7DE1B343D9E0DD9
330
0
100
AcDbSymbolTable
 70
     2
  0
LAYER
  5
7DE1B343D9E0DE6
330
7DE1B343D9E0DD9
100
AcDbSymbolTableRecord
100
AcDbLayerTableRecord
  2
0
 70
     0
 62
     7
  6
CONTINUOUS
  0
LAYER
  5
7DE1B343D9E0DF6
330
7DE1B343D9E0DD9
100
AcDbSymbolTableRecord
100
AcDbLayerTableRecord
  2
TEXT
 70
     0
 62
     3
  6
CONTINUOUS
  0
ENDTAB
  0
TABLE
  2
STYLE
  5
7DE1B343D9E0DDA
330
0
100
AcDbSymbolTable
 70
     3
  0
STYLE
  5
7DE1B343D9E0DE7
330
7DE1B343D9E0DDA
100
AcDbSymbolTableRecord
100
AcDbTextStyleTableRecord
  2
STANDARD
 70
     0
 40
0.0
 41
1.0
 50
0.0
 71
     0
 42
0.3125
  3
txt
  4

  0
STYLE
  5
7DE1B343D9E0DF3
330
7DE1B343D9E0DDA
100
AcDbSymbolTableRecord
100
AcDbTextStyleTableRecord
  2
ITALICC
 70
     0
 40
0.0
 41
1.0
 50
0.0
 71
     0
 42
0.125
  3
italicc
  4

  0
STYLE
  5
7DE1B343D9E0E03
330
7DE1B343D9E0DDA
100
AcDbSymbolTableRecord
100
AcDbTextStyleTableRecord
  2
ROMANS
 70
     0
 40
0.0
 41
1.0
 50
0.0
 71
     0
 42
0.125
  3
romans.shx
  4

  0
ENDTAB
  0
TABLE
  2
VIEW
  5
7DE1B343D9E0DDD
330
0
100
AcDbSymbolTable
 70
     0
  0
ENDTAB
  0
TABLE
  2
UCS
  5
7DE1B343D9E0DDE
330
0
100
AcDbSymbolTable
 70
     0
  0
ENDTAB
  0
TABLE
  2
APPID
  5
7DE1B343D9E0DE0
330
0
100
AcDbSymbolTable
 70
     1
  0
APPID
  5
7DE1B343D9E0DE8
330
7DE1B343D9E0DE0
100
AcDbSymbolTableRecord
100
AcDbRegAppTableRecord
  2
ACAD
 70
     0
  0
ENDTAB
  0
TABLE
  2
DIMSTYLE
  5
7DE1B343D9E0DE1
330
0
100
AcDbSymbolTable
 70
     1
  0
DIMSTYLE
105
7DE1B343D9E0DFB
330
7DE1B343D9E0DE1
100
AcDbSymbolTableRecord
100
AcDbDimStyleTableRecord
  2
STANDARD
 70
     0
  3

  4

  5

  6

  7

 40
1.0
 41
0.125
 42
0.125
 43
0.375
 44
0.125
 45
0.0
 46
0.0
 47
0.0
 48
0.0
140
0.125
141
-0.125
142
0.0
143
25.4
144
1.0
145
0.0
146
1.0
147
0.09
 71
     0
 72
     0
 73
     1
 74
     1
 75
     0
 76
     0
 77
     0
 78
     4
170
     0
171
     2
172
     0
173
     0
174
     1
175
     0
176
     0
177
     0
178
     0
270
     2
271
     3
272
     3
273
     2
274
     2
340
7DE1B343D9E0E03
275
     0
280
     0
281
     0
282
     0
283
     1
284
     4
285
     0
286
     0
287
     3
288
     0
  0
ENDTAB
  0
TABLE
  2
BLOCK_RECORD
  5
7DE1B343D9E0DD8
330
0
100
AcDbSymbolTable
 70
     0
  0
BLOCK_RECORD
  5
7DE1B343D9E0DEF
102
{ACAD_XDICTIONARY
360
7DE1B343D9E0E36
102
}
330
7DE1B343D9E0DD8
100
AcDbSymbolTableRecord
100
AcDbBlockTableRecord
  2
*MODEL_SPACE
  0
BLOCK_RECORD
  5
7DE1B343D9E0DEC
102
{ACAD_XDICTIONARY
360
7DE1B343D9E0E34
102
}
330
7DE1B343D9E0DD8
100
AcDbSymbolTableRecord
100
AcDbBlockTableRecord
  2
*PAPER_SPACE
  0
ENDTAB
  0
ENDSEC
  0
SECTION
  2
BLOCKS
  0
BLOCK
  5
7DE1B343D9E0DF9
330
7DE1B343D9E0DEF
100
AcDbEntity
  8
0
100
AcDbBlockBegin
  2
*MODEL_SPACE
 70
     0
 10
0.0
 20
0.0
 30
0.0
  3
*MODEL_SPACE
  1

  0
ENDBLK
  5
7DE1B343D9E0DFA
330
7DE1B343D9E0DEF
100
AcDbEntity
  8
0
100
AcDbBlockEnd
  0
BLOCK
  5
7DE1B343D9E0DF7
330
7DE1B343D9E0DEC
100
AcDbEntity
 67
     1
  8
0
100
AcDbBlockBegin
  2
*PAPER_SPACE
 70
     0
 10
0.0
 20
0.0
 30
0.0
  3
*PAPER_SPACE
  1

  0
ENDBLK
  5
7DE1B343D9E0DF8
330
7DE1B343D9E0DEC
100
AcDbEntity
 67
     1
  8
0
100
AcDbBlockEnd
  0
ENDSEC
  0
SECTION
  2
ENTITIES
  0
LWPOLYLINE
  5
7DE1B343D9DF933
330
7DE1B343D9E0DEF
100
AcDbEntity
  8
0
100
AcDbPolyline
 90
       26
 70
     1
 43
0.0
 10
1.630641772034957
 20
1.369674899473069
 10
1.630641772034957
 20
1.432174899473069
 10
1.568141772034957
 20
1.432174899473069
 10
1.568141772034957
 20
1.557174899473069
 10
1.630641772034957
 20
1.557174899473069
 10
1.630641772034957
 20
1.807174899473069
 10
1.568141772034957
 20
1.807174899473069
 10
1.568141772034957
 20
1.922174899473069
 10
1.558141772034957
 20
1.932174899473069
 10
1.568141772034957
 20
1.942174899473069
 10
1.568141772034957
 20
2.21342489947307
 10
1.630641772034957
 20
2.21342489947307
 10
1.630641772034957
 20
2.27592489947307
 10
1.474391772034957
 20
2.27592489947307
 10
1.411891772034957
 20
2.33842489947307
 10
1.203141772034957
 20
2.338424899473069
 10
1.193141772034957
 20
2.328424899473069
 10
1.183141772034957
 20
2.338424899473069
 10
1.036891772034957
 20
2.338424899473069
 10
1.036891772034957
 20
2.213424899473069
 10
1.380641772034957
 20
2.21342489947307
 42
-0.4142135623730956
 10
1.474391772034957
 20
2.11967489947307
 10
1.474391772034957
 20
1.692174899473069
 10
1.484391772034957
 20
1.682174899473069
 10
1.474391772034957
 20
1.672174899473069
 10
1.474391772034957
 20
1.369674899473069
  0
TEXT
  5
7DE1B343D9E0C9A
330
7DE1B343D9E0DEF
100
AcDbEntity
  8
TEXT
100
AcDbText
 10
0.6095383297616493
 20
1.06940018083873
 30
0.0
 40
0.125
  1
PART #120031
  7
ITALICC
 72
     1
 11
1.350609758333078
 21
1.06940018083873
 31
0.0
100
AcDbText
  0
TEXT
  5
7DE1B343D9E0C9B
330
7DE1B343D9E0DEF
100
AcDbEntity
  8
TEXT
100
AcDbText
 10
1.763914916583398
 20
0.6224775381663555
 30
0.0
 40
0.0522247191011236
  1
Phone  1-800-328-2495
 41
1.272321428571429
 72
     5
 11
3.092847500853062
 21
0.6224775381663555
 31
0.0
100
AcDbText
  0
TEXT
  5
7DE1B343D9E0C9C
330
7DE1B343D9E0DEF
100
AcDbEntity
  8
TEXT
100
AcDbText
 10
1.763914916583398
 20
0.902252819065232
 30
0.0
 40
0.0522247191011236
  1
Stylmark  Incorporated
 41
1.221428571428573
 72
     5
 11
3.092847500853062
 21
0.902252819065232
 31
0.0
100
AcDbText
  0
TEXT
  5
7DE1B343D9E0C9D
330
7DE1B343D9E0DEF
100
AcDbEntity
  8
TEXT
100
AcDbText
 10
1.763914916583398
 20
0.8089943920989398
 30
0.0
 40
0.0522247191011236
  1
6536 Main St. N.E. * P.O. Box 32008
 41
0.8388932496075366
 72
     5
 11
3.092847500853062
 21
0.8089943920989398
 31
0.0
100
AcDbText
  0
TEXT
  5
7DE1B343D9E0C9E
330
7DE1B343D9E0DEF
100
AcDbEntity
  8
TEXT
100
AcDbText
 10
1.763914916583398
 20
0.7157359651326476
 30
0.0
 40
0.0522247191011236
  1
Minneapolis, MN 55432-0008
 41
1.11444212721585
 72
     5
 11
3.092847500853062
 21
0.7157359651326476
 31
0.0
100
AcDbText
  0
LWPOLYLINE
  5
7DE1B343D9E0C9F
330
7DE1B343D9E0DEF
100
AcDbEntity
  8
TEXT
100
AcDbPolyline
 90
        3
 70
     0
 43
0.0006660908203125
 10
-0.392038775483909
 20
0.7361223008037903
 10
-0.392038775483909
 20
0.6228868613506627
 10
-0.2788033360307867
 20
0.6228868613506627
  0
LWPOLYLINE
  5
7DE1B343D9E0CA4
330
7DE1B343D9E0DEF
100
AcDbEntity
  8
TEXT
100
AcDbPolyline
 90
        3
 70
     0
 43
0.0006660908203125
 10
-0.3653951426714115
 20
0.7361223008037903
 10
-0.3653951426714115
 20
0.6495304941631637
 10
-0.2788033360307867
 20
0.6495304941631637
  0
LWPOLYLINE
  5
7DE1B343D9E0CA9
330
7DE1B343D9E0DEF
100
AcDbEntity
  8
TEXT
100
AcDbPolyline
 90
        2
 70
     0
 43
0.0001332181640625
 10
-0.3187687852495347
 20
0.7461136631084755
 10
-0.392038775483909
 20
0.7361223008037903
  0
LWPOLYLINE
  5
7DE1B343D9E0CAD
330
7DE1B343D9E0DEF
100
AcDbEntity
  8
TEXT
100
AcDbPolyline
 90
        2
 70
     0
 43
0.0001332181640625
 10
-0.3653951426714115
 20
0.7361223008037903
 10
-0.3054469688432841
 20
0.7461136631084755
  0
LWPOLYLINE
  5
7DE1B343D9E0CB1
330
7DE1B343D9E0DEF
100
AcDbEntity
  8
TEXT
100
AcDbPolyline
 90
        2
 70
     0
 43
0.0001332181640625
 10
-0.3653951426714115
 20
0.6495304941631637
 10
-0.3054469688432841
 20
0.7094786679912893
  0
LWPOLYLINE
  5
7DE1B343D9E0CB5
330
7DE1B343D9E0DEF
100
AcDbEntity
  8
TEXT
100
AcDbPolyline
 90
        3
 70
     0
 43
0.0006660908203125
 10
-0.2788033360307867
 20
0.8893231894756659
 10
-0.392038775483909
 20
0.8893231894756659
 10
-0.392038775483909
 20
0.7760877500225383
  0
LWPOLYLINE
  5
7DE1B343D9E0CBA
330
7DE1B343D9E0DEF
100
AcDbEntity
  8
TEXT
100
AcDbPolyline
 90
        3
 70
     0
 43
0.0006660908203125
 10
-0.2788033360307867
 20
0.8626795566631649
 10
-0.3653951426714115
 20
0.8626795566631649
 10
-0.3653951426714115
 20
0.7760877500225383
  0
LWPOLYLINE
  5
7DE1B343D9E0CBF
330
7DE1B343D9E0DEF
100
AcDbEntity
  8
TEXT
100
AcDbPolyline
 90
        2
 70
     0
 43
0.0001332181640625
 10
-0.3653951426714115
 20
0.8626795566631649
 10
-0.3054469688432859
 20
0.8027313828350393
  0
LWPOLYLINE
  5
7DE1B343D9E0CC3
330
7DE1B343D9E0DEF
100
AcDbEntity
  8
TEXT
100
AcDbPolyline
 90
        2
 70
     0
 43
0.0001332181640625
 10
-0.3653951426714115
 20
0.7760877500225383
 10
-0.3054469688432859
 20
0.7660963877178495
  0
LWPOLYLINE
  5
7DE1B343D9E0CC7
330
7DE1B343D9E0DEF
100
AcDbEntity
  8
TEXT
100
AcDbPolyline
 90
        2
 70
     0
 43
0.0001332181640625
 10
-0.392038775483909
 20
0.7760877500225383
 10
-0.3187687852495347
 20
0.7660963877178495
  0
LWPOLYLINE
  5
7DE1B343D9E0CCB
330
7DE1B343D9E0DEF
100
AcDbEntity
  8
TEXT
100
AcDbPolyline
 90
        2
 70
     0
 43
0.0006660908203125
 10
-0.3653951426714115
 20
0.7361223008037903
 10
-0.392038775483909
 20
0.7361223008037903
  0
LWPOLYLINE
  5
7DE1B343D9E0CCF
330
7DE1B343D9E0DEF
100
AcDbEntity
  8
TEXT
100
AcDbPolyline
 90
        2
 70
     0
 43
0.0006660908203125
 10
-0.3653951426714115
 20
0.7760877500225383
 10
-0.392038775483909
 20
0.7760877500225383
  0
LINE
  5
7DE1B343D9E0CD3
330
7DE1B343D9E0DEF
100
AcDbEntity
  8
TEXT
100
AcDbLine
 10
1.123151653642588
 20
0.825046494818897
 30
0.0
 11
1.015945380255299
 21
0.825046494818897
 31
0.0
  0
LINE
  5
7DE1B343D9E0CD4
330
7DE1B343D9E0DEF
100
AcDbEntity
  8
TEXT
100
AcDbLine
 10
1.152182551987066
 20
0.8893231894756624
 30
0.0
 11
1.017350642770007
 21
0.8893231894756624
 31
0.0
  0
ARC
  5
7DE1B343D9E0CD5
330
7DE1B343D9E0DEF
100
AcDbEntity
  8
TEXT
100
AcDbCircle
 10
1.076664739163324
 20
0.7200859402126461
 30
0.0
 40
0.0676855811441166
100
AcDbArc
 50
90.0
 51
153.7768192527749
  0
LWPOLYLINE
  5
7DE1B343D9E0CD6
330
7DE1B343D9E0DEF
100
AcDbEntity
  8
TEXT
100
AcDbPolyline
 90
        2
 70
     0
 43
0.0
 10
1.014912884800489
 20
0.6663411014375896
 42
0.2901071551932823
 10
1.057988817668124
 20
0.6228501564871514
 42
5.328517124445801
  0
ARC
  5
7DE1B343D9E0CDA
330
7DE1B343D9E0DEF
100
AcDbEntity
  8
TEXT
100
AcDbCircle
 10
0.371533361491839
 20
0.6826425478252012
 30
0.0
 40
0.0601160179737537
100
AcDbArc
 50
180.0000000000003
 51
264.0521544866073
  0
LINE
  5
7DE1B343D9E0CDB
330
7DE1B343D9E0DEF
100
AcDbEntity
  8
TEXT
100
AcDbLine
 10
0.3750487171173868
 20
0.9237111070698006
 30
0.0
 11
0.3150061122733798
 21
0.9237111070698006
 31
0.0
  0
ARC
  5
7DE1B343D9E0CDC
330
7DE1B343D9E0DEF
100
AcDbEntity
  8
TEXT
100
AcDbCircle
 10
0.1392743593748684
 20
0.8072357300291606
 30
0.0
 40
0.0820874594465043
100
AcDbArc
 50
90.0
 51
270.0
  0
LWPOLYLINE
  5
7DE1B343D9E0CDD
330
7DE1B343D9E0DEF
100
AcDbEntity
  8
TEXT
100
AcDbPolyline
 90
        2
 70
     0
 43
0.0001332181640625
 10
-0.2688119737260961
 20
0.8160531992412863
 10
-0.2788033360307867
 20
0.8893231894756659
  0
LWPOLYLINE
  5
7DE1B343D9E0CE1
330
7DE1B343D9E0DEF
100
AcDbEntity
  8
TEXT
100
AcDbPolyline
 90
        2
 70
     0
 43
0.0001332181640625
 10
-0.2788033360307867
 20
0.8626795566631649
 10
-0.2688119737260961
 20
0.8027313828350393
  0
LWPOLYLINE
  5
7DE1B343D9E0CE5
330
7DE1B343D9E0DEF
100
AcDbEntity
  8
TEXT
100
AcDbPolyline
 90
        3
 70
     0
 43
0.0006660908203125
 10
-0.1256024473589092
 20
0.7760877500225383
 10
-0.1256024473589092
 20
0.8893231894756659
 10
-0.2388378868120351
 20
0.8893231894756659
  0
LWPOLYLINE
  5
7DE1B343D9E0CEA
330
7DE1B343D9E0DEF
100
AcDbEntity
  8
TEXT
100
AcDbPolyline
 90
        3
 70
     0
 43
0.0006660908203125
 10
-0.1522460801714103
 20
0.7760877500225383
 10
-0.1522460801714103
 20
0.8626795566631649
 10
-0.2388378868120351
 20
0.8626795566631649
  0
LWPOLYLINE
  5
7DE1B343D9E0CEF
330
7DE1B343D9E0DEF
100
AcDbEntity
  8
TEXT
100
AcDbPolyline
 90
        2
 70
     0
 43
0.0001332181640625
 10
-0.1522460801714103
 20
0.8626795566631649
 10
-0.2121942539995341
 20
0.8027313828350393
  0
LWPOLYLINE
  5
7DE1B343D9E0CF3
330
7DE1B343D9E0DEF
100
AcDbEntity
  8
TEXT
100
AcDbPolyline
 90
        2
 70
     0
 43
0.0001332181640625
 10
-0.2388378868120351
 20
0.8626795566631649
 10
-0.2488292491167239
 20
0.8027313828350393
  0
LWPOLYLINE
  5
7DE1B343D9E0CF7
330
7DE1B343D9E0DEF
100
AcDbEntity
  8
TEXT
100
AcDbPolyline
 90
        2
 70
     0
 43
0.0001332181640625
 10
-0.2388378868120351
 20
0.8893231894756659
 10
-0.2488292491167239
 20
0.8160531992412863
  0
LWPOLYLINE
  5
7DE1B343D9E0CFB
330
7DE1B343D9E0DEF
100
AcDbEntity
  8
TEXT
100
AcDbPolyline
 90
        2
 70
     0
 43
0.0001332181640625
 10
-0.1988724375932853
 20
0.7660963877178495
 10
-0.1256024473589092
 20
0.7760877500225383
  0
LWPOLYLINE
  5
7DE1B343D9E0CFF
330
7DE1B343D9E0DEF
100
AcDbEntity
  8
TEXT
100
AcDbPolyline
 90
        2
 70
     0
 43
0.0001332181640625
 10
-0.1522460801714103
 20
0.7760877500225383
 10
-0.2121942539995341
 20
0.7660963877178495
  0
LWPOLYLINE
  5
7DE1B343D9E0D03
330
7DE1B343D9E0DEF
100
AcDbEntity
  8
TEXT
100
AcDbPolyline
 90
        2
 70
     0
 43
0.0001332181640625
 10
-0.1256024473589092
 20
0.7361223008037903
 10
-0.1988724375932853
 20
0.7461136631084755
  0
LWPOLYLINE
  5
7DE1B343D9E0D07
330
7DE1B343D9E0DEF
100
AcDbEntity
  8
TEXT
100
AcDbPolyline
 90
        2
 70
     0
 43
0.0001332181640625
 10
-0.1522460801714103
 20
0.7361223008037903
 10
-0.2121942539995341
 20
0.7461136631084755
  0
LWPOLYLINE
  5
7DE1B343D9E0D0B
330
7DE1B343D9E0DEF
100
AcDbEntity
  8
TEXT
100
AcDbPolyline
 90
        2
 70
     0
 43
0.0001332181640625
 10
-0.1522460801714103
 20
0.6495304941631637
 10
-0.2121942539995341
 20
0.7094786679912893
  0
LWPOLYLINE
  5
7DE1B343D9E0D0F
330
7DE1B343D9E0DEF
100
AcDbEntity
  8
TEXT
100
AcDbPolyline
 90
        3
 70
     0
 43
0.0006660908203125
 10
-0.2388378868120351
 20
0.6495304941631637
 10
-0.1522460801714103
 20
0.6495304941631637
 10
-0.1522460801714103
 20
0.7361223008037903
  0
LWPOLYLINE
  5
7DE1B343D9E0D14
330
7DE1B343D9E0DEF
100
AcDbEntity
  8
TEXT
100
AcDbPolyline
 90
        3
 70
     0
 43
0.0006660908203125
 10
-0.2388378868120351
 20
0.6228868613506627
 10
-0.1256024473589092
 20
0.6228868613506627
 10
-0.1256024473589092
 20
0.7361223008037903
  0
LWPOLYLINE
  5
7DE1B343D9E0D19
330
7DE1B343D9E0DEF
100
AcDbEntity
  8
TEXT
100
AcDbPolyline
 90
        5
 70
     0
 43
0.0001332181640625
 10
-0.2688119737260961
 20
0.6961568515850387
 10
-0.2688119737260961
 20
0.7094786679912893
 10
-0.3054469688432841
 20
0.7094786679912893
 10
-0.3054469688432841
 20
0.7461136631084755
 10
-0.3187687852495347
 20
0.7461136631084755
  0
LWPOLYLINE
  5
7DE1B343D9E0D20
330
7DE1B343D9E0DEF
100
AcDbEntity
  8
TEXT
100
AcDbPolyline
 90
        2
 70
     0
 43
0.0006660908203125
 10
-0.2788033360307867
 20
0.6495304941631637
 10
-0.2788033360307867
 20
0.6228868613506627
  0
LWPOLYLINE
  5
7DE1B343D9E0D24
330
7DE1B343D9E0DEF
100
AcDbEntity
  8
TEXT
100
AcDbPolyline
 90
        2
 70
     0
 43
0.0001332181640625
 10
-0.2788033360307867
 20
0.6495304941631637
 10
-0.2688119737260961
 20
0.7094786679912893
  0
LWPOLYLINE
  5
7DE1B343D9E0D28
330
7DE1B343D9E0DEF
100
AcDbEntity
  8
TEXT
100
AcDbPolyline
 90
        2
 70
     0
 43
0.0001332181640625
 10
-0.2788033360307867
 20
0.6228868613506627
 10
-0.2688119737260961
 20
0.6961568515850387
  0
LWPOLYLINE
  5
7DE1B343D9E0D2C
330
7DE1B343D9E0DEF
100
AcDbEntity
  8
TEXT
100
AcDbPolyline
 90
        5
 70
     0
 43
0.0001332181640625
 10
-0.3187687852495347
 20
0.7660963877178495
 10
-0.3054469688432859
 20
0.7660963877178495
 10
-0.3054469688432859
 20
0.8027313828350393
 10
-0.2688119737260961
 20
0.8027313828350393
 10
-0.2688119737260961
 20
0.8160531992412863
  0
LWPOLYLINE
  5
7DE1B343D9E0D33
330
7DE1B343D9E0DEF
100
AcDbEntity
  8
TEXT
100
AcDbPolyline
 90
        5
 70
     0
 43
0.0001332181640625
 10
-0.2488292491167239
 20
0.8160531992412863
 10
-0.2488292491167239
 20
0.8027313828350393
 10
-0.2121942539995341
 20
0.8027313828350393
 10
-0.2121942539995341
 20
0.7660963877178495
 10
-0.1988724375932853
 20
0.7660963877178495
  0
LWPOLYLINE
  5
7DE1B343D9E0D3A
330
7DE1B343D9E0DEF
100
AcDbEntity
  8
TEXT
100
AcDbPolyline
 90
        2
 70
     0
 43
0.0001332181640625
 10
-0.2388378868120351
 20
0.6495304941631637
 10
-0.2488292491167239
 20
0.7094786679912893
  0
LWPOLYLINE
  5
7DE1B343D9E0D3E
330
7DE1B343D9E0DEF
100
AcDbEntity
  8
TEXT
100
AcDbPolyline
 90
        2
 70
     0
 43
0.0001332181640625
 10
-0.2488292491167239
 20
0.6961568515850387
 10
-0.2388378868120351
 20
0.6228868613506627
  0
LWPOLYLINE
  5
7DE1B343D9E0D42
330
7DE1B343D9E0DEF
100
AcDbEntity
  8
TEXT
100
AcDbPolyline
 90
        2
 70
     0
 43
0.0006660908203125
 10
-0.2388378868120351
 20
0.6495304941631637
 10
-0.2388378868120351
 20
0.6228868613506627
  0
LWPOLYLINE
  5
7DE1B343D9E0D46
330
7DE1B343D9E0DEF
100
AcDbEntity
  8
TEXT
100
AcDbPolyline
 90
        5
 70
     0
 43
0.0001332181640625
 10
-0.1988724375932853
 20
0.7461136631084755
 10
-0.2121942539995341
 20
0.7461136631084755
 10
-0.2121942539995341
 20
0.7094786679912893
 10
-0.2488292491167239
 20
0.7094786679912893
 10
-0.2488292491167239
 20
0.6961568515850387
  0
LWPOLYLINE
  5
7DE1B343D9E0D4D
330
7DE1B343D9E0DEF
100
AcDbEntity
  8
TEXT
100
AcDbPolyline
 90
        2
 70
     0
 43
0.0006660908203125
 10
-0.1522460801714103
 20
0.7760877500225383
 10
-0.1256024473589092
 20
0.7760877500225383
  0
LWPOLYLINE
  5
7DE1B343D9E0D51
330
7DE1B343D9E0DEF
100
AcDbEntity
  8
TEXT
100
AcDbPolyline
 90
        2
 70
     0
 43
0.0006660908203125
 10
-0.1522460801714103
 20
0.7361223008037903
 10
-0.1256024473589092
 20
0.7361223008037903
  0
LINE
  5
7DE1B343D9E0D55
330
7DE1B343D9E0DEF
100
AcDbEntity
  8
TEXT
100
AcDbLine
 10
0.1445116894891156
 20
0.825046494818897
 30
0.0
 11
0.3114173435180869
 21
0.825046494818897
 31
0.0
  0
LINE
  5
7DE1B343D9E0D56
330
7DE1B343D9E0DEF
100
AcDbEntity
  8
TEXT
100
AcDbLine
 10
0.2101118257334167
 20
0.7892417732082691
 30
0.0
 11
0.1445116894891156
 21
0.7892417732082691
 31
0.0
  0
LINE
  5
7DE1B343D9E0D57
330
7DE1B343D9E0DEF
100
AcDbEntity
  8
TEXT
100
AcDbLine
 10
0.057186899928364
 20
0.6228501564871514
 30
0.0
 11
0.2101118257334167
 21
0.6228501564871514
 31
0.0
  0
LINE
  5
7DE1B343D9E0D58
330
7DE1B343D9E0DEF
100
AcDbEntity
  8
TEXT
100
AcDbLine
 10
0.2150521996396963
 20
0.6912071628205907
 30
0.0
 11
0.0571868999283622
 21
0.6912071628205907
 31
0.0
  0
LINE
  5
7DE1B343D9E0D59
330
7DE1B343D9E0DEF
100
AcDbEntity
  8
TEXT
100
AcDbLine
 10
0.1392743593748675
 20
0.7251482705826553
 30
0.0
 11
0.2150521996396963
 21
0.7251482705826553
 31
0.0
  0
ARC
  5
7DE1B343D9E0D5A
330
7DE1B343D9E0DEF
100
AcDbEntity
  8
TEXT
100
AcDbCircle
 10
0.1445116894891165
 20
0.8071441340135848
 30
0.0
 40
0.017902360805315
100
AcDbArc
 50
90.0
 51
270.0
  0
LINE
  5
7DE1B343D9E0D5B
330
7DE1B343D9E0DEF
100
AcDbEntity
  8
TEXT
100
AcDbLine
 10
0.0571868999283622
 20
0.6912071628205907
 30
0.0
 11
0.057186899928364
 21
0.6228501564871514
 31
0.0
  0
LINE
  5
7DE1B343D9E0D5C
330
7DE1B343D9E0DEF
100
AcDbEntity
  8
TEXT
100
AcDbLine
 10
0.3114173435180869
 20
0.825046494818897
 30
0.0
 11
0.3114173435180869
 21
0.6826425478252012
 31
0.0
  0
ARC
  5
7DE1B343D9E0D5D
330
7DE1B343D9E0DEF
100
AcDbEntity
  8
TEXT
100
AcDbCircle
 10
0.2101118257334176
 20
0.7060459648477085
 30
0.0
 40
0.0831958083605586
100
AcDbArc
 50
270.0
 51
90.0
  0
ARC
  5
7DE1B343D9E0D5E
330
7DE1B343D9E0DEF
100
AcDbEntity
  8
TEXT
100
AcDbCircle
 10
0.2150521996396972
 20
0.7081777167016248
 30
0.0
 40
0.0169705538810321
100
AcDbArc
 50
270.0
 51
90.0
  0
LWPOLYLINE
  5
7DE1B343D9E0D5F
330
7DE1B343D9E0DEF
100
AcDbEntity
  8
TEXT
100
AcDbPolyline
 90
        2
 70
     0
 43
0.0006660908203125
 10
-0.2788033360307867
 20
0.8626795566631649
 10
-0.2788033360307867
 20
0.8893231894756659
  0
LWPOLYLINE
  5
7DE1B343D9E0D63
330
7DE1B343D9E0DEF
100
AcDbEntity
  8
TEXT
100
AcDbPolyline
 90
        2
 70
     0
 43
0.0006660908203125
 10
-0.2388378868120351
 20
0.8626795566631649
 10
-0.2388378868120351
 20
0.8893231894756659
  0
LINE
  5
7DE1B343D9E0D67
330
7DE1B343D9E0DEF
100
AcDbEntity
  8
TEXT
100
AcDbLine
 10
0.3150061122733798
 20
0.8893231894756624
 30
0.0
 11
0.1392743593748675
 21
0.8893231894756624
 31
0.0
  0
LINE
  5
7DE1B343D9E0D68
330
7DE1B343D9E0DEF
100
AcDbEntity
  8
TEXT
100
AcDbLine
 10
0.3150061122733798
 20
0.9237111070698006
 30
0.0
 11
0.3150061122733798
 21
0.8893231894756624
 31
0.0
  0
LINE
  5
7DE1B343D9E0D69
330
7DE1B343D9E0DEF
100
AcDbEntity
  8
TEXT
100
AcDbLine
 10
0.5054780042932321
 20
0.7884511933625418
 30
0.0
 11
0.4468476832612942
 21
0.8893231894756624
 31
0.0
  0
LINE
  5
7DE1B343D9E0D6A
330
7DE1B343D9E0DEF
100
AcDbEntity
  8
TEXT
100
AcDbLine
 10
0.5642265670990976
 20
0.8893231894756624
 30
0.0
 11
0.5054780042932321
 21
0.7884511933625418
 31
0.0
  0
LINE
  5
7DE1B343D9E0D6B
330
7DE1B343D9E0DEF
100
AcDbEntity
  8
TEXT
100
AcDbLine
 10
0.6611571924588389
 20
0.7052379945901506
 30
0.0
 11
0.6611571924588389
 21
0.957334667214473
 31
0.0
  0
LINE
  5
7DE1B343D9E0D6C
330
7DE1B343D9E0DEF
100
AcDbEntity
  8
TEXT
100
AcDbLine
 10
0.693469046596499
 20
0.8893231894756624
 30
0.0
 11
0.693469046596499
 21
0.6884589827432542
 31
0.0
  0
LINE
  5
7DE1B343D9E0D6D
330
7DE1B343D9E0DEF
100
AcDbEntity
  8
TEXT
100
AcDbLine
 10
0.693469046596499
 20
0.6884589827432542
 30
0.0
 11
0.6764754097118977
 21
0.6884589827432542
 31
0.0
  0
LINE
  5
7DE1B343D9E0D6E
330
7DE1B343D9E0DEF
100
AcDbEntity
  8
TEXT
100
AcDbLine
 10
0.6622967659550337
 20
0.6228501564871514
 30
0.0
 11
0.7603000996544682
 21
0.6228501564871514
 31
0.0
  0
LINE
  5
7DE1B343D9E0D6F
330
7DE1B343D9E0DEF
100
AcDbEntity
  8
TEXT
100
AcDbLine
 10
0.4958777672962778
 20
0.6428086625921643
 30
0.0
 11
0.5931774733897224
 21
0.8071588735274325
 31
0.0
  0
ARC
  5
7DE1B343D9E0D70
330
7DE1B343D9E0DEF
100
AcDbEntity
  8
TEXT
100
AcDbCircle
 10
0.4618342073840638
 20
0.6623978787608471
 30
0.0
 40
0.0392772371940762
100
AcDbArc
 50
270.1604552698595
 51
330.0831797321295
  0
LINE
  5
7DE1B343D9E0D71
330
7DE1B343D9E0DEF
100
AcDbEntity
  8
TEXT
100
AcDbLine
 10
0.3653039509981926
 20
0.6228501564871514
 30
0.0
 11
0.461944202073187
 21
0.6231207955854337
 31
0.0
  0
LWPOLYLINE
  5
7DE1B343D9E0D72
330
7DE1B343D9E0DEF
100
AcDbEntity
  8
TEXT
100
AcDbPolyline
 90
        6
 70
     1
 43
0.0
 10
0.4078277545733422
 20
0.825046494818897
 10
0.377511160353134
 20
0.825046494818897
 10
0.377511160353134
 20
0.7019354967640026
 42
0.407328721240804
 10
0.3890548115146104
 20
0.6901165820876165
 10
0.4496765105593413
 20
0.6901165820876165
 10
0.4671418509666592
 20
0.7229288111310957
  0
LINE
  5
7DE1B343D9E0D7A
330
7DE1B343D9E0DEF
100
AcDbEntity
  8
TEXT
100
AcDbLine
 10
0.5931774733897224
 20
0.8071588735274325
 30
0.0
 11
0.5931774733897224
 21
0.6744014987020761
 31
0.0
  0
ARC
  5
7DE1B343D9E0D7B
330
7DE1B343D9E0DEF
100
AcDbEntity
  8
TEXT
100
AcDbCircle
 10
0.6764754097118959
 20
0.7038407889866796
 30
0.0
 40
0.0153818062434269
100
AcDbArc
 50
174.7883570302258
 51
270.0
  0
LWPOLYLINE
  5
7DE1B343D9E0D7C
330
7DE1B343D9E0DEF
100
AcDbEntity
  8
TEXT
100
AcDbPolyline
 90
        2
 70
     0
 43
0.0
 10
0.5931774733897206
 20
0.6744014987020797
 42
0.3318488747599744
 10
0.6622967659550337
 20
0.6228501564871514
 42
-6.868794160588311
  0
LINE
  5
7DE1B343D9E0D80
330
7DE1B343D9E0DEF
100
AcDbEntity
  8
TEXT
100
AcDbLine
 10
0.8176891686437294
 20
0.6228501564871514
 30
0.0
 11
0.8847472154255694
 21
0.6228501564871514
 31
0.0
  0
LINE
  5
7DE1B343D9E0D81
330
7DE1B343D9E0DEF
100
AcDbEntity
  8
TEXT
100
AcDbLine
 10
0.8176891686437294
 20
0.817492705652787
 30
0.0
 11
0.8176891686437294
 21
0.6228501564871514
 31
0.0
  0
LINE
  5
7DE1B343D9E0D82
330
7DE1B343D9E0DEF
100
AcDbEntity
  8
TEXT
100
AcDbLine
 10
0.7603000996544682
 20
0.825046494818897
 30
0.0
 11
0.8101353794776159
 21
0.825046494818897
 31
0.0
  0
LINE
  5
7DE1B343D9E0D83
330
7DE1B343D9E0DEF
100
AcDbEntity
  8
TEXT
100
AcDbLine
 10
0.7603000996544682
 20
0.6228501564871514
 30
0.0
 11
0.7603000996544682
 21
0.825046494818897
 31
0.0
  0
LWPOLYLINE
  5
7DE1B343D9E0D84
330
7DE1B343D9E0DEF
100
AcDbEntity
  8
TEXT
100
AcDbPolyline
 90
        2
 70
     0
 43
0.0
 10
0.8101353794776141
 20
0.825046494818897
 42
-0.4142135623731017
 10
0.8176891686437276
 20
0.817492705652787
 42
-0.9999999999999998
  0
LINE
  5
7DE1B343D9E0D88
330
7DE1B343D9E0DEF
100
AcDbEntity
  8
TEXT
100
AcDbLine
 10
1.015945380255299
 20
0.825046494818897
 30
0.0
 11
1.015945380255299
 21
0.7499940887446904
 31
0.0
  0
LINE
  5
7DE1B343D9E0D89
330
7DE1B343D9E0DEF
100
AcDbEntity
  8
TEXT
100
AcDbLine
 10
0.8847472154255694
 20
0.825046494818897
 30
0.0
 11
0.9388808123465196
 21
0.825046494818897
 31
0.0
  0
LINE
  5
7DE1B343D9E0D8A
330
7DE1B343D9E0DEF
100
AcDbEntity
  8
TEXT
100
AcDbLine
 10
0.8847472154255694
 20
0.6228501564871514
 30
0.0
 11
0.8847472154255694
 21
0.825046494818897
 31
0.0
  0
LWPOLYLINE
  5
7DE1B343D9E0D8B
330
7DE1B343D9E0DEF
100
AcDbEntity
  8
TEXT
100
AcDbPolyline
 90
        2
 70
     0
 43
0.0
 10
0.9388808123465178
 20
0.825046494818897
 42
-0.4142135623731017
 10
0.9464346015126313
 20
0.817492705652787
 42
-0.9999999999999998
  0
LWPOLYLINE
  5
7DE1B343D9E0D8F
330
7DE1B343D9E0DEF
100
AcDbEntity
  8
TEXT
100
AcDbPolyline
 90
        4
 70
     0
 43
0.0
 10
0.9464346015126313
 20
0.817492705652787
 10
0.9464346015126313
 20
0.6228501564871514
 10
1.014912884800489
 20
0.6228501564871514
 10
1.014912884800489
 20
0.6663411014375896
 42
-1.714843617202739
  0
LINE
  5
7DE1B343D9E0D95
330
7DE1B343D9E0DEF
100
AcDbEntity
  8
TEXT
100
AcDbLine
 10
0.3750487171173868
 20
0.8893231894756624
 30
0.0
 11
0.3750487171173868
 21
0.9237111070698006
 31
0.0
  0
LINE
  5
7DE1B343D9E0D96
330
7DE1B343D9E0DEF
100
AcDbEntity
  8
TEXT
100
AcDbLine
 10
0.4468476832612942
 20
0.8893231894756624
 30
0.0
 11
0.3750487171173868
 21
0.8893231894756624
 31
0.0
  0
LINE
  5
7DE1B343D9E0D97
330
7DE1B343D9E0DEF
100
AcDbEntity
  8
TEXT
100
AcDbLine
 10
0.5943484798924739
 20
0.8893231894756624
 30
0.0
 11
0.5642265670990976
 21
0.8893231894756624
 31
0.0
  0
LINE
  5
7DE1B343D9E0D98
330
7DE1B343D9E0DEF
100
AcDbEntity
  8
TEXT
100
AcDbLine
 10
0.5943484798924739
 20
0.957334667214473
 30
0.0
 11
0.5943484798924739
 21
0.8893231894756624
 31
0.0
  0
LINE
  5
7DE1B343D9E0D99
330
7DE1B343D9E0DEF
100
AcDbEntity
  8
TEXT
100
AcDbLine
 10
0.6611571924588389
 20
0.957334667214473
 30
0.0
 11
0.5943484798924739
 21
0.957334667214473
 31
0.0
  0
LWPOLYLINE
  5
7DE1B343D9E0D9A
330
7DE1B343D9E0DEF
100
AcDbEntity
  8
TEXT
100
AcDbPolyline
 90
        3
 70
     0
 43
0.0
 10
0.9815689520568412
 20
0.8893231894756659
 10
0.8632687932407968
 20
0.8893231894756659
 10
0.8632687932407968
 20
0.86215569271477
 42
-1.960274751411753
  0
LINE
  5
7DE1B343D9E0D9F
330
7DE1B343D9E0DEF
100
AcDbEntity
  8
TEXT
100
AcDbLine
 10
0.8274871025276354
 20
0.8893231894756624
 30
0.0
 11
0.693469046596499
 21
0.8893231894756624
 31
0.0
  0
LWPOLYLINE
  5
7DE1B343D9E0DA0
330
7DE1B343D9E0DEF
100
AcDbEntity
  8
TEXT
100
AcDbPolyline
 90
        2
 70
     0
 43
0.0
 10
0.8274871025276354
 20
0.8893231894756659
 42
-0.3328679258950098
 10
0.8632687932407968
 20
0.86215569271477
 42
6.772930709997214
  0
LINE
  5
7DE1B343D9E0DA4
330
7DE1B343D9E0DEF
100
AcDbEntity
  8
TEXT
100
AcDbLine
 10
1.017350642770007
 20
0.8893231894756624
 30
0.0
 11
1.017350642770007
 21
0.8610006437060185
 31
0.0
  0
LWPOLYLINE
  5
7DE1B343D9E0DA5
330
7DE1B343D9E0DEF
100
AcDbEntity
  8
TEXT
100
AcDbPolyline
 90
        2
 70
     0
 43
0.0
 10
0.9815689520568412
 20
0.8893231894756659
 42
-0.3277054968067132
 10
1.017350642770006
 20
0.8610006437060221
 42
6.667889725900311
  0
LINE
  5
7DE1B343D9E0DA9
330
7DE1B343D9E0DEF
100
AcDbEntity
  8
TEXT
100
AcDbLine
 10
1.231142490862108
 20
0.7841112109222351
 30
0.0
 11
1.187391719680206
 21
0.8663614869183803
 31
0.0
  0
LINE
  5
7DE1B343D9E0DAA
330
7DE1B343D9E0DEF
100
AcDbEntity
  8
TEXT
100
AcDbLine
 10
1.231142490862108
 20
0.8893231894756624
 30
0.0
 11
1.231142490862108
 21
0.7841112109222351
 31
0.0
  0
LINE
  5
7DE1B343D9E0DAB
330
7DE1B343D9E0DEF
100
AcDbEntity
  8
TEXT
100
AcDbLine
 10
1.458826229800477
 20
0.8134578630641243
 30
0.0
 11
1.458826229800477
 21
0.9547873952432631
 31
0.0
  0
LINE
  5
7DE1B343D9E0DAC
330
7DE1B343D9E0DEF
100
AcDbEntity
  8
TEXT
100
AcDbLine
 10
1.505924388356461
 20
0.8893231894756624
 30
0.0
 11
1.458826229800477
 21
0.8134578630641243
 31
0.0
  0
LINE
  5
7DE1B343D9E0DAD
330
7DE1B343D9E0DEF
100
AcDbEntity
  8
TEXT
100
AcDbLine
 10
1.516359105120384
 20
0.7794299465346888
 30
0.0
 11
1.580916221086089
 21
0.8893231894756624
 31
0.0
  0
LINE
  5
7DE1B343D9E0DAE
330
7DE1B343D9E0DEF
100
AcDbEntity
  8
TEXT
100
AcDbLine
 10
1.394991238577703
 20
0.6228501564871514
 30
0.0
 11
1.459369422896324
 21
0.6228501564871514
 31
0.0
  0
LWPOLYLINE
  5
7DE1B343D9E0DAF
330
7DE1B343D9E0DEF
100
AcDbEntity
  8
TEXT
100
AcDbPolyline
 90
        2
 70
     0
 43
0.0
 10
1.235082168167145
 20
0.6663411014375896
 42
-0.2901071551932486
 10
1.192006235299501
 20
0.6228501564871514
 42
-5.328517124445184
  0
ARC
  5
7DE1B343D9E0DB3
330
7DE1B343D9E0DEF
100
AcDbEntity
  8
TEXT
100
AcDbCircle
 10
1.123151653642586
 20
0.7966871198188997
 30
0.0
 40
0.028359375
100
AcDbArc
 50
25.78218179591245
 51
90.0
  0
LINE
  5
7DE1B343D9E0DB4
330
7DE1B343D9E0DEF
100
AcDbEntity
  8
TEXT
100
AcDbLine
 10
1.158952728946709
 20
0.7877715213567647
 30
0.0
 11
1.148687968533145
 21
0.809022060929459
 31
0.0
  0
LINE
  5
7DE1B343D9E0DB5
330
7DE1B343D9E0DEF
100
AcDbEntity
  8
TEXT
100
AcDbLine
 10
1.076664739163326
 20
0.7877715213567647
 30
0.0
 11
1.158952728946709
 21
0.7877715213567647
 31
0.0
  0
LWPOLYLINE
  5
7DE1B343D9E0DB6
330
7DE1B343D9E0DEF
100
AcDbEntity
  8
TEXT
100
AcDbPolyline
 90
        4
 70
     1
 43
0.0
 10
1.171883770229608
 20
0.7258141344711766
 10
1.08322345156975
 20
0.7258141344711766
 42
0.9999999999999998
 10
1.08322345156975
 20
0.6834155939673159
 10
1.171883770229608
 20
0.6834155939673159
 42
1.0
  0
LWPOLYLINE
  5
7DE1B343D9E0DBC
330
7DE1B343D9E0DEF
100
AcDbEntity
  8
TEXT
100
AcDbPolyline
 90
        2
 70
     0
 43
0.0
 10
1.057988817668124
 20
0.6228501564871514
 10
1.192006235299501
 20
0.6228501564871514
 42
0.9999999999999998
  0
LINE
  5
7DE1B343D9E0DC0
330
7DE1B343D9E0DEF
100
AcDbEntity
  8
TEXT
100
AcDbLine
 10
1.31834325728514
 20
0.825046494818897
 30
0.0
 11
1.394991238577698
 21
0.825046494818897
 31
0.0
  0
LINE
  5
7DE1B343D9E0DC1
330
7DE1B343D9E0DEF
100
AcDbEntity
  8
TEXT
100
AcDbLine
 10
1.394991238577698
 20
0.825046494818897
 30
0.0
 11
1.394991238577703
 21
0.6228501564871514
 31
0.0
  0
ARC
  5
7DE1B343D9E0DC2
330
7DE1B343D9E0DEF
100
AcDbEntity
  8
TEXT
100
AcDbCircle
 10
1.318343257285139
 20
0.8001406195362342
 30
0.0
 40
0.0249058752826653
100
AcDbArc
 50
89.99971217465335
 51
179.9999999999985
  0
LINE
  5
7DE1B343D9E0DC3
330
7DE1B343D9E0DEF
100
AcDbEntity
  8
TEXT
100
AcDbLine
 10
1.293437382002481
 20
0.6228501564871514
 30
0.0
 11
1.293437382002476
 21
0.8001406619186198
 31
0.0
  0
LWPOLYLINE
  5
7DE1B343D9E0DC4
330
7DE1B343D9E0DEF
100
AcDbEntity
  8
TEXT
100
AcDbPolyline
 90
        2
 70
     0
 43
0.0
 10
1.235082168167145
 20
0.6228501564871514
 10
1.293437382002479
 20
0.6228501564871514
  0
LWPOLYLINE
  5
7DE1B343D9E0DC8
330
7DE1B343D9E0DEF
100
AcDbEntity
  8
TEXT
100
AcDbPolyline
 90
        2
 70
     0
 43
0.0
 10
1.235082168167145
 20
0.6663411014375896
 10
1.235082168167145
 20
0.6228501564871514
  0
LINE
  5
7DE1B343D9E0DCC
330
7DE1B343D9E0DEF
100
AcDbEntity
  8
TEXT
100
AcDbLine
 10
1.611851328483994
 20
0.6228501564871514
 30
0.0
 11
1.516359105120384
 21
0.7794299465346888
 31
0.0
  0
LINE
  5
7DE1B343D9E0DCD
330
7DE1B343D9E0DEF
100
AcDbEntity
  8
TEXT
100
AcDbLine
 10
1.535272956107788
 20
0.6228501564871514
 30
0.0
 11
1.611851328483994
 21
0.6228501564871514
 31
0.0
  0
LINE
  5
7DE1B343D9E0DCE
330
7DE1B343D9E0DEF
100
AcDbEntity
  8
TEXT
100
AcDbLine
 10
1.459369422896324
 20
0.7544297249633316
 30
0.0
 11
1.535272956107788
 21
0.6228501564871514
 31
0.0
  0
LINE
  5
7DE1B343D9E0DCF
330
7DE1B343D9E0DEF
100
AcDbEntity
  8
TEXT
100
AcDbLine
 10
1.459369422896324
 20
0.6228501564871514
 30
0.0
 11
1.459369422896324
 21
0.7544297249633316
 31
0.0
  0
LINE
  5
7DE1B343D9E0DD0
330
7DE1B343D9E0DEF
100
AcDbEntity
  8
TEXT
100
AcDbLine
 10
1.458826229800477
 20
0.9547873952432631
 30
0.0
 11
1.390511351251203
 21
0.9547873952432631
 31
0.0
  0
ARC
  5
7DE1B343D9E0DD1
330
7DE1B343D9E0DEF
100
AcDbEntity
  8
TEXT
100
AcDbCircle
 10
1.150155612209997
 20
0.84773962235476
 30
0.0
 40
0.0416329381542859
100
AcDbArc
 50
26.56974201007528
 51
87.20939649401342
  0
LINE
  5
7DE1B343D9E0DD2
330
7DE1B343D9E0DEF
100
AcDbEntity
  8
TEXT
100
AcDbLine
 10
1.295039397161608
 20
0.8893231894756624
 30
0.0
 11
1.231142490862108
 21
0.8893231894756624
 31
0.0
  0
LINE
  5
7DE1B343D9E0DD3
330
7DE1B343D9E0DEF
100
AcDbEntity
  8
TEXT
100
AcDbLine
 10
1.295039397161608
 20
0.8617755396147877
 30
0.0
 11
1.295039397161608
 21
0.8893231894756624
 31
0.0
  0
ARC
  5
7DE1B343D9E0DD4
330
7DE1B343D9E0DEF
100
AcDbEntity
  8
TEXT
100
AcDbCircle
 10
1.326232214224716
 20
0.8580774621933976
 30
0.0
 40
0.0314112657011332
100
AcDbArc
 50
95.88484768694724
 51
173.2388340632136
  0
LINE
  5
7DE1B343D9E0DD5
330
7DE1B343D9E0DEF
100
AcDbEntity
  8
TEXT
100
AcDbLine
 10
1.390511351251198
 20
0.8893231894756624
 30
0.0
 11
1.323011633601681
 21
0.8893231894756624
 31
0.0
  0
LINE
  5
7DE1B343D9E0DD6
330
7DE1B343D9E0DEF
100
AcDbEntity
  8
TEXT
100
AcDbLine
 10
1.390511351251203
 20
0.9547873952432631
 30
0.0
 11
1.390511351251198
 21
0.8893231894756624
 31
0.0
  0
LINE
  5
7DE1B343D9E0DD7
330
7DE1B343D9E0DEF
100
AcDbEntity
  8
TEXT
100
AcDbLine
 10
1.580916221086089
 20
0.8893231894756624
 30
0.0
 11
1.505924388356463
 21
0.8893231894756624
 31
0.0
  0
ENDSEC
  0
SECTION
  2
OBJECTS
  0
DICTIONARY
  5
7DE1B343D9E0DE3
330
0
100
AcDbDictionary
  3
ACAD_GROUP
350
7DE1B343D9E0DE4
  3
ACAD_LAYOUT
350
7DE1B343D9E0E09
  3
ACAD_MLINESTYLE
350
7DE1B343D9E0DE5
  3
ACAD_PLOTSETTINGS
350
7DE1B343D9E0E0A
  3
ACAD_PLOTSTYLENAME
350
7DE1B343D9E0E07
  3
ACDBHEADERROUNDTRIPXREC
350
7DE1B343D9E0E14
  3
ACDBVARIABLEDICTIONARY
350
7DE1B343D9E0E11
  0
DICTIONARY
  5
7DE1B343D9E0E36
330
7DE1B343D9E0DEF
100
AcDbDictionary
280
     1
  3
ACAD_LAYOUTSELFREF
360
7DE1B343D9E0E37
  0
DICTIONARY
  5
7DE1B343D9E0E34
330
7DE1B343D9E0DEC
100
AcDbDictionary
280
     1
  3
ACAD_LAYOUTSELFREF
360
7DE1B343D9E0E35
  0
DICTIONARY
  5
7DE1B343D9E0DE4
102
{ACAD_REACTORS
330
7DE1B343D9E0DE3
102
}
330
7DE1B343D9E0DE3
100
AcDbDictionary
  0
DICTIONARY
  5
7DE1B343D9E0E09
102
{ACAD_REACTORS
330
7DE1B343D9E0DE3
102
}
330
7DE1B343D9E0DE3
100
AcDbDictionary
  0
DICTIONARY
  5
7DE1B343D9E0DE5
102
{ACAD_REACTORS
330
7DE1B343D9E0DE3
102
}
330
7DE1B343D9E0DE3
100
AcDbDictionary
  3
STANDARD
350
7DE1B343D9E0DF2
  0
DICTIONARY
  5
7DE1B343D9E0E0A
102
{ACAD_REACTORS
330
7DE1B343D9E0DE3
102
}
330
7DE1B343D9E0DE3
100
AcDbDictionary
  0
ACDBDICTIONARYWDFLT
  5
7DE1B343D9E0E07
102
{ACAD_REACTORS
330
7DE1B343D9E0DE3
102
}
330
7DE1B343D9E0DE3
100
AcDbDictionary
281
     1
  3
Normal
350
7DE1B343D9E0E08
100
AcDbDictionaryWithDefault
340
7DE1B343D9E0E08
  0
DICTIONARY
  5
7DE1B343D9E0E14
102
{ACAD_REACTORS
330
7DE1B343D9E0DE3
102
}
330
7DE1B343D9E0DE3
100
AcDbDictionary
  3
CEPSNTYPE
350
7DE1B343D9E0E1E
  3
FINGERPRINTGUID
350
7DE1B343D9E0E1F
  3
HYPERLINKBASE
350
7DE1B343D9E0E17
  3
INSUNITS
350
7DE1B343D9E0E1D
  3
LAYOUTDICT
350
7DE1B343D9E0E19
  3
LWETCUNION
350
7DE1B343D9E0E1C
  3
PLOTSETDICT
350
7DE1B343D9E0E1A
  3
PLOTSTYLNAMDICT
350
7DE1B343D9E0E1B
  3
PSVPSCALE
350
7DE1B343D9E0E21
  3
PUCSBASE
350
7DE1B343D9E0E24
  3
PUCSORGBACK
350
7DE1B343D9E0E2A
  3
PUCSORGBOTTOM
350
7DE1B343D9E0E26
  3
PUCSORGFRONT
350
7DE1B343D9E0E29
  3
PUCSORGLEFT
350
7DE1B343D9E0E27
  3
PUCSORGRIGHT
350
7DE1B343D9E0E28
  3
PUCSORGTOP
350
7DE1B343D9E0E25
  3
PUCSORTHOREF
350
7DE1B343D9E0E22
  3
PUCSORTHOVIEW
350
7DE1B343D9E0E23
  3
STYLESHEET
350
7DE1B343D9E0E18
  3
TSTACKALIGN
350
7DE1B343D9E0E15
  3
TSTACKSIZE
350
7DE1B343D9E0E16
  3
UCSBASE
350
7DE1B343D9E0E2D
  3
UCSORGBACK
350
7DE1B343D9E0E33
  3
UCSORGBOTTOM
350
7DE1B343D9E0E2F
  3
UCSORGFRONT
350
7DE1B343D9E0E32
  3
UCSORGLEFT
350
7DE1B343D9E0E30
  3
UCSORGRIGHT
350
7DE1B343D9E0E31
  3
UCSORGTOP
350
7DE1B343D9E0E2E
  3
UCSORTHOREF
350
7DE1B343D9E0E2B
  3
UCSORTHOVIEW
350
7DE1B343D9E0E2C
  3
VERSIONGUID
350
7DE1B343D9E0E20
  0
DICTIONARY
  5
7DE1B343D9E0E11
102
{ACAD_REACTORS
330
7DE1B343D9E0DE3
102
}
330
7DE1B343D9E0DE3
100
AcDbDictionary
  3
DIMASSOC
350
7DE1B343D9E0E12
  0
XRECORD
  5
7DE1B343D9E0E37
102
{ACAD_REACTORS
330
7DE1B343D9E0E36
102
}
330
7DE1B343D9E0E36
100
AcDbXrecord
340
7DE1B343D9E0DEF
  0
XRECORD
  5
7DE1B343D9E0E35
102
{ACAD_REACTORS
330
7DE1B343D9E0E34
102
}
330
7DE1B343D9E0E34
100
AcDbXrecord
340
7DE1B343D9E0DEC
  0
MLINESTYLE
  5
7DE1B343D9E0DF2
102
{ACAD_REACTORS
330
7DE1B343D9E0DE5
102
}
330
7DE1B343D9E0DE5
100
AcDbMlineStyle
  2
STANDARD
 70
     0
  3

 62
     0
 51
90.0
 52
90.0
 71
     2
 49
0.5
 62
   256
  6
BYLAYER
 49
-0.5
 62
   256
  6
BYLAYER
  0
ACDBPLACEHOLDER
  5
7DE1B343D9E0E08
102
{ACAD_REACTORS
330
7DE1B343D9E0E07
102
}
330
7DE1B343D9E0E07
100
AcDbPlaceHolder
280
     0
  0
XRECORD
  5
7DE1B343D9E0E1E
102
{ACAD_REACTORS
330
7DE1B343D9E0E14
102
}
330
7DE1B343D9E0E14
100
AcDbXrecord
 90
        0
  0
XRECORD
  5
7DE1B343D9E0E1F
102
{ACAD_REACTORS
330
7DE1B343D9E0E14
102
}
330
7DE1B343D9E0E14
100
AcDbXrecord
  1
{548CFBD0-8DB9-11D6-88E6-0090279574E7}
  0
XRECORD
  5
7DE1B343D9E0E17
102
{ACAD_REACTORS
330
7DE1B343D9E0E14
102
}
330
7DE1B343D9E0E14
100
AcDbXrecord
  1

  0
XRECORD
  5
7DE1B343D9E0E1D
102
{ACAD_REACTORS
330
7DE1B343D9E0E14
102
}
330
7DE1B343D9E0E14
100
AcDbXrecord
 90
        0
  0
XRECORD
  5
7DE1B343D9E0E19
102
{ACAD_REACTORS
330
7DE1B343D9E0E14
102
}
330
7DE1B343D9E0E14
100
AcDbXrecord
340
7DE1B343D9E0E09
  0
XRECORD
  5
7DE1B343D9E0E1C
102
{ACAD_REACTORS
330
7DE1B343D9E0E14
102
}
330
7DE1B343D9E0E14
100
AcDbXrecord
 90
    14877
  0
XRECORD
  5
7DE1B343D9E0E1A
102
{ACAD_REACTORS
330
7DE1B343D9E0E14
102
}
330
7DE1B343D9E0E14
100
AcDbXrecord
340
7DE1B343D9E0E0A
  0
XRECORD
  5
7DE1B343D9E0E1B
102
{ACAD_REACTORS
330
7DE1B343D9E0E14
102
}
330
7DE1B343D9E0E14
100
AcDbXrecord
340
7DE1B343D9E0E07
  0
XRECORD
  5
7DE1B343D9E0E21
102
{ACAD_REACTORS
330
7DE1B343D9E0E14
102
}
330
7DE1B343D9E0E14
100
AcDbXrecord
 40
0.0
  0
XRECORD
  5
7DE1B343D9E0E24
102
{ACAD_REACTORS
330
7DE1B343D9E0E14
102
}
330
7DE1B343D9E0E14
100
AcDbXrecord
340
0
  0
XRECORD
  5
7DE1B343D9E0E2A
102
{ACAD_REACTORS
330
7DE1B343D9E0E14
102
}
330
7DE1B343D9E0E14
100
AcDbXrecord
 10
0.0
 20
0.0
 30
0.0
  0
XRECORD
  5
7DE1B343D9E0E26
102
{ACAD_REACTORS
330
7DE1B343D9E0E14
102
}
330
7DE1B343D9E0E14
100
AcDbXrecord
 10
0.0
 20
0.0
 30
0.0
  0
XRECORD
  5
7DE1B343D9E0E29
102
{ACAD_REACTORS
330
7DE1B343D9E0E14
102
}
330
7DE1B343D9E0E14
100
AcDbXrecord
 10
0.0
 20
0.0
 30
0.0
  0
XRECORD
  5
7DE1B343D9E0E27
102
{ACAD_REACTORS
330
7DE1B343D9E0E14
102
}
330
7DE1B343D9E0E14
100
AcDbXrecord
 10
0.0
 20
0.0
 30
0.0
  0
XRECORD
  5
7DE1B343D9E0E28
102
{ACAD_REACTORS
330
7DE1B343D9E0E14
102
}
330
7DE1B343D9E0E14
100
AcDbXrecord
 10
0.0
 20
0.0
 30
0.0
  0
XRECORD
  5
7DE1B343D9E0E25
102
{ACAD_REACTORS
330
7DE1B343D9E0E14
102
}
330
7DE1B343D9E0E14
100
AcDbXrecord
 10
0.0
 20
0.0
 30
0.0
  0
XRECORD
  5
7DE1B343D9E0E22
102
{ACAD_REACTORS
330
7DE1B343D9E0E14
102
}
330
7DE1B343D9E0E14
100
AcDbXrecord
340
0
  0
XRECORD
  5
7DE1B343D9E0E23
102
{ACAD_REACTORS
330
7DE1B343D9E0E14
102
}
330
7DE1B343D9E0E14
100
AcDbXrecord
 70
     0
  0
XRECORD
  5
7DE1B343D9E0E18
102
{ACAD_REACTORS
330
7DE1B343D9E0E14
102
}
330
7DE1B343D9E0E14
100
AcDbXrecord
  1

  0
XRECORD
  5
7DE1B343D9E0E15
102
{ACAD_REACTORS
330
7DE1B343D9E0E14
102
}
330
7DE1B343D9E0E14
100
AcDbXrecord
 90
        1
  0
XRECORD
  5
7DE1B343D9E0E16
102
{ACAD_REACTORS
330
7DE1B343D9E0E14
102
}
330
7DE1B343D9E0E14
100
AcDbXrecord
 90
       70
  0
XRECORD
  5
7DE1B343D9E0E2D
102
{ACAD_REACTORS
330
7DE1B343D9E0E14
102
}
330
7DE1B343D9E0E14
100
AcDbXrecord
340
0
  0
XRECORD
  5
7DE1B343D9E0E33
102
{ACAD_REACTORS
330
7DE1B343D9E0E14
102
}
330
7DE1B343D9E0E14
100
AcDbXrecord
 10
0.0
 20
0.0
 30
0.0
  0
XRECORD
  5
7DE1B343D9E0E2F
102
{ACAD_REACTORS
330
7DE1B343D9E0E14
102
}
330
7DE1B343D9E0E14
100
AcDbXrecord
 10
0.0
 20
0.0
 30
0.0
  0
XRECORD
  5
7DE1B343D9E0E32
102
{ACAD_REACTORS
330
7DE1B343D9E0E14
102
}
330
7DE1B343D9E0E14
100
AcDbXrecord
 10
0.0
 20
0.0
 30
0.0
  0
XRECORD
  5
7DE1B343D9E0E30
102
{ACAD_REACTORS
330
7DE1B343D9E0E14
102
}
330
7DE1B343D9E0E14
100
AcDbXrecord
 10
0.0
 20
0.0
 30
0.0
  0
XRECORD
  5
7DE1B343D9E0E31
102
{ACAD_REACTORS
330
7DE1B343D9E0E14
102
}
330
7DE1B343D9E0E14
100
AcDbXrecord
 10
0.0
 20
0.0
 30
0.0
  0
XRECORD
  5
7DE1B343D9E0E2E
102
{ACAD_REACTORS
330
7DE1B343D9E0E14
102
}
330
7DE1B343D9E0E14
100
AcDbXrecord
 10
0.0
 20
0.0
 30
0.0
  0
XRECORD
  5
7DE1B343D9E0E2B
102
{ACAD_REACTORS
330
7DE1B343D9E0E14
102
}
330
7DE1B343D9E0E14
100
AcDbXrecord
340
0
  0
XRECORD
  5
7DE1B343D9E0E2C
102
{ACAD_REACTORS
330
7DE1B343D9E0E14
102
}
330
7DE1B343D9E0E14
100
AcDbXrecord
 70
     0
  0
XRECORD
  5
7DE1B343D9E0E20
102
{ACAD_REACTORS
330
7DE1B343D9E0E14
102
}
330
7DE1B343D9E0E14
100
AcDbXrecord
  1
{548CFBD2-8DB9-11D6-88E6-0090279574E7}
  0
DICTIONARYVAR
  5
7DE1B343D9E0E12
102
{ACAD_REACTORS
330
7DE1B343D9E0E11
102
}
330
7DE1B343D9E0E11
100
DictionaryVariables
280
     0
  1
1
  0
ENDSEC
  0
EOF
