  0
SECTION
  2
HEADER
  9
$ACADVER
  1
AC1014
  9
$ACADMAINTVER
 70
     9
  9
$DWGCODEPAGE
  3
ANSI_1252
  9
$INSBASE
 10
1.146515136652103
 20
0.7930192027167394
 30
0.0
  9
$EXTMIN
 10
-0.59646644257504
 20
0.0364216157639559
 30
0.0
  9
$EXTMAX
 10
2.888752879172087
 20
2.011769202716739
 30
0.0
  9
$LIMMIN
 10
0.0
 20
0.0
  9
$LIMMAX
 10
18.0
 20
12.0
  9
$ORTHOMODE
 70
     1
  9
$REGENMODE
 70
     1
  9
$FILLMODE
 70
     1
  9
$QTEXTMODE
 70
     0
  9
$MIRRTEXT
 70
     0
  9
$DRAGMODE
 70
     2
  9
$LTSCALE
 40
1.0
  9
$OSMODE
 70
    39
  9
$ATTMODE
 70
     1
  9
$TEXTSIZE
 40
0.125
  9
$TRACEWID
 40
0.05
  9
$TEXTSTYLE
  7
ROMANS
  9
$CLAYER
  8
0
  9
$CELTYPE
  6
BYLAYER
  9
$CECOLOR
 62
   256
  9
$CELTSCALE
 40
1.0
  9
$DELOBJ
 70
     1
  9
$DISPSILH
 70
     1
  9
$DIMSCALE
 40
1.0
  9
$DIMASZ
 40
0.125
  9
$DIMEXO
 40
0.125
  9
$DIMDLI
 40
0.375
  9
$DIMRND
 40
0.0
  9
$DIMDLE
 40
0.0
  9
$DIMEXE
 40
0.125
  9
$DIMTP
 40
0.0
  9
$DIMTM
 40
0.0
  9
$DIMTXT
 40
0.125
  9
$DIMCEN
 40
-0.125
  9
$DIMTSZ
 40
0.0
  9
$DIMTOL
 70
     0
  9
$DIMLIM
 70
     0
  9
$DIMTIH
 70
     1
  9
$DIMTOH
 70
     1
  9
$DIMSE1
 70
     0
  9
$DIMSE2
 70
     0
  9
$DIMTAD
 70
     0
  9
$DIMZIN
 70
     4
  9
$DIMBLK
  1

  9
$DIMASO
 70
     1
  9
$DIMSHO
 70
     1
  9
$DIMPOST
  1

  9
$DIMAPOST
  1

  9
$DIMALT
 70
     0
  9
$DIMALTD
 70
     2
  9
$DIMALTF
 40
25.4
  9
$DIMLFAC
 40
1.0
  9
$DIMTOFL
 70
     0
  9
$DIMTVP
 40
0.0
  9
$DIMTIX
 70
     1
  9
$DIMSOXD
 70
     0
  9
$DIMSAH
 70
     0
  9
$DIMBLK1
  1

  9
$DIMBLK2
  1

  9
$DIMSTYLE
  2
STANDARD
  9
$DIMCLRD
 70
     0
  9
$DIMCLRE
 70
     0
  9
$DIMCLRT
 70
     0
  9
$DIMTFAC
 40
1.0
  9
$DIMGAP
 40
0.09
  9
$DIMJUST
 70
     0
  9
$DIMSD1
 70
     0
  9
$DIMSD2
 70
     0
  9
$DIMTOLJ
 70
     1
  9
$DIMTZIN
 70
     4
  9
$DIMALTZ
 70
     0
  9
$DIMALTTZ
 70
     0
  9
$DIMFIT
 70
     3
  9
$DIMUPT
 70
     0
  9
$DIMUNIT
 70
     2
  9
$DIMDEC
 70
     3
  9
$DIMTDEC
 70
     3
  9
$DIMALTU
 70
     2
  9
$DIMALTTD
 70
     2
  9
$DIMTXSTY
  7
ROMANS
  9
$DIMAUNIT
 70
     0
  9
$LUNITS
 70
     2
  9
$LUPREC
 70
     3
  9
$SKETCHINC
 40
0.1
  9
$FILLETRAD
 40
0.03125
  9
$AUNITS
 70
     0
  9
$AUPREC
 70
     0
  9
$MENU
  1
ACAD
  9
$ELEVATION
 40
0.0
  9
$PELEVATION
 40
0.0
  9
$THICKNESS
 40
0.0
  9
$LIMCHECK
 70
     0
  9
$BLIPMODE
 70
     0
  9
$CHAMFERA
 40
0.0
  9
$CHAMFERB
 40
0.0
  9
$CHAMFERC
 40
0.0
  9
$CHAMFERD
 40
0.0
  9
$SKPOLY
 70
     0
  9
$TDCREATE
 40
2448994.679817361
  9
$TDUPDATE
 40
2452458.321896053
  9
$TDINDWG
 40
0.0004227778
  9
$TDUSRTIMER
 40
0.0004227778
  9
$USRTIMER
 70
     1
  9
$ANGBASE
 50
0.0
  9
$ANGDIR
 70
     0
  9
$PDMODE
 70
     0
  9
$PDSIZE
 40
0.0
  9
$PLINEWID
 40
0.0
  9
$COORDS
 70
     2
  9
$SPLFRAME
 70
     0
  9
$SPLINETYPE
 70
     6
  9
$SPLINESEGS
 70
     8
  9
$ATTDIA
 70
     0
  9
$ATTREQ
 70
     1
  9
$HANDLING
 70
 22529
  9
$HANDSEED
  5
7DE1B343D9E0926
  9
$SURFTAB1
 70
     6
  9
$SURFTAB2
 70
     6
  9
$SURFTYPE
 70
     6
  9
$SURFU
 70
     6
  9
$SURFV
 70
     6
  9
$UCSNAME
  2

  9
$UCSORG
 10
0.0
 20
0.0
 30
0.0
  9
$UCSXDIR
 10
1.0
 20
0.0
 30
0.0
  9
$UCSYDIR
 10
0.0
 20
1.0
 30
0.0
  9
$PUCSNAME
  2

  9
$PUCSORG
 10
0.0
 20
0.0
 30
0.0
  9
$PUCSXDIR
 10
1.0
 20
0.0
 30
0.0
  9
$PUCSYDIR
 10
0.0
 20
1.0
 30
0.0
  9
$USERI1
 70
     0
  9
$USERI2
 70
     0
  9
$USERI3
 70
     0
  9
$USERI4
 70
     0
  9
$USERI5
 70
     0
  9
$USERR1
 40
0.0
  9
$USERR2
 40
0.0
  9
$USERR3
 40
0.0
  9
$USERR4
 40
0.0
  9
$USERR5
 40
0.0
  9
$WORLDVIEW
 70
     1
  9
$SHADEDGE
 70
     3
  9
$SHADEDIF
 70
    70
  9
$TILEMODE
 70
     1
  9
$MAXACTVP
 70
    16
  9
$PINSBASE
 10
0.0
 20
0.0
 30
0.0
  9
$PLIMCHECK
 70
     0
  9
$PEXTMIN
 10
1.000000000000000E+20
 20
1.000000000000000E+20
 30
1.000000000000000E+20
  9
$PEXTMAX
 10
-1.000000000000000E+20
 20
-1.000000000000000E+20
 30
-1.000000000000000E+20
  9
$PLIMMIN
 10
0.0
 20
0.0
  9
$PLIMMAX
 10
12.0
 20
9.0
  9
$UNITMODE
 70
     0
  9
$VISRETAIN
 70
     0
  9
$PLINEGEN
 70
     1
  9
$PSLTSCALE
 70
     0
  9
$TREEDEPTH
 70
  3020
  9
$PICKSTYLE
 70
     1
  9
$CMLSTYLE
  2
STANDARD
  9
$CMLJUST
 70
     0
  9
$CMLSCALE
 40
1.0
  9
$PROXYGRAPHICS
 70
     1
  9
$MEASUREMENT
 70
     0
  0
ENDSEC
  0
SECTION
  2
CLASSES
  0
CLASS
  1
LWPOLYLINE
  2
AcDbPolyline
  3
AutoCAD 2000
 90
        0
280
     0
281
     1
  0
CLASS
  1
ACDBDICTIONARYWDFLT
  2
AcDbDictionaryWithDefault
  3
AutoCAD 2000
 90
        0
280
     0
281
     0
  0
CLASS
  1
ACDBPLACEHOLDER
  2
AcDbPlaceHolder
  3
AutoCAD 2000
 90
        0
280
     0
281
     0
  0
CLASS
  1
LAYOUT
  2
AcDbLayout
  3
AutoCAD 2000
 90
        0
280
     0
281
     0
  0
CLASS
  1
DICTIONARYVAR
  2
AcDbDictionaryVar
  3
AutoCAD 2000
 90
        0
280
     0
281
     0
  0
CLASS
  1
LONG_TRANSACTION
  2
AcDbLongTransaction
  3
AutoCAD 2000
 90
        0
280
     0
281
     0
  0
CLASS
  1
LWPOLYLINE
  2
AcDbPolyline
  3
AutoCAD 2000
 90
        0
280
     0
281
     1
  0
CLASS
  1
HATCH
  2
AcDbHatch
  3
AutoCAD 2000
 90
        0
280
     0
281
     1
  0
CLASS
  1
XRECORD
  2
AcDbXrecord
  3
AutoCAD 2000
 90
        0
280
     0
281
     0
  0
ENDSEC
  0
SECTION
  2
TABLES
  0
TABLE
  2
VPORT
  5
7DE1B343D9E08CD
330
0
100
AcDbSymbolTable
 70
     2
  0
VPORT
  5
7DE1B343D9E0901
330
7DE1B343D9E08CD
100
AcDbSymbolTableRecord
100
AcDbViewportTableRecord
  2
*ACTIVE
 70
     0
 10
0.0
 20
0.0
 11
1.0
 21
1.0
 12
4.121612815354135
 22
1.024108908865727
 13
0.0
 23
0.0
 14
0.015625
 24
0.015625
 15
0.0
 25
0.0
 16
0.0
 26
0.0
 36
1.0
 17
0.0
 27
0.0
 37
0.0
 40
2.28212367972012
 41
4.320930232558139
 42
50.0
 43
0.0
 44
0.0
 50
0.0
 51
0.0
 71
     0
 72
  2000
 73
     1
 74
     0
 75
     0
 76
     0
 77
     0
 78
     0
  0
ENDTAB
  0
TABLE
  2
LTYPE
  5
7DE1B343D9E08CA
330
0
100
AcDbSymbolTable
 70
     1
  0
LTYPE
  5
7DE1B343D9E08D7
330
7DE1B343D9E08CA
100
AcDbSymbolTableRecord
100
AcDbLinetypeTableRecord
  2
BYBLOCK
 70
     0
  3

 72
    65
 73
     0
 40
0.0
  0
LTYPE
  5
7DE1B343D9E08D8
330
7DE1B343D9E08CA
100
AcDbSymbolTableRecord
100
AcDbLinetypeTableRecord
  2
BYLAYER
 70
     0
  3

 72
    65
 73
     0
 40
0.0
  0
LTYPE
  5
7DE1B343D9E08D9
330
7DE1B343D9E08CA
100
AcDbSymbolTableRecord
100
AcDbLinetypeTableRecord
  2
CONTINUOUS
 70
     0
  3
Solid line
 72
    65
 73
     0
 40
0.0
  0
ENDTAB
  0
TABLE
  2
LAYER
  5
7DE1B343D9E08C7
330
0
100
AcDbSymbolTable
 70
     2
  0
LAYER
  5
7DE1B343D9E08D4
330
7DE1B343D9E08C7
100
AcDbSymbolTableRecord
100
AcDbLayerTableRecord
  2
0
 70
     0
 62
     7
  6
CONTINUOUS
  0
LAYER
  5
7DE1B343D9E08E4
330
7DE1B343D9E08C7
100
AcDbSymbolTableRecord
100
AcDbLayerTableRecord
  2
TEXT
 70
     0
 62
     3
  6
CONTINUOUS
  0
ENDTAB
  0
TABLE
  2
STYLE
  5
7DE1B343D9E08C8
330
0
100
AcDbSymbolTable
 70
     3
  0
STYLE
  5
7DE1B343D9E08D5
330
7DE1B343D9E08C8
100
AcDbSymbolTableRecord
100
AcDbTextStyleTableRecord
  2
STANDARD
 70
     0
 40
0.0
 41
1.0
 50
0.0
 71
     0
 42
0.3125
  3
txt
  4

  0
STYLE
  5
7DE1B343D9E08E1
330
7DE1B343D9E08C8
100
AcDbSymbolTableRecord
100
AcDbTextStyleTableRecord
  2
ITALICC
 70
     0
 40
0.0
 41
1.0
 50
0.0
 71
     0
 42
0.125
  3
italicc
  4

  0
STYLE
  5
7DE1B343D9E08F1
330
7DE1B343D9E08C8
100
AcDbSymbolTableRecord
100
AcDbTextStyleTableRecord
  2
ROMANS
 70
     0
 40
0.0
 41
1.0
 50
0.0
 71
     0
 42
0.125
  3
romans.shx
  4

  0
ENDTAB
  0
TABLE
  2
VIEW
  5
7DE1B343D9E08CB
330
0
100
AcDbSymbolTable
 70
     0
  0
ENDTAB
  0
TABLE
  2
UCS
  5
7DE1B343D9E08CC
330
0
100
AcDbSymbolTable
 70
     0
  0
ENDTAB
  0
TABLE
  2
APPID
  5
7DE1B343D9E08CE
330
0
100
AcDbSymbolTable
 70
     1
  0
APPID
  5
7DE1B343D9E08D6
330
7DE1B343D9E08CE
100
AcDbSymbolTableRecord
100
AcDbRegAppTableRecord
  2
ACAD
 70
     0
  0
ENDTAB
  0
TABLE
  2
DIMSTYLE
  5
7DE1B343D9E08CF
330
0
100
AcDbSymbolTable
 70
     1
  0
DIMSTYLE
105
7DE1B343D9E08E9
330
7DE1B343D9E08CF
100
AcDbSymbolTableRecord
100
AcDbDimStyleTableRecord
  2
STANDARD
 70
     0
  3

  4

  5

  6

  7

 40
1.0
 41
0.125
 42
0.125
 43
0.375
 44
0.125
 45
0.0
 46
0.0
 47
0.0
 48
0.0
140
0.125
141
-0.125
142
0.0
143
25.4
144
1.0
145
0.0
146
1.0
147
0.09
 71
     0
 72
     0
 73
     1
 74
     1
 75
     0
 76
     0
 77
     0
 78
     4
170
     0
171
     2
172
     0
173
     0
174
     1
175
     0
176
     0
177
     0
178
     0
270
     2
271
     3
272
     3
273
     2
274
     2
340
7DE1B343D9E08F1
275
     0
280
     0
281
     0
282
     0
283
     1
284
     4
285
     0
286
     0
287
     3
288
     0
  0
ENDTAB
  0
TABLE
  2
BLOCK_RECORD
  5
7DE1B343D9E08C6
330
0
100
AcDbSymbolTable
 70
     0
  0
BLOCK_RECORD
  5
7DE1B343D9E08DD
102
{ACAD_XDICTIONARY
360
7DE1B343D9E0924
102
}
330
7DE1B343D9E08C6
100
AcDbSymbolTableRecord
100
AcDbBlockTableRecord
  2
*MODEL_SPACE
  0
BLOCK_RECORD
  5
7DE1B343D9E08DA
102
{ACAD_XDICTIONARY
360
7DE1B343D9E0922
102
}
330
7DE1B343D9E08C6
100
AcDbSymbolTableRecord
100
AcDbBlockTableRecord
  2
*PAPER_SPACE
  0
ENDTAB
  0
ENDSEC
  0
SECTION
  2
BLOCKS
  0
BLOCK
  5
7DE1B343D9E08E7
330
7DE1B343D9E08DD
100
AcDbEntity
  8
0
100
AcDbBlockBegin
  2
*MODEL_SPACE
 70
     0
 10
0.0
 20
0.0
 30
0.0
  3
*MODEL_SPACE
  1

  0
ENDBLK
  5
7DE1B343D9E08E8
330
7DE1B343D9E08DD
100
AcDbEntity
  8
0
100
AcDbBlockEnd
  0
BLOCK
  5
7DE1B343D9E08E5
330
7DE1B343D9E08DA
100
AcDbEntity
 67
     1
  8
0
100
AcDbBlockBegin
  2
*PAPER_SPACE
 70
     0
 10
0.0
 20
0.0
 30
0.0
  3
*PAPER_SPACE
  1

  0
ENDBLK
  5
7DE1B343D9E08E6
330
7DE1B343D9E08DA
100
AcDbEntity
 67
     1
  8
0
100
AcDbBlockEnd
  0
ENDSEC
  0
SECTION
  2
ENTITIES
  0
LWPOLYLINE
  5
7DE1B343D9DF449
330
7DE1B343D9E08DD
100
AcDbEntity
  8
0
100
AcDbPolyline
 90
       28
 70
     1
 43
0.0
 10
1.396765136652103
 20
1.543019202716739
 10
1.396765136652103
 20
2.011769202716739
 10
1.459265136652103
 20
2.011769202716739
 10
1.459265136652103
 20
1.834269202716739
 10
1.449265136652103
 20
1.824269202716739
 10
1.459265136652103
 20
1.814269202716739
 10
1.459265136652103
 20
0.8867692027167393
 10
1.584015136652103
 20
0.8867692027167393
 10
1.584015136652103
 20
0.7930192027167394
 10
0.7090151366521034
 20
0.7930192027167394
 10
0.7090151366521034
 20
1.168019202716739
 10
0.7340151366521035
 20
1.211320472905961
 10
0.7340151366521035
 20
1.543019202716739
 10
0.7790151366521034
 20
1.543019202716739
 10
0.7790151366521034
 20
1.121144202716739
 10
0.9390151366521035
 20
1.121144202716739
 10
0.9390151366521035
 20
1.199269202716739
 10
1.091515136652103
 20
1.199269202716739
 10
1.091515136652103
 20
1.543019202716739
 10
1.177915136652103
 20
1.543019202716739
 10
1.177915136652103
 20
1.699269202716739
 10
1.146765136652103
 20
1.699269202716739
 10
1.146765136652103
 20
2.011769202716739
 10
1.240515136652103
 20
2.011769202716739
 10
1.240515136652103
 20
1.543019202716739
 10
1.324265136652103
 20
1.543019202716739
 10
1.334265136652103
 20
1.533019202716739
 10
1.344265136652103
 20
1.543019202716739
  0
LWPOLYLINE
  5
7DE1B343D9DF383
330
7DE1B343D9E08DD
100
AcDbEntity
  8
0
100
AcDbPolyline
 90
       15
 70
     1
 43
0.0
 10
1.091515136652103
 20
1.136769202716739
 10
1.052765136652103
 20
1.136769202716739
 10
1.052765136652103
 20
1.034645790453266
 10
1.019907547855696
 20
1.015675452716739
 42
3.732050807568882
 10
1.019907547855695
 20
0.94536295271674
 10
1.052765136652103
 20
0.926392614980212
 10
1.052765136652103
 20
0.8867692027167393
 10
1.396765136652103
 20
0.8867692027167393
 10
1.396765136652103
 20
1.476769202716739
 10
1.342515136652103
 20
1.476769202716739
 10
1.280015136652103
 20
1.414269202716739
 10
1.260015136652103
 20
1.414269202716739
 10
1.260015136652103
 20
1.476769202716739
 10
1.154015136652103
 20
1.476769202716739
 10
1.154015136652103
 20
1.199269202716739
 42
-0.4142135623730956
  0
TEXT
  5
7DE1B343D9E0788
330
7DE1B343D9E08DD
100
AcDbEntity
  8
TEXT
100
AcDbText
 10
0.3935389461759127
 20
0.4944402198465374
 30
0.0
 40
0.125
  1
PART #120030
  7
ITALICC
 72
     1
 11
1.146515136652103
 21
0.4944402198465374
 31
0.0
100
AcDbText
  0
TEXT
  5
7DE1B343D9E0789
330
7DE1B343D9E08DD
100
AcDbEntity
  8
TEXT
100
AcDbText
 10
1.559820294902424
 20
0.0475175771741623
 30
0.0
 40
0.0522247191011236
  1
Phone  1-800-328-2495
 41
1.272321428571429
 72
     5
 11
2.888752879172087
 21
0.0475175771741623
 31
0.0
100
AcDbText
  0
TEXT
  5
7DE1B343D9E078A
330
7DE1B343D9E08DD
100
AcDbEntity
  8
TEXT
100
AcDbText
 10
1.559820294902424
 20
0.3272928580730388
 30
0.0
 40
0.0522247191011236
  1
Stylmark  Incorporated
 41
1.221428571428573
 72
     5
 11
2.888752879172087
 21
0.3272928580730388
 31
0.0
100
AcDbText
  0
TEXT
  5
7DE1B343D9E078B
330
7DE1B343D9E08DD
100
AcDbEntity
  8
TEXT
100
AcDbText
 10
1.559820294902424
 20
0.2340344311067466
 30
0.0
 40
0.0522247191011236
  1
6536 Main St. N.E. * P.O. Box 32008
 41
0.8388932496075366
 72
     5
 11
2.888752879172087
 21
0.2340344311067466
 31
0.0
100
AcDbText
  0
TEXT
  5
7DE1B343D9E078C
330
7DE1B343D9E08DD
100
AcDbEntity
  8
TEXT
100
AcDbText
 10
1.559820294902424
 20
0.1407760041404544
 30
0.0
 40
0.0522247191011236
  1
Minneapolis, MN 55432-0008
 41
1.11444212721585
 72
     5
 11
2.888752879172087
 21
0.1407760041404544
 31
0.0
100
AcDbText
  0
LWPOLYLINE
  5
7DE1B343D9E078D
330
7DE1B343D9E08DD
100
AcDbEntity
  8
TEXT
100
AcDbPolyline
 90
        3
 70
     0
 43
0.0006660908203125
 10
-0.5961333971648837
 20
0.1611623398115971
 10
-0.5961333971648837
 20
0.0479269003584695
 10
-0.4828979577117614
 20
0.0479269003584695
  0
LWPOLYLINE
  5
7DE1B343D9E0792
330
7DE1B343D9E08DD
100
AcDbEntity
  8
TEXT
100
AcDbPolyline
 90
        3
 70
     0
 43
0.0006660908203125
 10
-0.5694897643523862
 20
0.1611623398115971
 10
-0.5694897643523862
 20
0.0745705331709705
 10
-0.4828979577117614
 20
0.0745705331709705
  0
LWPOLYLINE
  5
7DE1B343D9E0797
330
7DE1B343D9E08DD
100
AcDbEntity
  8
TEXT
100
AcDbPolyline
 90
        2
 70
     0
 43
0.0001332181640625
 10
-0.5228634069305094
 20
0.1711537021162823
 10
-0.5961333971648837
 20
0.1611623398115971
  0
LWPOLYLINE
  5
7DE1B343D9E079B
330
7DE1B343D9E08DD
100
AcDbEntity
  8
TEXT
100
AcDbPolyline
 90
        2
 70
     0
 43
0.0001332181640625
 10
-0.5694897643523862
 20
0.1611623398115971
 10
-0.5095415905242589
 20
0.1711537021162823
  0
LWPOLYLINE
  5
7DE1B343D9E079F
330
7DE1B343D9E08DD
100
AcDbEntity
  8
TEXT
100
AcDbPolyline
 90
        2
 70
     0
 43
0.0001332181640625
 10
-0.5694897643523862
 20
0.0745705331709705
 10
-0.5095415905242589
 20
0.1345187069990961
  0
LWPOLYLINE
  5
7DE1B343D9E07A3
330
7DE1B343D9E08DD
100
AcDbEntity
  8
TEXT
100
AcDbPolyline
 90
        3
 70
     0
 43
0.0006660908203125
 10
-0.4828979577117614
 20
0.3143632284834728
 10
-0.5961333971648837
 20
0.3143632284834728
 10
-0.5961333971648837
 20
0.2011277890303451
  0
LWPOLYLINE
  5
7DE1B343D9E07A8
330
7DE1B343D9E08DD
100
AcDbEntity
  8
TEXT
100
AcDbPolyline
 90
        3
 70
     0
 43
0.0006660908203125
 10
-0.4828979577117614
 20
0.2877195956709717
 10
-0.5694897643523862
 20
0.2877195956709717
 10
-0.5694897643523862
 20
0.2011277890303451
  0
LWPOLYLINE
  5
7DE1B343D9E07AD
330
7DE1B343D9E08DD
100
AcDbEntity
  8
TEXT
100
AcDbPolyline
 90
        2
 70
     0
 43
0.0001332181640625
 10
-0.5694897643523862
 20
0.2877195956709717
 10
-0.5095415905242607
 20
0.2277714218428462
  0
LWPOLYLINE
  5
7DE1B343D9E07B1
330
7DE1B343D9E08DD
100
AcDbEntity
  8
TEXT
100
AcDbPolyline
 90
        2
 70
     0
 43
0.0001332181640625
 10
-0.5694897643523862
 20
0.2011277890303451
 10
-0.5095415905242607
 20
0.1911364267256563
  0
LWPOLYLINE
  5
7DE1B343D9E07B5
330
7DE1B343D9E08DD
100
AcDbEntity
  8
TEXT
100
AcDbPolyline
 90
        2
 70
     0
 43
0.0001332181640625
 10
-0.5961333971648837
 20
0.2011277890303451
 10
-0.5228634069305094
 20
0.1911364267256563
  0
LWPOLYLINE
  5
7DE1B343D9E07B9
330
7DE1B343D9E08DD
100
AcDbEntity
  8
TEXT
100
AcDbPolyline
 90
        2
 70
     0
 43
0.0006660908203125
 10
-0.5694897643523862
 20
0.1611623398115971
 10
-0.5961333971648837
 20
0.1611623398115971
  0
LWPOLYLINE
  5
7DE1B343D9E07BD
330
7DE1B343D9E08DD
100
AcDbEntity
  8
TEXT
100
AcDbPolyline
 90
        2
 70
     0
 43
0.0006660908203125
 10
-0.5694897643523862
 20
0.2011277890303451
 10
-0.5961333971648837
 20
0.2011277890303451
  0
LINE
  5
7DE1B343D9E07C1
330
7DE1B343D9E08DD
100
AcDbEntity
  8
TEXT
100
AcDbLine
 10
0.9190570319616139
 20
0.2500865338267038
 30
0.0
 11
0.8118507585743245
 21
0.2500865338267038
 31
0.0
  0
LINE
  5
7DE1B343D9E07C2
330
7DE1B343D9E08DD
100
AcDbEntity
  8
TEXT
100
AcDbLine
 10
0.9480879303060923
 20
0.3143632284834692
 30
0.0
 11
0.8132560210890332
 21
0.3143632284834692
 31
0.0
  0
ARC
  5
7DE1B343D9E07C3
330
7DE1B343D9E08DD
100
AcDbEntity
  8
TEXT
100
AcDbCircle
 10
0.8725701174823502
 20
0.1451259792204529
 30
0.0
 40
0.0676855811441166
100
AcDbArc
 50
90.0
 51
153.7768192527749
  0
LWPOLYLINE
  5
7DE1B343D9E07C4
330
7DE1B343D9E08DD
100
AcDbEntity
  8
TEXT
100
AcDbPolyline
 90
        2
 70
     0
 43
0.0
 10
0.8108182631195145
 20
0.0913811404453964
 42
0.2901071551932823
 10
0.85389419598715
 20
0.0478901954949582
 42
5.328517124445801
  0
ARC
  5
7DE1B343D9E07C8
330
7DE1B343D9E08DD
100
AcDbEntity
  8
TEXT
100
AcDbCircle
 10
0.1674387398108643
 20
0.107682586833008
 30
0.0
 40
0.0601160179737537
100
AcDbArc
 50
180.0000000000003
 51
264.0521544866073
  0
LINE
  5
7DE1B343D9E07C9
330
7DE1B343D9E08DD
100
AcDbEntity
  8
TEXT
100
AcDbLine
 10
0.1709540954364122
 20
0.3487511460776074
 30
0.0
 11
0.1109114905924051
 21
0.3487511460776074
 31
0.0
  0
ARC
  5
7DE1B343D9E07CA
330
7DE1B343D9E08DD
100
AcDbEntity
  8
TEXT
100
AcDbCircle
 10
-0.0648202623061063
 20
0.2322757690369674
 30
0.0
 40
0.0820874594465043
100
AcDbArc
 50
90.0
 51
270.0
  0
LWPOLYLINE
  5
7DE1B343D9E07CB
330
7DE1B343D9E08DD
100
AcDbEntity
  8
TEXT
100
AcDbPolyline
 90
        2
 70
     0
 43
0.0001332181640625
 10
-0.4729065954070708
 20
0.2410932382490931
 10
-0.4828979577117614
 20
0.3143632284834728
  0
LWPOLYLINE
  5
7DE1B343D9E07CF
330
7DE1B343D9E08DD
100
AcDbEntity
  8
TEXT
100
AcDbPolyline
 90
        2
 70
     0
 43
0.0001332181640625
 10
-0.4828979577117614
 20
0.2877195956709717
 10
-0.4729065954070708
 20
0.2277714218428462
  0
LWPOLYLINE
  5
7DE1B343D9E07D3
330
7DE1B343D9E08DD
100
AcDbEntity
  8
TEXT
100
AcDbPolyline
 90
        3
 70
     0
 43
0.0006660908203125
 10
-0.3296970690398839
 20
0.2011277890303451
 10
-0.3296970690398839
 20
0.3143632284834728
 10
-0.4429325084930098
 20
0.3143632284834728
  0
LWPOLYLINE
  5
7DE1B343D9E07D8
330
7DE1B343D9E08DD
100
AcDbEntity
  8
TEXT
100
AcDbPolyline
 90
        3
 70
     0
 43
0.0006660908203125
 10
-0.356340701852385
 20
0.2011277890303451
 10
-0.356340701852385
 20
0.2877195956709717
 10
-0.4429325084930098
 20
0.2877195956709717
  0
LWPOLYLINE
  5
7DE1B343D9E07DD
330
7DE1B343D9E08DD
100
AcDbEntity
  8
TEXT
100
AcDbPolyline
 90
        2
 70
     0
 43
0.0001332181640625
 10
-0.356340701852385
 20
0.2877195956709717
 10
-0.4162888756805088
 20
0.2277714218428462
  0
LWPOLYLINE
  5
7DE1B343D9E07E1
330
7DE1B343D9E08DD
100
AcDbEntity
  8
TEXT
100
AcDbPolyline
 90
        2
 70
     0
 43
0.0001332181640625
 10
-0.4429325084930098
 20
0.2877195956709717
 10
-0.4529238707976986
 20
0.2277714218428462
  0
LWPOLYLINE
  5
7DE1B343D9E07E5
330
7DE1B343D9E08DD
100
AcDbEntity
  8
TEXT
100
AcDbPolyline
 90
        2
 70
     0
 43
0.0001332181640625
 10
-0.4429325084930098
 20
0.3143632284834728
 10
-0.4529238707976986
 20
0.2410932382490931
  0
LWPOLYLINE
  5
7DE1B343D9E07E9
330
7DE1B343D9E08DD
100
AcDbEntity
  8
TEXT
100
AcDbPolyline
 90
        2
 70
     0
 43
0.0001332181640625
 10
-0.4029670592742601
 20
0.1911364267256563
 10
-0.3296970690398839
 20
0.2011277890303451
  0
LWPOLYLINE
  5
7DE1B343D9E07ED
330
7DE1B343D9E08DD
100
AcDbEntity
  8
TEXT
100
AcDbPolyline
 90
        2
 70
     0
 43
0.0001332181640625
 10
-0.356340701852385
 20
0.2011277890303451
 10
-0.4162888756805088
 20
0.1911364267256563
  0
LWPOLYLINE
  5
7DE1B343D9E07F1
330
7DE1B343D9E08DD
100
AcDbEntity
  8
TEXT
100
AcDbPolyline
 90
        2
 70
     0
 43
0.0001332181640625
 10
-0.3296970690398839
 20
0.1611623398115971
 10
-0.4029670592742601
 20
0.1711537021162823
  0
LWPOLYLINE
  5
7DE1B343D9E07F5
330
7DE1B343D9E08DD
100
AcDbEntity
  8
TEXT
100
AcDbPolyline
 90
        2
 70
     0
 43
0.0001332181640625
 10
-0.356340701852385
 20
0.1611623398115971
 10
-0.4162888756805088
 20
0.1711537021162823
  0
LWPOLYLINE
  5
7DE1B343D9E07F9
330
7DE1B343D9E08DD
100
AcDbEntity
  8
TEXT
100
AcDbPolyline
 90
        2
 70
     0
 43
0.0001332181640625
 10
-0.356340701852385
 20
0.0745705331709705
 10
-0.4162888756805088
 20
0.1345187069990961
  0
LWPOLYLINE
  5
7DE1B343D9E07FD
330
7DE1B343D9E08DD
100
AcDbEntity
  8
TEXT
100
AcDbPolyline
 90
        3
 70
     0
 43
0.0006660908203125
 10
-0.4429325084930098
 20
0.0745705331709705
 10
-0.356340701852385
 20
0.0745705331709705
 10
-0.356340701852385
 20
0.1611623398115971
  0
LWPOLYLINE
  5
7DE1B343D9E0802
330
7DE1B343D9E08DD
100
AcDbEntity
  8
TEXT
100
AcDbPolyline
 90
        3
 70
     0
 43
0.0006660908203125
 10
-0.4429325084930098
 20
0.0479269003584695
 10
-0.3296970690398839
 20
0.0479269003584695
 10
-0.3296970690398839
 20
0.1611623398115971
  0
LWPOLYLINE
  5
7DE1B343D9E0807
330
7DE1B343D9E08DD
100
AcDbEntity
  8
TEXT
100
AcDbPolyline
 90
        5
 70
     0
 43
0.0001332181640625
 10
-0.4729065954070708
 20
0.1211968905928455
 10
-0.4729065954070708
 20
0.1345187069990961
 10
-0.5095415905242589
 20
0.1345187069990961
 10
-0.5095415905242589
 20
0.1711537021162823
 10
-0.5228634069305094
 20
0.1711537021162823
  0
LWPOLYLINE
  5
7DE1B343D9E080E
330
7DE1B343D9E08DD
100
AcDbEntity
  8
TEXT
100
AcDbPolyline
 90
        2
 70
     0
 43
0.0006660908203125
 10
-0.4828979577117614
 20
0.0745705331709705
 10
-0.4828979577117614
 20
0.0479269003584695
  0
LWPOLYLINE
  5
7DE1B343D9E0812
330
7DE1B343D9E08DD
100
AcDbEntity
  8
TEXT
100
AcDbPolyline
 90
        2
 70
     0
 43
0.0001332181640625
 10
-0.4828979577117614
 20
0.0745705331709705
 10
-0.4729065954070708
 20
0.1345187069990961
  0
LWPOLYLINE
  5
7DE1B343D9E0816
330
7DE1B343D9E08DD
100
AcDbEntity
  8
TEXT
100
AcDbPolyline
 90
        2
 70
     0
 43
0.0001332181640625
 10
-0.4828979577117614
 20
0.0479269003584695
 10
-0.4729065954070708
 20
0.1211968905928455
  0
LWPOLYLINE
  5
7DE1B343D9E081A
330
7DE1B343D9E08DD
100
AcDbEntity
  8
TEXT
100
AcDbPolyline
 90
        5
 70
     0
 43
0.0001332181640625
 10
-0.5228634069305094
 20
0.1911364267256563
 10
-0.5095415905242607
 20
0.1911364267256563
 10
-0.5095415905242607
 20
0.2277714218428462
 10
-0.4729065954070708
 20
0.2277714218428462
 10
-0.4729065954070708
 20
0.2410932382490931
  0
LWPOLYLINE
  5
7DE1B343D9E0821
330
7DE1B343D9E08DD
100
AcDbEntity
  8
TEXT
100
AcDbPolyline
 90
        5
 70
     0
 43
0.0001332181640625
 10
-0.4529238707976986
 20
0.2410932382490931
 10
-0.4529238707976986
 20
0.2277714218428462
 10
-0.4162888756805088
 20
0.2277714218428462
 10
-0.4162888756805088
 20
0.1911364267256563
 10
-0.4029670592742601
 20
0.1911364267256563
  0
LWPOLYLINE
  5
7DE1B343D9E0828
330
7DE1B343D9E08DD
100
AcDbEntity
  8
TEXT
100
AcDbPolyline
 90
        2
 70
     0
 43
0.0001332181640625
 10
-0.4429325084930098
 20
0.0745705331709705
 10
-0.4529238707976986
 20
0.1345187069990961
  0
LWPOLYLINE
  5
7DE1B343D9E082C
330
7DE1B343D9E08DD
100
AcDbEntity
  8
TEXT
100
AcDbPolyline
 90
        2
 70
     0
 43
0.0001332181640625
 10
-0.4529238707976986
 20
0.1211968905928455
 10
-0.4429325084930098
 20
0.0479269003584695
  0
LWPOLYLINE
  5
7DE1B343D9E0830
330
7DE1B343D9E08DD
100
AcDbEntity
  8
TEXT
100
AcDbPolyline
 90
        2
 70
     0
 43
0.0006660908203125
 10
-0.4429325084930098
 20
0.0745705331709705
 10
-0.4429325084930098
 20
0.0479269003584695
  0
LWPOLYLINE
  5
7DE1B343D9E0834
330
7DE1B343D9E08DD
100
AcDbEntity
  8
TEXT
100
AcDbPolyline
 90
        5
 70
     0
 43
0.0001332181640625
 10
-0.4029670592742601
 20
0.1711537021162823
 10
-0.4162888756805088
 20
0.1711537021162823
 10
-0.4162888756805088
 20
0.1345187069990961
 10
-0.4529238707976986
 20
0.1345187069990961
 10
-0.4529238707976986
 20
0.1211968905928455
  0
LWPOLYLINE
  5
7DE1B343D9E083B
330
7DE1B343D9E08DD
100
AcDbEntity
  8
TEXT
100
AcDbPolyline
 90
        2
 70
     0
 43
0.0006660908203125
 10
-0.356340701852385
 20
0.2011277890303451
 10
-0.3296970690398839
 20
0.2011277890303451
  0
LWPOLYLINE
  5
7DE1B343D9E083F
330
7DE1B343D9E08DD
100
AcDbEntity
  8
TEXT
100
AcDbPolyline
 90
        2
 70
     0
 43
0.0006660908203125
 10
-0.356340701852385
 20
0.1611623398115971
 10
-0.3296970690398839
 20
0.1611623398115971
  0
LINE
  5
7DE1B343D9E0843
330
7DE1B343D9E08DD
100
AcDbEntity
  8
TEXT
100
AcDbLine
 10
-0.0595829321918591
 20
0.2500865338267038
 30
0.0
 11
0.1073227218371122
 21
0.2500865338267038
 31
0.0
  0
LINE
  5
7DE1B343D9E0844
330
7DE1B343D9E08DD
100
AcDbEntity
  8
TEXT
100
AcDbLine
 10
0.006017204052442
 20
0.2142818122160759
 30
0.0
 11
-0.0595829321918591
 21
0.2142818122160759
 31
0.0
  0
LINE
  5
7DE1B343D9E0845
330
7DE1B343D9E08DD
100
AcDbEntity
  8
TEXT
100
AcDbLine
 10
-0.1469077217526107
 20
0.0478901954949582
 30
0.0
 11
0.006017204052442
 21
0.0478901954949582
 31
0.0
  0
LINE
  5
7DE1B343D9E0846
330
7DE1B343D9E08DD
100
AcDbEntity
  8
TEXT
100
AcDbLine
 10
0.0109575779587217
 20
0.1162472018283975
 30
0.0
 11
-0.1469077217526125
 21
0.1162472018283975
 31
0.0
  0
LINE
  5
7DE1B343D9E0847
330
7DE1B343D9E08DD
100
AcDbEntity
  8
TEXT
100
AcDbLine
 10
-0.0648202623061072
 20
0.1501883095904621
 30
0.0
 11
0.0109575779587217
 21
0.1501883095904621
 31
0.0
  0
ARC
  5
7DE1B343D9E0848
330
7DE1B343D9E08DD
100
AcDbEntity
  8
TEXT
100
AcDbCircle
 10
-0.0595829321918582
 20
0.2321841730213916
 30
0.0
 40
0.017902360805315
100
AcDbArc
 50
90.0
 51
270.0
  0
LINE
  5
7DE1B343D9E0849
330
7DE1B343D9E08DD
100
AcDbEntity
  8
TEXT
100
AcDbLine
 10
-0.1469077217526125
 20
0.1162472018283975
 30
0.0
 11
-0.1469077217526107
 21
0.0478901954949582
 31
0.0
  0
LINE
  5
7DE1B343D9E084A
330
7DE1B343D9E08DD
100
AcDbEntity
  8
TEXT
100
AcDbLine
 10
0.1073227218371122
 20
0.2500865338267038
 30
0.0
 11
0.1073227218371122
 21
0.107682586833008
 31
0.0
  0
ARC
  5
7DE1B343D9E084B
330
7DE1B343D9E08DD
100
AcDbEntity
  8
TEXT
100
AcDbCircle
 10
0.0060172040524429
 20
0.1310860038555153
 30
0.0
 40
0.0831958083605586
100
AcDbArc
 50
270.0
 51
90.0
  0
ARC
  5
7DE1B343D9E084C
330
7DE1B343D9E08DD
100
AcDbEntity
  8
TEXT
100
AcDbCircle
 10
0.0109575779587226
 20
0.1332177557094316
 30
0.0
 40
0.0169705538810321
100
AcDbArc
 50
270.0
 51
90.0
  0
LWPOLYLINE
  5
7DE1B343D9E084D
330
7DE1B343D9E08DD
100
AcDbEntity
  8
TEXT
100
AcDbPolyline
 90
        2
 70
     0
 43
0.0006660908203125
 10
-0.4828979577117614
 20
0.2877195956709717
 10
-0.4828979577117614
 20
0.3143632284834728
  0
LWPOLYLINE
  5
7DE1B343D9E0851
330
7DE1B343D9E08DD
100
AcDbEntity
  8
TEXT
100
AcDbPolyline
 90
        2
 70
     0
 43
0.0006660908203125
 10
-0.4429325084930098
 20
0.2877195956709717
 10
-0.4429325084930098
 20
0.3143632284834728
  0
LINE
  5
7DE1B343D9E0855
330
7DE1B343D9E08DD
100
AcDbEntity
  8
TEXT
100
AcDbLine
 10
0.1109114905924051
 20
0.3143632284834692
 30
0.0
 11
-0.0648202623061072
 21
0.3143632284834692
 31
0.0
  0
LINE
  5
7DE1B343D9E0856
330
7DE1B343D9E08DD
100
AcDbEntity
  8
TEXT
100
AcDbLine
 10
0.1109114905924051
 20
0.3487511460776074
 30
0.0
 11
0.1109114905924051
 21
0.3143632284834692
 31
0.0
  0
LINE
  5
7DE1B343D9E0857
330
7DE1B343D9E08DD
100
AcDbEntity
  8
TEXT
100
AcDbLine
 10
0.3013833826122574
 20
0.2134912323703486
 30
0.0
 11
0.2427530615803195
 21
0.3143632284834692
 31
0.0
  0
LINE
  5
7DE1B343D9E0858
330
7DE1B343D9E08DD
100
AcDbEntity
  8
TEXT
100
AcDbLine
 10
0.3601319454181229
 20
0.3143632284834692
 30
0.0
 11
0.3013833826122574
 21
0.2134912323703486
 31
0.0
  0
LINE
  5
7DE1B343D9E0859
330
7DE1B343D9E08DD
100
AcDbEntity
  8
TEXT
100
AcDbLine
 10
0.4570625707778642
 20
0.1302780335979574
 30
0.0
 11
0.4570625707778642
 21
0.3823747062222798
 31
0.0
  0
LINE
  5
7DE1B343D9E085A
330
7DE1B343D9E08DD
100
AcDbEntity
  8
TEXT
100
AcDbLine
 10
0.4893744249155243
 20
0.3143632284834692
 30
0.0
 11
0.4893744249155243
 21
0.113499021751061
 31
0.0
  0
LINE
  5
7DE1B343D9E085B
330
7DE1B343D9E08DD
100
AcDbEntity
  8
TEXT
100
AcDbLine
 10
0.4893744249155243
 20
0.113499021751061
 30
0.0
 11
0.472380788030923
 21
0.113499021751061
 31
0.0
  0
LINE
  5
7DE1B343D9E085C
330
7DE1B343D9E08DD
100
AcDbEntity
  8
TEXT
100
AcDbLine
 10
0.458202144274059
 20
0.0478901954949582
 30
0.0
 11
0.5562054779734936
 21
0.0478901954949582
 31
0.0
  0
LINE
  5
7DE1B343D9E085D
330
7DE1B343D9E08DD
100
AcDbEntity
  8
TEXT
100
AcDbLine
 10
0.2917831456153031
 20
0.0678487015999712
 30
0.0
 11
0.3890828517087477
 21
0.2321989125352393
 31
0.0
  0
ARC
  5
7DE1B343D9E085E
330
7DE1B343D9E08DD
100
AcDbEntity
  8
TEXT
100
AcDbCircle
 10
0.2577395857030891
 20
0.087437917768654
 30
0.0
 40
0.0392772371940762
100
AcDbArc
 50
270.1604552698595
 51
330.0831797321295
  0
LINE
  5
7DE1B343D9E085F
330
7DE1B343D9E08DD
100
AcDbEntity
  8
TEXT
100
AcDbLine
 10
0.1612093293172179
 20
0.0478901954949582
 30
0.0
 11
0.2578495803922123
 21
0.0481608345932405
 31
0.0
  0
LWPOLYLINE
  5
7DE1B343D9E0860
330
7DE1B343D9E08DD
100
AcDbEntity
  8
TEXT
100
AcDbPolyline
 90
        6
 70
     1
 43
0.0
 10
0.2037331328923675
 20
0.2500865338267038
 10
0.1734165386721593
 20
0.2500865338267038
 10
0.1734165386721593
 20
0.1269755357718094
 42
0.407328721240804
 10
0.1849601898336357
 20
0.1151566210954233
 10
0.2455818888783665
 20
0.1151566210954233
 10
0.2630472292856845
 20
0.1479688501389025
  0
LINE
  5
7DE1B343D9E0868
330
7DE1B343D9E08DD
100
AcDbEntity
  8
TEXT
100
AcDbLine
 10
0.3890828517087477
 20
0.2321989125352393
 30
0.0
 11
0.3890828517087477
 21
0.099441537709883
 31
0.0
  0
ARC
  5
7DE1B343D9E0869
330
7DE1B343D9E08DD
100
AcDbEntity
  8
TEXT
100
AcDbCircle
 10
0.4723807880309212
 20
0.1288808279944864
 30
0.0
 40
0.0153818062434269
100
AcDbArc
 50
174.7883570302258
 51
270.0
  0
LWPOLYLINE
  5
7DE1B343D9E086A
330
7DE1B343D9E08DD
100
AcDbEntity
  8
TEXT
100
AcDbPolyline
 90
        2
 70
     0
 43
0.0
 10
0.3890828517087459
 20
0.0994415377098865
 42
0.3318488747599744
 10
0.458202144274059
 20
0.0478901954949582
 42
-6.868794160588311
  0
LINE
  5
7DE1B343D9E086E
330
7DE1B343D9E08DD
100
AcDbEntity
  8
TEXT
100
AcDbLine
 10
0.6135945469627547
 20
0.0478901954949582
 30
0.0
 11
0.6806525937445947
 21
0.0478901954949582
 31
0.0
  0
LINE
  5
7DE1B343D9E086F
330
7DE1B343D9E08DD
100
AcDbEntity
  8
TEXT
100
AcDbLine
 10
0.6135945469627547
 20
0.2425327446605938
 30
0.0
 11
0.6135945469627547
 21
0.0478901954949582
 31
0.0
  0
LINE
  5
7DE1B343D9E0870
330
7DE1B343D9E08DD
100
AcDbEntity
  8
TEXT
100
AcDbLine
 10
0.5562054779734936
 20
0.2500865338267038
 30
0.0
 11
0.6060407577966412
 21
0.2500865338267038
 31
0.0
  0
LINE
  5
7DE1B343D9E0871
330
7DE1B343D9E08DD
100
AcDbEntity
  8
TEXT
100
AcDbLine
 10
0.5562054779734936
 20
0.0478901954949582
 30
0.0
 11
0.5562054779734936
 21
0.2500865338267038
 31
0.0
  0
LWPOLYLINE
  5
7DE1B343D9E0872
330
7DE1B343D9E08DD
100
AcDbEntity
  8
TEXT
100
AcDbPolyline
 90
        2
 70
     0
 43
0.0
 10
0.6060407577966394
 20
0.2500865338267038
 42
-0.4142135623731017
 10
0.6135945469627529
 20
0.2425327446605938
 42
-0.9999999999999998
  0
LINE
  5
7DE1B343D9E0876
330
7DE1B343D9E08DD
100
AcDbEntity
  8
TEXT
100
AcDbLine
 10
0.8118507585743245
 20
0.2500865338267038
 30
0.0
 11
0.8118507585743245
 21
0.1750341277524972
 31
0.0
  0
LINE
  5
7DE1B343D9E0877
330
7DE1B343D9E08DD
100
AcDbEntity
  8
TEXT
100
AcDbLine
 10
0.6806525937445947
 20
0.2500865338267038
 30
0.0
 11
0.7347861906655449
 21
0.2500865338267038
 31
0.0
  0
LINE
  5
7DE1B343D9E0878
330
7DE1B343D9E08DD
100
AcDbEntity
  8
TEXT
100
AcDbLine
 10
0.6806525937445947
 20
0.0478901954949582
 30
0.0
 11
0.6806525937445947
 21
0.2500865338267038
 31
0.0
  0
LWPOLYLINE
  5
7DE1B343D9E0879
330
7DE1B343D9E08DD
100
AcDbEntity
  8
TEXT
100
AcDbPolyline
 90
        2
 70
     0
 43
0.0
 10
0.7347861906655431
 20
0.2500865338267038
 42
-0.4142135623731017
 10
0.7423399798316566
 20
0.2425327446605938
 42
-0.9999999999999998
  0
LWPOLYLINE
  5
7DE1B343D9E087D
330
7DE1B343D9E08DD
100
AcDbEntity
  8
TEXT
100
AcDbPolyline
 90
        4
 70
     0
 43
0.0
 10
0.7423399798316566
 20
0.2425327446605938
 10
0.7423399798316566
 20
0.0478901954949582
 10
0.8108182631195145
 20
0.0478901954949582
 10
0.8108182631195145
 20
0.0913811404453964
 42
-1.714843617202739
  0
LINE
  5
7DE1B343D9E0883
330
7DE1B343D9E08DD
100
AcDbEntity
  8
TEXT
100
AcDbLine
 10
0.1709540954364122
 20
0.3143632284834692
 30
0.0
 11
0.1709540954364122
 21
0.3487511460776074
 31
0.0
  0
LINE
  5
7DE1B343D9E0884
330
7DE1B343D9E08DD
100
AcDbEntity
  8
TEXT
100
AcDbLine
 10
0.2427530615803195
 20
0.3143632284834692
 30
0.0
 11
0.1709540954364122
 21
0.3143632284834692
 31
0.0
  0
LINE
  5
7DE1B343D9E0885
330
7DE1B343D9E08DD
100
AcDbEntity
  8
TEXT
100
AcDbLine
 10
0.3902538582114992
 20
0.3143632284834692
 30
0.0
 11
0.3601319454181229
 21
0.3143632284834692
 31
0.0
  0
LINE
  5
7DE1B343D9E0886
330
7DE1B343D9E08DD
100
AcDbEntity
  8
TEXT
100
AcDbLine
 10
0.3902538582114992
 20
0.3823747062222798
 30
0.0
 11
0.3902538582114992
 21
0.3143632284834692
 31
0.0
  0
LINE
  5
7DE1B343D9E0887
330
7DE1B343D9E08DD
100
AcDbEntity
  8
TEXT
100
AcDbLine
 10
0.4570625707778642
 20
0.3823747062222798
 30
0.0
 11
0.3902538582114992
 21
0.3823747062222798
 31
0.0
  0
LWPOLYLINE
  5
7DE1B343D9E0888
330
7DE1B343D9E08DD
100
AcDbEntity
  8
TEXT
100
AcDbPolyline
 90
        3
 70
     0
 43
0.0
 10
0.7774743303758665
 20
0.3143632284834728
 10
0.6591741715598221
 20
0.3143632284834728
 10
0.6591741715598221
 20
0.2871957317225768
 42
-1.960274751411753
  0
LINE
  5
7DE1B343D9E088D
330
7DE1B343D9E08DD
100
AcDbEntity
  8
TEXT
100
AcDbLine
 10
0.6233924808466607
 20
0.3143632284834692
 30
0.0
 11
0.4893744249155243
 21
0.3143632284834692
 31
0.0
  0
LWPOLYLINE
  5
7DE1B343D9E088E
330
7DE1B343D9E08DD
100
AcDbEntity
  8
TEXT
100
AcDbPolyline
 90
        2
 70
     0
 43
0.0
 10
0.6233924808466607
 20
0.3143632284834728
 42
-0.3328679258950098
 10
0.6591741715598221
 20
0.2871957317225768
 42
6.772930709997214
  0
LINE
  5
7DE1B343D9E0892
330
7DE1B343D9E08DD
100
AcDbEntity
  8
TEXT
100
AcDbLine
 10
0.8132560210890332
 20
0.3143632284834692
 30
0.0
 11
0.8132560210890332
 21
0.2860406827138253
 31
0.0
  0
LWPOLYLINE
  5
7DE1B343D9E0893
330
7DE1B343D9E08DD
100
AcDbEntity
  8
TEXT
100
AcDbPolyline
 90
        2
 70
     0
 43
0.0
 10
0.7774743303758665
 20
0.3143632284834728
 42
-0.3277054968067132
 10
0.8132560210890314
 20
0.2860406827138289
 42
6.667889725900311
  0
LINE
  5
7DE1B343D9E0897
330
7DE1B343D9E08DD
100
AcDbEntity
  8
TEXT
100
AcDbLine
 10
1.027047869181133
 20
0.2091512499300419
 30
0.0
 11
0.9832970979992317
 21
0.2914015259261871
 31
0.0
  0
LINE
  5
7DE1B343D9E0898
330
7DE1B343D9E08DD
100
AcDbEntity
  8
TEXT
100
AcDbLine
 10
1.027047869181133
 20
0.3143632284834692
 30
0.0
 11
1.027047869181133
 21
0.2091512499300419
 31
0.0
  0
LINE
  5
7DE1B343D9E0899
330
7DE1B343D9E08DD
100
AcDbEntity
  8
TEXT
100
AcDbLine
 10
1.254731608119502
 20
0.2384979020719311
 30
0.0
 11
1.254731608119502
 21
0.3798274342510699
 31
0.0
  0
LINE
  5
7DE1B343D9E089A
330
7DE1B343D9E08DD
100
AcDbEntity
  8
TEXT
100
AcDbLine
 10
1.301829766675486
 20
0.3143632284834692
 30
0.0
 11
1.254731608119502
 21
0.2384979020719311
 31
0.0
  0
LINE
  5
7DE1B343D9E089B
330
7DE1B343D9E08DD
100
AcDbEntity
  8
TEXT
100
AcDbLine
 10
1.312264483439409
 20
0.2044699855424956
 30
0.0
 11
1.376821599405114
 21
0.3143632284834692
 31
0.0
  0
LINE
  5
7DE1B343D9E089C
330
7DE1B343D9E08DD
100
AcDbEntity
  8
TEXT
100
AcDbLine
 10
1.190896616896729
 20
0.0478901954949582
 30
0.0
 11
1.255274801215349
 21
0.0478901954949582
 31
0.0
  0
LWPOLYLINE
  5
7DE1B343D9E089D
330
7DE1B343D9E08DD
100
AcDbEntity
  8
TEXT
100
AcDbPolyline
 90
        2
 70
     0
 43
0.0
 10
1.030987546486171
 20
0.0913811404453964
 42
-0.2901071551932486
 10
0.9879116136185267
 20
0.0478901954949582
 42
-5.328517124445184
  0
ARC
  5
7DE1B343D9E08A1
330
7DE1B343D9E08DD
100
AcDbEntity
  8
TEXT
100
AcDbCircle
 10
0.9190570319616121
 20
0.2217271588267065
 30
0.0
 40
0.028359375
100
AcDbArc
 50
25.78218179591245
 51
90.0
  0
LINE
  5
7DE1B343D9E08A2
330
7DE1B343D9E08DD
100
AcDbEntity
  8
TEXT
100
AcDbLine
 10
0.9548581072657352
 20
0.2128115603645715
 30
0.0
 11
0.9445933468521708
 21
0.2340620999372658
 31
0.0
  0
LINE
  5
7DE1B343D9E08A3
330
7DE1B343D9E08DD
100
AcDbEntity
  8
TEXT
100
AcDbLine
 10
0.872570117482352
 20
0.2128115603645715
 30
0.0
 11
0.9548581072657352
 21
0.2128115603645715
 31
0.0
  0
LWPOLYLINE
  5
7DE1B343D9E08A4
330
7DE1B343D9E08DD
100
AcDbEntity
  8
TEXT
100
AcDbPolyline
 90
        4
 70
     1
 43
0.0
 10
0.9677891485486341
 20
0.1508541734789834
 10
0.8791288298887756
 20
0.1508541734789834
 42
0.9999999999999998
 10
0.8791288298887756
 20
0.1084556329751227
 10
0.9677891485486341
 20
0.1084556329751227
 42
1.0
  0
LWPOLYLINE
  5
7DE1B343D9E08AA
330
7DE1B343D9E08DD
100
AcDbEntity
  8
TEXT
100
AcDbPolyline
 90
        2
 70
     0
 43
0.0
 10
0.85389419598715
 20
0.0478901954949582
 10
0.9879116136185267
 20
0.0478901954949582
 42
0.9999999999999998
  0
LINE
  5
7DE1B343D9E08AE
330
7DE1B343D9E08DD
100
AcDbEntity
  8
TEXT
100
AcDbLine
 10
1.114248635604166
 20
0.2500865338267038
 30
0.0
 11
1.190896616896723
 21
0.2500865338267038
 31
0.0
  0
LINE
  5
7DE1B343D9E08AF
330
7DE1B343D9E08DD
100
AcDbEntity
  8
TEXT
100
AcDbLine
 10
1.190896616896723
 20
0.2500865338267038
 30
0.0
 11
1.190896616896729
 21
0.0478901954949582
 31
0.0
  0
ARC
  5
7DE1B343D9E08B0
330
7DE1B343D9E08DD
100
AcDbEntity
  8
TEXT
100
AcDbCircle
 10
1.114248635604164
 20
0.225180658544041
 30
0.0
 40
0.0249058752826653
100
AcDbArc
 50
89.99971217465335
 51
179.9999999999985
  0
LINE
  5
7DE1B343D9E08B1
330
7DE1B343D9E08DD
100
AcDbEntity
  8
TEXT
100
AcDbLine
 10
1.089342760321506
 20
0.0478901954949582
 30
0.0
 11
1.089342760321501
 21
0.2251807009264266
 31
0.0
  0
LWPOLYLINE
  5
7DE1B343D9E08B2
330
7DE1B343D9E08DD
100
AcDbEntity
  8
TEXT
100
AcDbPolyline
 90
        2
 70
     0
 43
0.0
 10
1.030987546486171
 20
0.0478901954949582
 10
1.089342760321505
 20
0.0478901954949582
  0
LWPOLYLINE
  5
7DE1B343D9E08B6
330
7DE1B343D9E08DD
100
AcDbEntity
  8
TEXT
100
AcDbPolyline
 90
        2
 70
     0
 43
0.0
 10
1.030987546486171
 20
0.0913811404453964
 10
1.030987546486171
 20
0.0478901954949582
  0
LINE
  5
7DE1B343D9E08BA
330
7DE1B343D9E08DD
100
AcDbEntity
  8
TEXT
100
AcDbLine
 10
1.40775670680302
 20
0.0478901954949582
 30
0.0
 11
1.312264483439409
 21
0.2044699855424956
 31
0.0
  0
LINE
  5
7DE1B343D9E08BB
330
7DE1B343D9E08DD
100
AcDbEntity
  8
TEXT
100
AcDbLine
 10
1.331178334426814
 20
0.0478901954949582
 30
0.0
 11
1.40775670680302
 21
0.0478901954949582
 31
0.0
  0
LINE
  5
7DE1B343D9E08BC
330
7DE1B343D9E08DD
100
AcDbEntity
  8
TEXT
100
AcDbLine
 10
1.255274801215349
 20
0.1794697639711384
 30
0.0
 11
1.331178334426814
 21
0.0478901954949582
 31
0.0
  0
LINE
  5
7DE1B343D9E08BD
330
7DE1B343D9E08DD
100
AcDbEntity
  8
TEXT
100
AcDbLine
 10
1.255274801215349
 20
0.0478901954949582
 30
0.0
 11
1.255274801215349
 21
0.1794697639711384
 31
0.0
  0
LINE
  5
7DE1B343D9E08BE
330
7DE1B343D9E08DD
100
AcDbEntity
  8
TEXT
100
AcDbLine
 10
1.254731608119502
 20
0.3798274342510699
 30
0.0
 11
1.186416729570229
 21
0.3798274342510699
 31
0.0
  0
ARC
  5
7DE1B343D9E08BF
330
7DE1B343D9E08DD
100
AcDbEntity
  8
TEXT
100
AcDbCircle
 10
0.946060990529023
 20
0.2727796613625668
 30
0.0
 40
0.0416329381542859
100
AcDbArc
 50
26.56974201007528
 51
87.20939649401342
  0
LINE
  5
7DE1B343D9E08C0
330
7DE1B343D9E08DD
100
AcDbEntity
  8
TEXT
100
AcDbLine
 10
1.090944775480634
 20
0.3143632284834692
 30
0.0
 11
1.027047869181133
 21
0.3143632284834692
 31
0.0
  0
LINE
  5
7DE1B343D9E08C1
330
7DE1B343D9E08DD
100
AcDbEntity
  8
TEXT
100
AcDbLine
 10
1.090944775480634
 20
0.2868155786225946
 30
0.0
 11
1.090944775480634
 21
0.3143632284834692
 31
0.0
  0
ARC
  5
7DE1B343D9E08C2
330
7DE1B343D9E08DD
100
AcDbEntity
  8
TEXT
100
AcDbCircle
 10
1.122137592543742
 20
0.2831175012012044
 30
0.0
 40
0.0314112657011332
100
AcDbArc
 50
95.88484768694724
 51
173.2388340632136
  0
LINE
  5
7DE1B343D9E08C3
330
7DE1B343D9E08DD
100
AcDbEntity
  8
TEXT
100
AcDbLine
 10
1.186416729570223
 20
0.3143632284834692
 30
0.0
 11
1.118917011920707
 21
0.3143632284834692
 31
0.0
  0
LINE
  5
7DE1B343D9E08C4
330
7DE1B343D9E08DD
100
AcDbEntity
  8
TEXT
100
AcDbLine
 10
1.186416729570229
 20
0.3798274342510699
 30
0.0
 11
1.186416729570223
 21
0.3143632284834692
 31
0.0
  0
LINE
  5
7DE1B343D9E08C5
330
7DE1B343D9E08DD
100
AcDbEntity
  8
TEXT
100
AcDbLine
 10
1.376821599405114
 20
0.3143632284834692
 30
0.0
 11
1.301829766675488
 21
0.3143632284834692
 31
0.0
  0
ENDSEC
  0
SECTION
  2
OBJECTS
  0
DICTIONARY
  5
7DE1B343D9E08D1
330
0
100
AcDbDictionary
  3
ACAD_GROUP
350
7DE1B343D9E08D2
  3
ACAD_LAYOUT
350
7DE1B343D9E08F7
  3
ACAD_MLINESTYLE
350
7DE1B343D9E08D3
  3
ACAD_PLOTSETTINGS
350
7DE1B343D9E08F8
  3
ACAD_PLOTSTYLENAME
350
7DE1B343D9E08F5
  3
ACDBHEADERROUNDTRIPXREC
350
7DE1B343D9E0902
  3
ACDBVARIABLEDICTIONARY
350
7DE1B343D9E08FF
  0
DICTIONARY
  5
7DE1B343D9E0924
330
7DE1B343D9E08DD
100
AcDbDictionary
280
     1
  3
ACAD_LAYOUTSELFREF
360
7DE1B343D9E0925
  0
DICTIONARY
  5
7DE1B343D9E0922
330
7DE1B343D9E08DA
100
AcDbDictionary
280
     1
  3
ACAD_LAYOUTSELFREF
360
7DE1B343D9E0923
  0
DICTIONARY
  5
7DE1B343D9E08D2
102
{ACAD_REACTORS
330
7DE1B343D9E08D1
102
}
330
7DE1B343D9E08D1
100
AcDbDictionary
  0
DICTIONARY
  5
7DE1B343D9E08F7
102
{ACAD_REACTORS
330
7DE1B343D9E08D1
102
}
330
7DE1B343D9E08D1
100
AcDbDictionary
  0
DICTIONARY
  5
7DE1B343D9E08D3
102
{ACAD_REACTORS
330
7DE1B343D9E08D1
102
}
330
7DE1B343D9E08D1
100
AcDbDictionary
  3
STANDARD
350
7DE1B343D9E08E0
  0
DICTIONARY
  5
7DE1B343D9E08F8
102
{ACAD_REACTORS
330
7DE1B343D9E08D1
102
}
330
7DE1B343D9E08D1
100
AcDbDictionary
  0
ACDBDICTIONARYWDFLT
  5
7DE1B343D9E08F5
102
{ACAD_REACTORS
330
7DE1B343D9E08D1
102
}
330
7DE1B343D9E08D1
100
AcDbDictionary
281
     1
  3
Normal
350
7DE1B343D9E08F6
100
AcDbDictionaryWithDefault
340
7DE1B343D9E08F6
  0
DICTIONARY
  5
7DE1B343D9E0902
102
{ACAD_REACTORS
330
7DE1B343D9E08D1
102
}
330
7DE1B343D9E08D1
100
AcDbDictionary
  3
CEPSNTYPE
350
7DE1B343D9E090C
  3
FINGERPRINTGUID
350
7DE1B343D9E090D
  3
HYPERLINKBASE
350
7DE1B343D9E0905
  3
INSUNITS
350
7DE1B343D9E090B
  3
LAYOUTDICT
350
7DE1B343D9E0907
  3
LWETCUNION
350
7DE1B343D9E090A
  3
PLOTSETDICT
350
7DE1B343D9E0908
  3
PLOTSTYLNAMDICT
350
7DE1B343D9E0909
  3
PSVPSCALE
350
7DE1B343D9E090F
  3
PUCSBASE
350
7DE1B343D9E0912
  3
PUCSORGBACK
350
7DE1B343D9E0918
  3
PUCSORGBOTTOM
350
7DE1B343D9E0914
  3
PUCSORGFRONT
350
7DE1B343D9E0917
  3
PUCSORGLEFT
350
7DE1B343D9E0915
  3
PUCSORGRIGHT
350
7DE1B343D9E0916
  3
PUCSORGTOP
350
7DE1B343D9E0913
  3
PUCSORTHOREF
350
7DE1B343D9E0910
  3
PUCSORTHOVIEW
350
7DE1B343D9E0911
  3
STYLESHEET
350
7DE1B343D9E0906
  3
TSTACKALIGN
350
7DE1B343D9E0903
  3
TSTACKSIZE
350
7DE1B343D9E0904
  3
UCSBASE
350
7DE1B343D9E091B
  3
UCSORGBACK
350
7DE1B343D9E0921
  3
UCSORGBOTTOM
350
7DE1B343D9E091D
  3
UCSORGFRONT
350
7DE1B343D9E0920
  3
UCSORGLEFT
350
7DE1B343D9E091E
  3
UCSORGRIGHT
350
7DE1B343D9E091F
  3
UCSORGTOP
350
7DE1B343D9E091C
  3
UCSORTHOREF
350
7DE1B343D9E0919
  3
UCSORTHOVIEW
350
7DE1B343D9E091A
  3
VERSIONGUID
350
7DE1B343D9E090E
  0
DICTIONARY
  5
7DE1B343D9E08FF
102
{ACAD_REACTORS
330
7DE1B343D9E08D1
102
}
330
7DE1B343D9E08D1
100
AcDbDictionary
  3
DIMASSOC
350
7DE1B343D9E0900
  0
XRECORD
  5
7DE1B343D9E0925
102
{ACAD_REACTORS
330
7DE1B343D9E0924
102
}
330
7DE1B343D9E0924
100
AcDbXrecord
340
7DE1B343D9E08DD
  0
XRECORD
  5
7DE1B343D9E0923
102
{ACAD_REACTORS
330
7DE1B343D9E0922
102
}
330
7DE1B343D9E0922
100
AcDbXrecord
340
7DE1B343D9E08DA
  0
MLINESTYLE
  5
7DE1B343D9E08E0
102
{ACAD_REACTORS
330
7DE1B343D9E08D3
102
}
330
7DE1B343D9E08D3
100
AcDbMlineStyle
  2
STANDARD
 70
     0
  3

 62
     0
 51
90.0
 52
90.0
 71
     2
 49
0.5
 62
   256
  6
BYLAYER
 49
-0.5
 62
   256
  6
BYLAYER
  0
ACDBPLACEHOLDER
  5
7DE1B343D9E08F6
102
{ACAD_REACTORS
330
7DE1B343D9E08F5
102
}
330
7DE1B343D9E08F5
100
AcDbPlaceHolder
280
     0
  0
XRECORD
  5
7DE1B343D9E090C
102
{ACAD_REACTORS
330
7DE1B343D9E0902
102
}
330
7DE1B343D9E0902
100
AcDbXrecord
 90
        0
  0
XRECORD
  5
7DE1B343D9E090D
102
{ACAD_REACTORS
330
7DE1B343D9E0902
102
}
330
7DE1B343D9E0902
100
AcDbXrecord
  1
{4E29F130-8DB9-11D6-88E6-0090279574E7}
  0
XRECORD
  5
7DE1B343D9E0905
102
{ACAD_REACTORS
330
7DE1B343D9E0902
102
}
330
7DE1B343D9E0902
100
AcDbXrecord
  1

  0
XRECORD
  5
7DE1B343D9E090B
102
{ACAD_REACTORS
330
7DE1B343D9E0902
102
}
330
7DE1B343D9E0902
100
AcDbXrecord
 90
        0
  0
XRECORD
  5
7DE1B343D9E0907
102
{ACAD_REACTORS
330
7DE1B343D9E0902
102
}
330
7DE1B343D9E0902
100
AcDbXrecord
340
7DE1B343D9E08F7
  0
XRECORD
  5
7DE1B343D9E090A
102
{ACAD_REACTORS
330
7DE1B343D9E0902
102
}
330
7DE1B343D9E0902
100
AcDbXrecord
 90
    14877
  0
XRECORD
  5
7DE1B343D9E0908
102
{ACAD_REACTORS
330
7DE1B343D9E0902
102
}
330
7DE1B343D9E0902
100
AcDbXrecord
340
7DE1B343D9E08F8
  0
XRECORD
  5
7DE1B343D9E0909
102
{ACAD_REACTORS
330
7DE1B343D9E0902
102
}
330
7DE1B343D9E0902
100
AcDbXrecord
340
7DE1B343D9E08F5
  0
XRECORD
  5
7DE1B343D9E090F
102
{ACAD_REACTORS
330
7DE1B343D9E0902
102
}
330
7DE1B343D9E0902
100
AcDbXrecord
 40
0.0
  0
XRECORD
  5
7DE1B343D9E0912
102
{ACAD_REACTORS
330
7DE1B343D9E0902
102
}
330
7DE1B343D9E0902
100
AcDbXrecord
340
0
  0
XRECORD
  5
7DE1B343D9E0918
102
{ACAD_REACTORS
330
7DE1B343D9E0902
102
}
330
7DE1B343D9E0902
100
AcDbXrecord
 10
0.0
 20
0.0
 30
0.0
  0
XRECORD
  5
7DE1B343D9E0914
102
{ACAD_REACTORS
330
7DE1B343D9E0902
102
}
330
7DE1B343D9E0902
100
AcDbXrecord
 10
0.0
 20
0.0
 30
0.0
  0
XRECORD
  5
7DE1B343D9E0917
102
{ACAD_REACTORS
330
7DE1B343D9E0902
102
}
330
7DE1B343D9E0902
100
AcDbXrecord
 10
0.0
 20
0.0
 30
0.0
  0
XRECORD
  5
7DE1B343D9E0915
102
{ACAD_REACTORS
330
7DE1B343D9E0902
102
}
330
7DE1B343D9E0902
100
AcDbXrecord
 10
0.0
 20
0.0
 30
0.0
  0
XRECORD
  5
7DE1B343D9E0916
102
{ACAD_REACTORS
330
7DE1B343D9E0902
102
}
330
7DE1B343D9E0902
100
AcDbXrecord
 10
0.0
 20
0.0
 30
0.0
  0
XRECORD
  5
7DE1B343D9E0913
102
{ACAD_REACTORS
330
7DE1B343D9E0902
102
}
330
7DE1B343D9E0902
100
AcDbXrecord
 10
0.0
 20
0.0
 30
0.0
  0
XRECORD
  5
7DE1B343D9E0910
102
{ACAD_REACTORS
330
7DE1B343D9E0902
102
}
330
7DE1B343D9E0902
100
AcDbXrecord
340
0
  0
XRECORD
  5
7DE1B343D9E0911
102
{ACAD_REACTORS
330
7DE1B343D9E0902
102
}
330
7DE1B343D9E0902
100
AcDbXrecord
 70
     0
  0
XRECORD
  5
7DE1B343D9E0906
102
{ACAD_REACTORS
330
7DE1B343D9E0902
102
}
330
7DE1B343D9E0902
100
AcDbXrecord
  1

  0
XRECORD
  5
7DE1B343D9E0903
102
{ACAD_REACTORS
330
7DE1B343D9E0902
102
}
330
7DE1B343D9E0902
100
AcDbXrecord
 90
        1
  0
XRECORD
  5
7DE1B343D9E0904
102
{ACAD_REACTORS
330
7DE1B343D9E0902
102
}
330
7DE1B343D9E0902
100
AcDbXrecord
 90
       70
  0
XRECORD
  5
7DE1B343D9E091B
102
{ACAD_REACTORS
330
7DE1B343D9E0902
102
}
330
7DE1B343D9E0902
100
AcDbXrecord
340
0
  0
XRECORD
  5
7DE1B343D9E0921
102
{ACAD_REACTORS
330
7DE1B343D9E0902
102
}
330
7DE1B343D9E0902
100
AcDbXrecord
 10
0.0
 20
0.0
 30
0.0
  0
XRECORD
  5
7DE1B343D9E091D
102
{ACAD_REACTORS
330
7DE1B343D9E0902
102
}
330
7DE1B343D9E0902
100
AcDbXrecord
 10
0.0
 20
0.0
 30
0.0
  0
XRECORD
  5
7DE1B343D9E0920
102
{ACAD_REACTORS
330
7DE1B343D9E0902
102
}
330
7DE1B343D9E0902
100
AcDbXrecord
 10
0.0
 20
0.0
 30
0.0
  0
XRECORD
  5
7DE1B343D9E091E
102
{ACAD_REACTORS
330
7DE1B343D9E0902
102
}
330
7DE1B343D9E0902
100
AcDbXrecord
 10
0.0
 20
0.0
 30
0.0
  0
XRECORD
  5
7DE1B343D9E091F
102
{ACAD_REACTORS
330
7DE1B343D9E0902
102
}
330
7DE1B343D9E0902
100
AcDbXrecord
 10
0.0
 20
0.0
 30
0.0
  0
XRECORD
  5
7DE1B343D9E091C
102
{ACAD_REACTORS
330
7DE1B343D9E0902
102
}
330
7DE1B343D9E0902
100
AcDbXrecord
 10
0.0
 20
0.0
 30
0.0
  0
XRECORD
  5
7DE1B343D9E0919
102
{ACAD_REACTORS
330
7DE1B343D9E0902
102
}
330
7DE1B343D9E0902
100
AcDbXrecord
340
0
  0
XRECORD
  5
7DE1B343D9E091A
102
{ACAD_REACTORS
330
7DE1B343D9E0902
102
}
330
7DE1B343D9E0902
100
AcDbXrecord
 70
     0
  0
XRECORD
  5
7DE1B343D9E090E
102
{ACAD_REACTORS
330
7DE1B343D9E0902
102
}
330
7DE1B343D9E0902
100
AcDbXrecord
  1
{4E29F132-8DB9-11D6-88E6-0090279574E7}
  0
DICTIONARYVAR
  5
7DE1B343D9E0900
102
{ACAD_REACTORS
330
7DE1B343D9E08FF
102
}
330
7DE1B343D9E08FF
100
DictionaryVariables
280
     0
  1
1
  0
ENDSEC
  0
EOF
