  0
SECTION
  2
HEADER
  9
$ACADVER
  1
AC1014
  9
$ACADMAINTVER
 70
     9
  9
$DWGCODEPAGE
  3
ANSI_1252
  9
$INSBASE
 10
1.56177179641691
 20
1.074114057951173
 30
0.0
  9
$EXTMIN
 10
-0.1812097828102324
 20
0.3053295755045554
 30
0.0
  9
$EXTMAX
 10
3.304009538936895
 20
2.292864057951173
 30
0.0
  9
$LIMMIN
 10
0.0
 20
0.0
  9
$LIMMAX
 10
18.0
 20
12.0
  9
$ORTHOMODE
 70
     1
  9
$REGENMODE
 70
     1
  9
$FILLMODE
 70
     1
  9
$QTEXTMODE
 70
     0
  9
$MIRRTEXT
 70
     0
  9
$DRAGMODE
 70
     2
  9
$LTSCALE
 40
1.0
  9
$OSMODE
 70
    39
  9
$ATTMODE
 70
     1
  9
$TEXTSIZE
 40
0.125
  9
$TRACEWID
 40
0.05
  9
$TEXTSTYLE
  7
ROMANS
  9
$CLAYER
  8
0
  9
$CELTYPE
  6
BYLAYER
  9
$CECOLOR
 62
   256
  9
$CELTSCALE
 40
1.0
  9
$DELOBJ
 70
     1
  9
$DISPSILH
 70
     1
  9
$DIMSCALE
 40
1.0
  9
$DIMASZ
 40
0.125
  9
$DIMEXO
 40
0.125
  9
$DIMDLI
 40
0.375
  9
$DIMRND
 40
0.0
  9
$DIMDLE
 40
0.0
  9
$DIMEXE
 40
0.125
  9
$DIMTP
 40
0.0
  9
$DIMTM
 40
0.0
  9
$DIMTXT
 40
0.125
  9
$DIMCEN
 40
-0.125
  9
$DIMTSZ
 40
0.0
  9
$DIMTOL
 70
     0
  9
$DIMLIM
 70
     0
  9
$DIMTIH
 70
     1
  9
$DIMTOH
 70
     1
  9
$DIMSE1
 70
     0
  9
$DIMSE2
 70
     0
  9
$DIMTAD
 70
     0
  9
$DIMZIN
 70
     4
  9
$DIMBLK
  1

  9
$DIMASO
 70
     1
  9
$DIMSHO
 70
     1
  9
$DIMPOST
  1

  9
$DIMAPOST
  1

  9
$DIMALT
 70
     0
  9
$DIMALTD
 70
     2
  9
$DIMALTF
 40
25.4
  9
$DIMLFAC
 40
1.0
  9
$DIMTOFL
 70
     0
  9
$DIMTVP
 40
0.0
  9
$DIMTIX
 70
     1
  9
$DIMSOXD
 70
     0
  9
$DIMSAH
 70
     0
  9
$DIMBLK1
  1

  9
$DIMBLK2
  1

  9
$DIMSTYLE
  2
STANDARD
  9
$DIMCLRD
 70
     0
  9
$DIMCLRE
 70
     0
  9
$DIMCLRT
 70
     0
  9
$DIMTFAC
 40
1.0
  9
$DIMGAP
 40
0.09
  9
$DIMJUST
 70
     0
  9
$DIMSD1
 70
     0
  9
$DIMSD2
 70
     0
  9
$DIMTOLJ
 70
     1
  9
$DIMTZIN
 70
     4
  9
$DIMALTZ
 70
     0
  9
$DIMALTTZ
 70
     0
  9
$DIMFIT
 70
     3
  9
$DIMUPT
 70
     0
  9
$DIMUNIT
 70
     2
  9
$DIMDEC
 70
     3
  9
$DIMTDEC
 70
     3
  9
$DIMALTU
 70
     2
  9
$DIMALTTD
 70
     2
  9
$DIMTXSTY
  7
ROMANS
  9
$DIMAUNIT
 70
     0
  9
$LUNITS
 70
     2
  9
$LUPREC
 70
     3
  9
$SKETCHINC
 40
0.1
  9
$FILLETRAD
 40
0.03125
  9
$AUNITS
 70
     0
  9
$AUPREC
 70
     0
  9
$MENU
  1
ACAD
  9
$ELEVATION
 40
0.0
  9
$PELEVATION
 40
0.0
  9
$THICKNESS
 40
0.0
  9
$LIMCHECK
 70
     0
  9
$BLIPMODE
 70
     0
  9
$CHAMFERA
 40
0.0
  9
$CHAMFERB
 40
0.0
  9
$CHAMFERC
 40
0.0
  9
$CHAMFERD
 40
0.0
  9
$SKPOLY
 70
     0
  9
$TDCREATE
 40
2448994.679135879
  9
$TDUPDATE
 40
2452458.321786632
  9
$TDINDWG
 40
0.0004365509
  9
$TDUSRTIMER
 40
0.0004365509
  9
$USRTIMER
 70
     1
  9
$ANGBASE
 50
0.0
  9
$ANGDIR
 70
     0
  9
$PDMODE
 70
     0
  9
$PDSIZE
 40
0.0
  9
$PLINEWID
 40
0.0
  9
$COORDS
 70
     2
  9
$SPLFRAME
 70
     0
  9
$SPLINETYPE
 70
     6
  9
$SPLINESEGS
 70
     8
  9
$ATTDIA
 70
     0
  9
$ATTREQ
 70
     1
  9
$HANDLING
 70
 22529
  9
$HANDSEED
  5
7DE1B343D9E0243
  9
$SURFTAB1
 70
     6
  9
$SURFTAB2
 70
     6
  9
$SURFTYPE
 70
     6
  9
$SURFU
 70
     6
  9
$SURFV
 70
     6
  9
$UCSNAME
  2

  9
$UCSORG
 10
0.0
 20
0.0
 30
0.0
  9
$UCSXDIR
 10
1.0
 20
0.0
 30
0.0
  9
$UCSYDIR
 10
0.0
 20
1.0
 30
0.0
  9
$PUCSNAME
  2

  9
$PUCSORG
 10
0.0
 20
0.0
 30
0.0
  9
$PUCSXDIR
 10
1.0
 20
0.0
 30
0.0
  9
$PUCSYDIR
 10
0.0
 20
1.0
 30
0.0
  9
$USERI1
 70
     0
  9
$USERI2
 70
     0
  9
$USERI3
 70
     0
  9
$USERI4
 70
     0
  9
$USERI5
 70
     0
  9
$USERR1
 40
0.0
  9
$USERR2
 40
0.0
  9
$USERR3
 40
0.0
  9
$USERR4
 40
0.0
  9
$USERR5
 40
0.0
  9
$WORLDVIEW
 70
     1
  9
$SHADEDGE
 70
     3
  9
$SHADEDIF
 70
    70
  9
$TILEMODE
 70
     1
  9
$MAXACTVP
 70
    16
  9
$PINSBASE
 10
0.8865967321238487
 20
50.00000000000001
 30
1.539634145983699
  9
$PLIMCHECK
 70
     0
  9
$PEXTMIN
 10
1.000000000000000E+20
 20
1.000000000000000E+20
 30
1.000000000000000E+20
  9
$PEXTMAX
 10
-1.000000000000000E+20
 20
-1.000000000000000E+20
 30
-1.000000000000000E+20
  9
$PLIMMIN
 10
0.0
 20
0.0
  9
$PLIMMAX
 10
12.0
 20
9.0
  9
$UNITMODE
 70
     0
  9
$VISRETAIN
 70
     0
  9
$PLINEGEN
 70
     1
  9
$PSLTSCALE
 70
     0
  9
$TREEDEPTH
 70
  3020
  9
$PICKSTYLE
 70
     1
  9
$CMLSTYLE
  2
STANDARD
  9
$CMLJUST
 70
     0
  9
$CMLSCALE
 40
1.0
  9
$PROXYGRAPHICS
 70
     1
  9
$MEASUREMENT
 70
     0
  0
ENDSEC
  0
SECTION
  2
CLASSES
  0
CLASS
  1
LWPOLYLINE
  2
AcDbPolyline
  3
AutoCAD 2000
 90
        0
280
     0
281
     1
  0
CLASS
  1
ACDBDICTIONARYWDFLT
  2
AcDbDictionaryWithDefault
  3
AutoCAD 2000
 90
        0
280
     0
281
     0
  0
CLASS
  1
ACDBPLACEHOLDER
  2
AcDbPlaceHolder
  3
AutoCAD 2000
 90
        0
280
     0
281
     0
  0
CLASS
  1
LAYOUT
  2
AcDbLayout
  3
AutoCAD 2000
 90
        0
280
     0
281
     0
  0
CLASS
  1
DICTIONARYVAR
  2
AcDbDictionaryVar
  3
AutoCAD 2000
 90
        0
280
     0
281
     0
  0
CLASS
  1
LONG_TRANSACTION
  2
AcDbLongTransaction
  3
AutoCAD 2000
 90
        0
280
     0
281
     0
  0
CLASS
  1
LWPOLYLINE
  2
AcDbPolyline
  3
AutoCAD 2000
 90
        0
280
     0
281
     1
  0
CLASS
  1
HATCH
  2
AcDbHatch
  3
AutoCAD 2000
 90
        0
280
     0
281
     1
  0
CLASS
  1
XRECORD
  2
AcDbXrecord
  3
AutoCAD 2000
 90
        0
280
     0
281
     0
  0
ENDSEC
  0
SECTION
  2
TABLES
  0
TABLE
  2
VPORT
  5
7DE1B343D9E01EA
330
0
100
AcDbSymbolTable
 70
     2
  0
VPORT
  5
7DE1B343D9E021E
330
7DE1B343D9E01EA
100
AcDbSymbolTableRecord
100
AcDbViewportTableRecord
  2
*ACTIVE
 70
     0
 10
0.0
 20
0.0
 11
1.0
 21
1.0
 12
4.536661366178358
 22
1.298767112310471
 13
0.0
 23
0.0
 14
0.015625
 24
0.015625
 15
0.0
 25
0.0
 16
0.0
 26
0.0
 36
1.0
 17
0.0
 27
0.0
 37
0.0
 40
2.282016901512998
 41
4.320930232558139
 42
50.0
 43
0.0
 44
0.0
 50
0.0
 51
0.0
 71
     0
 72
  2000
 73
     1
 74
     0
 75
     0
 76
     0
 77
     0
 78
     0
  0
ENDTAB
  0
TABLE
  2
LTYPE
  5
7DE1B343D9E01E7
330
0
100
AcDbSymbolTable
 70
     1
  0
LTYPE
  5
7DE1B343D9E01F4
330
7DE1B343D9E01E7
100
AcDbSymbolTableRecord
100
AcDbLinetypeTableRecord
  2
BYBLOCK
 70
     0
  3

 72
    65
 73
     0
 40
0.0
  0
LTYPE
  5
7DE1B343D9E01F5
330
7DE1B343D9E01E7
100
AcDbSymbolTableRecord
100
AcDbLinetypeTableRecord
  2
BYLAYER
 70
     0
  3

 72
    65
 73
     0
 40
0.0
  0
LTYPE
  5
7DE1B343D9E01F6
330
7DE1B343D9E01E7
100
AcDbSymbolTableRecord
100
AcDbLinetypeTableRecord
  2
CONTINUOUS
 70
     0
  3
Solid line
 72
    65
 73
     0
 40
0.0
  0
ENDTAB
  0
TABLE
  2
LAYER
  5
7DE1B343D9E01E4
330
0
100
AcDbSymbolTable
 70
     2
  0
LAYER
  5
7DE1B343D9E01F1
330
7DE1B343D9E01E4
100
AcDbSymbolTableRecord
100
AcDbLayerTableRecord
  2
0
 70
     0
 62
     7
  6
CONTINUOUS
  0
LAYER
  5
7DE1B343D9E0201
330
7DE1B343D9E01E4
100
AcDbSymbolTableRecord
100
AcDbLayerTableRecord
  2
TEXT
 70
     0
 62
     3
  6
CONTINUOUS
  0
ENDTAB
  0
TABLE
  2
STYLE
  5
7DE1B343D9E01E5
330
0
100
AcDbSymbolTable
 70
     3
  0
STYLE
  5
7DE1B343D9E01F2
330
7DE1B343D9E01E5
100
AcDbSymbolTableRecord
100
AcDbTextStyleTableRecord
  2
STANDARD
 70
     0
 40
0.0
 41
1.0
 50
0.0
 71
     0
 42
0.3125
  3
txt
  4

  0
STYLE
  5
7DE1B343D9E01FE
330
7DE1B343D9E01E5
100
AcDbSymbolTableRecord
100
AcDbTextStyleTableRecord
  2
ITALICC
 70
     0
 40
0.0
 41
1.0
 50
0.0
 71
     0
 42
0.125
  3
italicc
  4

  0
STYLE
  5
7DE1B343D9E020E
330
7DE1B343D9E01E5
100
AcDbSymbolTableRecord
100
AcDbTextStyleTableRecord
  2
ROMANS
 70
     0
 40
0.0
 41
1.0
 50
0.0
 71
     0
 42
0.125
  3
romans.shx
  4

  0
ENDTAB
  0
TABLE
  2
VIEW
  5
7DE1B343D9E01E8
330
0
100
AcDbSymbolTable
 70
     0
  0
ENDTAB
  0
TABLE
  2
UCS
  5
7DE1B343D9E01E9
330
0
100
AcDbSymbolTable
 70
     0
  0
ENDTAB
  0
TABLE
  2
APPID
  5
7DE1B343D9E01EB
330
0
100
AcDbSymbolTable
 70
     1
  0
APPID
  5
7DE1B343D9E01F3
330
7DE1B343D9E01EB
100
AcDbSymbolTableRecord
100
AcDbRegAppTableRecord
  2
ACAD
 70
     0
  0
ENDTAB
  0
TABLE
  2
DIMSTYLE
  5
7DE1B343D9E01EC
330
0
100
AcDbSymbolTable
 70
     1
  0
DIMSTYLE
105
7DE1B343D9E0206
330
7DE1B343D9E01EC
100
AcDbSymbolTableRecord
100
AcDbDimStyleTableRecord
  2
STANDARD
 70
     0
  3

  4

  5

  6

  7

 40
1.0
 41
0.125
 42
0.125
 43
0.375
 44
0.125
 45
0.0
 46
0.0
 47
0.0
 48
0.0
140
0.125
141
-0.125
142
0.0
143
25.4
144
1.0
145
0.0
146
1.0
147
0.09
 71
     0
 72
     0
 73
     1
 74
     1
 75
     0
 76
     0
 77
     0
 78
     4
170
     0
171
     2
172
     0
173
     0
174
     1
175
     0
176
     0
177
     0
178
     0
270
     2
271
     3
272
     3
273
     2
274
     2
340
7DE1B343D9E020E
275
     0
280
     0
281
     0
282
     0
283
     1
284
     4
285
     0
286
     0
287
     3
288
     0
  0
ENDTAB
  0
TABLE
  2
BLOCK_RECORD
  5
7DE1B343D9E01E3
330
0
100
AcDbSymbolTable
 70
     0
  0
BLOCK_RECORD
  5
7DE1B343D9E01FA
102
{ACAD_XDICTIONARY
360
7DE1B343D9E0241
102
}
330
7DE1B343D9E01E3
100
AcDbSymbolTableRecord
100
AcDbBlockTableRecord
  2
*MODEL_SPACE
  0
BLOCK_RECORD
  5
7DE1B343D9E01F7
102
{ACAD_XDICTIONARY
360
7DE1B343D9E023F
102
}
330
7DE1B343D9E01E3
100
AcDbSymbolTableRecord
100
AcDbBlockTableRecord
  2
*PAPER_SPACE
  0
ENDTAB
  0
ENDSEC
  0
SECTION
  2
BLOCKS
  0
BLOCK
  5
7DE1B343D9E0204
330
7DE1B343D9E01FA
100
AcDbEntity
  8
0
100
AcDbBlockBegin
  2
*MODEL_SPACE
 70
     0
 10
0.0
 20
0.0
 30
0.0
  3
*MODEL_SPACE
  1

  0
ENDBLK
  5
7DE1B343D9E0205
330
7DE1B343D9E01FA
100
AcDbEntity
  8
0
100
AcDbBlockEnd
  0
BLOCK
  5
7DE1B343D9E0202
330
7DE1B343D9E01F7
100
AcDbEntity
 67
     1
  8
0
100
AcDbBlockBegin
  2
*PAPER_SPACE
 70
     0
 10
0.0
 20
0.0
 30
0.0
  3
*PAPER_SPACE
  1

  0
ENDBLK
  5
7DE1B343D9E0203
330
7DE1B343D9E01F7
100
AcDbEntity
 67
     1
  8
0
100
AcDbBlockEnd
  0
ENDSEC
  0
SECTION
  2
ENTITIES
  0
LWPOLYLINE
  5
7DE1B343D9DEE17
330
7DE1B343D9E01FA
100
AcDbEntity
  8
0
100
AcDbPolyline
 90
       44
 70
     1
 43
0.0
 10
1.59327179641691
 20
1.824114057951174
 10
1.50677179641691
 20
1.824114057951174
 10
1.50677179641691
 20
1.480364057951174
 10
1.19427179641691
 20
1.480364057951174
 10
1.19427179641691
 20
1.824114057951174
 10
1.14927179641691
 20
1.824114057951174
 10
1.14927179641691
 20
1.492415328140396
 10
1.12427179641691
 20
1.449114057951174
 10
1.12427179641691
 20
1.074114057951173
 10
1.99927179641691
 20
1.074114057951173
 10
1.99927179641691
 20
1.167864057951173
 10
1.46802179641691
 20
1.167864057951174
 10
1.46802179641691
 20
1.227864057951173
 10
1.44802179641691
 20
1.227864057951173
 10
1.38802179641691
 20
1.167864057951174
 10
1.21802179641691
 20
1.167864057951173
 42
-0.4142135623730951
 10
1.18677179641691
 20
1.199114057951173
 10
1.18677179641691
 20
1.386614057951174
 42
-0.4142135623730951
 10
1.21802179641691
 20
1.417864057951174
 10
1.50677179641691
 20
1.417864057951174
 42
0.4142135623730951
 10
1.56927179641691
 20
1.480364057951174
 10
1.56927179641691
 20
1.667864057951174
 10
1.59302179641691
 20
1.667864057951174
 10
1.68677179641691
 20
1.761614057951174
 10
1.92114679641691
 20
1.527239057951174
 10
1.96802179641691
 20
1.527239057951174
 10
1.96802179641691
 20
1.568752405599492
 10
1.801833687521268
 20
1.734940514495134
 42
-0.6642031845977274
 10
1.812710144065228
 20
1.761613110277466
 42
0.4109913662407086
 10
1.87452179641691
 20
1.824109319582632
 10
1.87452179641691
 20
2.095364057951174
 10
1.86452179641691
 20
2.105364057951174
 10
1.87452179641691
 20
2.115364057951174
 10
1.87452179641691
 20
2.292864057951173
 10
1.81202179641691
 20
2.292864057951173
 10
1.81202179641691
 20
1.824114057951174
 10
1.75952179641691
 20
1.824114057951174
 10
1.74952179641691
 20
1.814114057951174
 10
1.73952179641691
 20
1.824114057951174
 10
1.65577179641691
 20
1.824114057951174
 10
1.65577179641691
 20
2.292864057951173
 10
1.56202179641691
 20
2.292864057951173
 10
1.56202179641691
 20
1.980364057951174
 10
1.59327179641691
 20
1.980364057951174
  0
TEXT
  5
7DE1B343D9E00A5
330
7DE1B343D9E01FA
100
AcDbEntity
  8
TEXT
100
AcDbText
 10
0.8087956059407206
 20
0.763348179587137
 30
0.0
 40
0.125
  1
PART #120029
  7
ITALICC
 72
     1
 11
1.56177179641691
 21
0.763348179587137
 31
0.0
100
AcDbText
  0
TEXT
  5
7DE1B343D9E00A6
330
7DE1B343D9E01FA
100
AcDbEntity
  8
TEXT
100
AcDbText
 10
1.975076954667231
 20
0.3164255369147618
 30
0.0
 40
0.0522247191011236
  1
Phone  1-800-328-2495
 41
1.272321428571429
 72
     5
 11
3.304009538936895
 21
0.3164255369147618
 31
0.0
100
AcDbText
  0
TEXT
  5
7DE1B343D9E00A7
330
7DE1B343D9E01FA
100
AcDbEntity
  8
TEXT
100
AcDbText
 10
1.975076954667231
 20
0.5962008178136383
 30
0.0
 40
0.0522247191011236
  1
Stylmark  Incorporated
 41
1.221428571428573
 72
     5
 11
3.304009538936895
 21
0.5962008178136383
 31
0.0
100
AcDbText
  0
TEXT
  5
7DE1B343D9E00A8
330
7DE1B343D9E01FA
100
AcDbEntity
  8
TEXT
100
AcDbText
 10
1.975076954667231
 20
0.5029423908473462
 30
0.0
 40
0.0522247191011236
  1
6536 Main St. N.E. * P.O. Box 32008
 41
0.8388932496075366
 72
     5
 11
3.304009538936895
 21
0.5029423908473462
 31
0.0
100
AcDbText
  0
TEXT
  5
7DE1B343D9E00A9
330
7DE1B343D9E01FA
100
AcDbEntity
  8
TEXT
100
AcDbText
 10
1.975076954667231
 20
0.409683963881054
 30
0.0
 40
0.0522247191011236
  1
Minneapolis, MN 55432-0008
 41
1.11444212721585
 72
     5
 11
3.304009538936895
 21
0.409683963881054
 31
0.0
100
AcDbText
  0
LWPOLYLINE
  5
7DE1B343D9E00AA
330
7DE1B343D9E01FA
100
AcDbEntity
  8
TEXT
100
AcDbPolyline
 90
        3
 70
     0
 43
0.0006660908203125
 10
-0.1808767374000762
 20
0.4300702995521967
 10
-0.1808767374000762
 20
0.316834860099069
 10
-0.0676412979469538
 20
0.316834860099069
  0
LWPOLYLINE
  5
7DE1B343D9E00AF
330
7DE1B343D9E01FA
100
AcDbEntity
  8
TEXT
100
AcDbPolyline
 90
        3
 70
     0
 43
0.0006660908203125
 10
-0.1542331045875787
 20
0.4300702995521967
 10
-0.1542331045875787
 20
0.34347849291157
 10
-0.0676412979469538
 20
0.34347849291157
  0
LWPOLYLINE
  5
7DE1B343D9E00B4
330
7DE1B343D9E01FA
100
AcDbEntity
  8
TEXT
100
AcDbPolyline
 90
        2
 70
     0
 43
0.0001332181640625
 10
-0.1076067471657018
 20
0.4400616618568819
 10
-0.1808767374000762
 20
0.4300702995521967
  0
LWPOLYLINE
  5
7DE1B343D9E00B8
330
7DE1B343D9E01FA
100
AcDbEntity
  8
TEXT
100
AcDbPolyline
 90
        2
 70
     0
 43
0.0001332181640625
 10
-0.1542331045875787
 20
0.4300702995521967
 10
-0.0942849307594513
 20
0.4400616618568819
  0
LWPOLYLINE
  5
7DE1B343D9E00BC
330
7DE1B343D9E01FA
100
AcDbEntity
  8
TEXT
100
AcDbPolyline
 90
        2
 70
     0
 43
0.0001332181640625
 10
-0.1542331045875787
 20
0.34347849291157
 10
-0.0942849307594513
 20
0.4034266667396956
  0
LWPOLYLINE
  5
7DE1B343D9E00C0
330
7DE1B343D9E01FA
100
AcDbEntity
  8
TEXT
100
AcDbPolyline
 90
        3
 70
     0
 43
0.0006660908203125
 10
-0.0676412979469538
 20
0.5832711882240723
 10
-0.1808767374000762
 20
0.5832711882240723
 10
-0.1808767374000762
 20
0.4700357487709447
  0
LWPOLYLINE
  5
7DE1B343D9E00C5
330
7DE1B343D9E01FA
100
AcDbEntity
  8
TEXT
100
AcDbPolyline
 90
        3
 70
     0
 43
0.0006660908203125
 10
-0.0676412979469538
 20
0.5566275554115713
 10
-0.1542331045875787
 20
0.5566275554115713
 10
-0.1542331045875787
 20
0.4700357487709447
  0
LWPOLYLINE
  5
7DE1B343D9E00CA
330
7DE1B343D9E01FA
100
AcDbEntity
  8
TEXT
100
AcDbPolyline
 90
        2
 70
     0
 43
0.0001332181640625
 10
-0.1542331045875787
 20
0.5566275554115713
 10
-0.0942849307594531
 20
0.4966793815834457
  0
LWPOLYLINE
  5
7DE1B343D9E00CE
330
7DE1B343D9E01FA
100
AcDbEntity
  8
TEXT
100
AcDbPolyline
 90
        2
 70
     0
 43
0.0001332181640625
 10
-0.1542331045875787
 20
0.4700357487709447
 10
-0.0942849307594531
 20
0.4600443864662559
  0
LWPOLYLINE
  5
7DE1B343D9E00D2
330
7DE1B343D9E01FA
100
AcDbEntity
  8
TEXT
100
AcDbPolyline
 90
        2
 70
     0
 43
0.0001332181640625
 10
-0.1808767374000762
 20
0.4700357487709447
 10
-0.1076067471657018
 20
0.4600443864662559
  0
LWPOLYLINE
  5
7DE1B343D9E00D6
330
7DE1B343D9E01FA
100
AcDbEntity
  8
TEXT
100
AcDbPolyline
 90
        2
 70
     0
 43
0.0006660908203125
 10
-0.1542331045875787
 20
0.4300702995521967
 10
-0.1808767374000762
 20
0.4300702995521967
  0
LWPOLYLINE
  5
7DE1B343D9E00DA
330
7DE1B343D9E01FA
100
AcDbEntity
  8
TEXT
100
AcDbPolyline
 90
        2
 70
     0
 43
0.0006660908203125
 10
-0.1542331045875787
 20
0.4700357487709447
 10
-0.1808767374000762
 20
0.4700357487709447
  0
LINE
  5
7DE1B343D9E00DE
330
7DE1B343D9E01FA
100
AcDbEntity
  8
TEXT
100
AcDbLine
 10
1.334313691726421
 20
0.5189944935673033
 30
0.0
 11
1.227107418339131
 21
0.5189944935673033
 31
0.0
  0
LINE
  5
7DE1B343D9E00DF
330
7DE1B343D9E01FA
100
AcDbEntity
  8
TEXT
100
AcDbLine
 10
1.363344590070899
 20
0.5832711882240688
 30
0.0
 11
1.22851268085384
 21
0.5832711882240688
 31
0.0
  0
ARC
  5
7DE1B343D9E00E0
330
7DE1B343D9E01FA
100
AcDbEntity
  8
TEXT
100
AcDbCircle
 10
1.287826777247157
 20
0.4140339389610525
 30
0.0
 40
0.0676855811441166
100
AcDbArc
 50
90.0
 51
153.7768192527749
  0
LWPOLYLINE
  5
7DE1B343D9E00E1
330
7DE1B343D9E01FA
100
AcDbEntity
  8
TEXT
100
AcDbPolyline
 90
        2
 70
     0
 43
0.0
 10
1.226074922884321
 20
0.3602891001859959
 42
0.2901071551932823
 10
1.269150855751957
 20
0.3167981552355577
 42
5.328517124445801
  0
ARC
  5
7DE1B343D9E00E5
330
7DE1B343D9E01FA
100
AcDbEntity
  8
TEXT
100
AcDbCircle
 10
0.5826953995756719
 20
0.3765905465736075
 30
0.0
 40
0.0601160179737537
100
AcDbArc
 50
180.0000000000003
 51
264.0521544866073
  0
LINE
  5
7DE1B343D9E00E6
330
7DE1B343D9E01FA
100
AcDbEntity
  8
TEXT
100
AcDbLine
 10
0.5862107552012197
 20
0.6176591058182069
 30
0.0
 11
0.5261681503572127
 21
0.6176591058182069
 31
0.0
  0
ARC
  5
7DE1B343D9E00E7
330
7DE1B343D9E01FA
100
AcDbEntity
  8
TEXT
100
AcDbCircle
 10
0.3504363974587012
 20
0.501183728777567
 30
0.0
 40
0.0820874594465043
100
AcDbArc
 50
90.0
 51
270.0
  0
LWPOLYLINE
  5
7DE1B343D9E00E8
330
7DE1B343D9E01FA
100
AcDbEntity
  8
TEXT
100
AcDbPolyline
 90
        2
 70
     0
 43
0.0001332181640625
 10
-0.0576499356422633
 20
0.5100011979896927
 10
-0.0676412979469538
 20
0.5832711882240723
  0
LWPOLYLINE
  5
7DE1B343D9E00EC
330
7DE1B343D9E01FA
100
AcDbEntity
  8
TEXT
100
AcDbPolyline
 90
        2
 70
     0
 43
0.0001332181640625
 10
-0.0676412979469538
 20
0.5566275554115713
 10
-0.0576499356422633
 20
0.4966793815834457
  0
LWPOLYLINE
  5
7DE1B343D9E00F0
330
7DE1B343D9E01FA
100
AcDbEntity
  8
TEXT
100
AcDbPolyline
 90
        3
 70
     0
 43
0.0006660908203125
 10
0.0855595907249236
 20
0.4700357487709447
 10
0.0855595907249236
 20
0.5832711882240723
 10
-0.0276758487282023
 20
0.5832711882240723
  0
LWPOLYLINE
  5
7DE1B343D9E00F5
330
7DE1B343D9E01FA
100
AcDbEntity
  8
TEXT
100
AcDbPolyline
 90
        3
 70
     0
 43
0.0006660908203125
 10
0.0589159579124226
 20
0.4700357487709447
 10
0.0589159579124226
 20
0.5566275554115713
 10
-0.0276758487282023
 20
0.5566275554115713
  0
LWPOLYLINE
  5
7DE1B343D9E00FA
330
7DE1B343D9E01FA
100
AcDbEntity
  8
TEXT
100
AcDbPolyline
 90
        2
 70
     0
 43
0.0001332181640625
 10
0.0589159579124226
 20
0.5566275554115713
 10
-0.0010322159157012
 20
0.4966793815834457
  0
LWPOLYLINE
  5
7DE1B343D9E00FE
330
7DE1B343D9E01FA
100
AcDbEntity
  8
TEXT
100
AcDbPolyline
 90
        2
 70
     0
 43
0.0001332181640625
 10
-0.0276758487282023
 20
0.5566275554115713
 10
-0.0376672110328911
 20
0.4966793815834457
  0
LWPOLYLINE
  5
7DE1B343D9E0102
330
7DE1B343D9E01FA
100
AcDbEntity
  8
TEXT
100
AcDbPolyline
 90
        2
 70
     0
 43
0.0001332181640625
 10
-0.0276758487282023
 20
0.5832711882240723
 10
-0.0376672110328911
 20
0.5100011979896927
  0
LWPOLYLINE
  5
7DE1B343D9E0106
330
7DE1B343D9E01FA
100
AcDbEntity
  8
TEXT
100
AcDbPolyline
 90
        2
 70
     0
 43
0.0001332181640625
 10
0.0122896004905475
 20
0.4600443864662559
 10
0.0855595907249236
 20
0.4700357487709447
  0
LWPOLYLINE
  5
7DE1B343D9E010A
330
7DE1B343D9E01FA
100
AcDbEntity
  8
TEXT
100
AcDbPolyline
 90
        2
 70
     0
 43
0.0001332181640625
 10
0.0589159579124226
 20
0.4700357487709447
 10
-0.0010322159157012
 20
0.4600443864662559
  0
LWPOLYLINE
  5
7DE1B343D9E010E
330
7DE1B343D9E01FA
100
AcDbEntity
  8
TEXT
100
AcDbPolyline
 90
        2
 70
     0
 43
0.0001332181640625
 10
0.0855595907249236
 20
0.4300702995521967
 10
0.0122896004905475
 20
0.4400616618568819
  0
LWPOLYLINE
  5
7DE1B343D9E0112
330
7DE1B343D9E01FA
100
AcDbEntity
  8
TEXT
100
AcDbPolyline
 90
        2
 70
     0
 43
0.0001332181640625
 10
0.0589159579124226
 20
0.4300702995521967
 10
-0.0010322159157012
 20
0.4400616618568819
  0
LWPOLYLINE
  5
7DE1B343D9E0116
330
7DE1B343D9E01FA
100
AcDbEntity
  8
TEXT
100
AcDbPolyline
 90
        2
 70
     0
 43
0.0001332181640625
 10
0.0589159579124226
 20
0.34347849291157
 10
-0.0010322159157012
 20
0.4034266667396956
  0
LWPOLYLINE
  5
7DE1B343D9E011A
330
7DE1B343D9E01FA
100
AcDbEntity
  8
TEXT
100
AcDbPolyline
 90
        3
 70
     0
 43
0.0006660908203125
 10
-0.0276758487282023
 20
0.34347849291157
 10
0.0589159579124226
 20
0.34347849291157
 10
0.0589159579124226
 20
0.4300702995521967
  0
LWPOLYLINE
  5
7DE1B343D9E011F
330
7DE1B343D9E01FA
100
AcDbEntity
  8
TEXT
100
AcDbPolyline
 90
        3
 70
     0
 43
0.0006660908203125
 10
-0.0276758487282023
 20
0.316834860099069
 10
0.0855595907249236
 20
0.316834860099069
 10
0.0855595907249236
 20
0.4300702995521967
  0
LWPOLYLINE
  5
7DE1B343D9E0124
330
7DE1B343D9E01FA
100
AcDbEntity
  8
TEXT
100
AcDbPolyline
 90
        5
 70
     0
 43
0.0001332181640625
 10
-0.0576499356422633
 20
0.3901048503334451
 10
-0.0576499356422633
 20
0.4034266667396956
 10
-0.0942849307594513
 20
0.4034266667396956
 10
-0.0942849307594513
 20
0.4400616618568819
 10
-0.1076067471657018
 20
0.4400616618568819
  0
LWPOLYLINE
  5
7DE1B343D9E012B
330
7DE1B343D9E01FA
100
AcDbEntity
  8
TEXT
100
AcDbPolyline
 90
        2
 70
     0
 43
0.0006660908203125
 10
-0.0676412979469538
 20
0.34347849291157
 10
-0.0676412979469538
 20
0.316834860099069
  0
LWPOLYLINE
  5
7DE1B343D9E012F
330
7DE1B343D9E01FA
100
AcDbEntity
  8
TEXT
100
AcDbPolyline
 90
        2
 70
     0
 43
0.0001332181640625
 10
-0.0676412979469538
 20
0.34347849291157
 10
-0.0576499356422633
 20
0.4034266667396956
  0
LWPOLYLINE
  5
7DE1B343D9E0133
330
7DE1B343D9E01FA
100
AcDbEntity
  8
TEXT
100
AcDbPolyline
 90
        2
 70
     0
 43
0.0001332181640625
 10
-0.0676412979469538
 20
0.316834860099069
 10
-0.0576499356422633
 20
0.3901048503334451
  0
LWPOLYLINE
  5
7DE1B343D9E0137
330
7DE1B343D9E01FA
100
AcDbEntity
  8
TEXT
100
AcDbPolyline
 90
        5
 70
     0
 43
0.0001332181640625
 10
-0.1076067471657018
 20
0.4600443864662559
 10
-0.0942849307594531
 20
0.4600443864662559
 10
-0.0942849307594531
 20
0.4966793815834457
 10
-0.0576499356422633
 20
0.4966793815834457
 10
-0.0576499356422633
 20
0.5100011979896927
  0
LWPOLYLINE
  5
7DE1B343D9E013E
330
7DE1B343D9E01FA
100
AcDbEntity
  8
TEXT
100
AcDbPolyline
 90
        5
 70
     0
 43
0.0001332181640625
 10
-0.0376672110328911
 20
0.5100011979896927
 10
-0.0376672110328911
 20
0.4966793815834457
 10
-0.0010322159157012
 20
0.4966793815834457
 10
-0.0010322159157012
 20
0.4600443864662559
 10
0.0122896004905475
 20
0.4600443864662559
  0
LWPOLYLINE
  5
7DE1B343D9E0145
330
7DE1B343D9E01FA
100
AcDbEntity
  8
TEXT
100
AcDbPolyline
 90
        2
 70
     0
 43
0.0001332181640625
 10
-0.0276758487282023
 20
0.34347849291157
 10
-0.0376672110328911
 20
0.4034266667396956
  0
LWPOLYLINE
  5
7DE1B343D9E0149
330
7DE1B343D9E01FA
100
AcDbEntity
  8
TEXT
100
AcDbPolyline
 90
        2
 70
     0
 43
0.0001332181640625
 10
-0.0376672110328911
 20
0.3901048503334451
 10
-0.0276758487282023
 20
0.316834860099069
  0
LWPOLYLINE
  5
7DE1B343D9E014D
330
7DE1B343D9E01FA
100
AcDbEntity
  8
TEXT
100
AcDbPolyline
 90
        2
 70
     0
 43
0.0006660908203125
 10
-0.0276758487282023
 20
0.34347849291157
 10
-0.0276758487282023
 20
0.316834860099069
  0
LWPOLYLINE
  5
7DE1B343D9E0151
330
7DE1B343D9E01FA
100
AcDbEntity
  8
TEXT
100
AcDbPolyline
 90
        5
 70
     0
 43
0.0001332181640625
 10
0.0122896004905475
 20
0.4400616618568819
 10
-0.0010322159157012
 20
0.4400616618568819
 10
-0.0010322159157012
 20
0.4034266667396956
 10
-0.0376672110328911
 20
0.4034266667396956
 10
-0.0376672110328911
 20
0.3901048503334451
  0
LWPOLYLINE
  5
7DE1B343D9E0158
330
7DE1B343D9E01FA
100
AcDbEntity
  8
TEXT
100
AcDbPolyline
 90
        2
 70
     0
 43
0.0006660908203125
 10
0.0589159579124226
 20
0.4700357487709447
 10
0.0855595907249236
 20
0.4700357487709447
  0
LWPOLYLINE
  5
7DE1B343D9E015C
330
7DE1B343D9E01FA
100
AcDbEntity
  8
TEXT
100
AcDbPolyline
 90
        2
 70
     0
 43
0.0006660908203125
 10
0.0589159579124226
 20
0.4300702995521967
 10
0.0855595907249236
 20
0.4300702995521967
  0
LINE
  5
7DE1B343D9E0160
330
7DE1B343D9E01FA
100
AcDbEntity
  8
TEXT
100
AcDbLine
 10
0.3556737275729485
 20
0.5189944935673033
 30
0.0
 11
0.5225793816019198
 21
0.5189944935673033
 31
0.0
  0
LINE
  5
7DE1B343D9E0161
330
7DE1B343D9E01FA
100
AcDbEntity
  8
TEXT
100
AcDbLine
 10
0.4212738638172496
 20
0.4831897719566755
 30
0.0
 11
0.3556737275729485
 21
0.4831897719566755
 31
0.0
  0
LINE
  5
7DE1B343D9E0162
330
7DE1B343D9E01FA
100
AcDbEntity
  8
TEXT
100
AcDbLine
 10
0.2683489380121968
 20
0.3167981552355577
 30
0.0
 11
0.4212738638172496
 21
0.3167981552355577
 31
0.0
  0
LINE
  5
7DE1B343D9E0163
330
7DE1B343D9E01FA
100
AcDbEntity
  8
TEXT
100
AcDbLine
 10
0.4262142377235292
 20
0.3851551615689971
 30
0.0
 11
0.2683489380121951
 21
0.3851551615689971
 31
0.0
  0
LINE
  5
7DE1B343D9E0164
330
7DE1B343D9E01FA
100
AcDbEntity
  8
TEXT
100
AcDbLine
 10
0.3504363974587004
 20
0.4190962693310617
 30
0.0
 11
0.4262142377235292
 21
0.4190962693310617
 31
0.0
  0
ARC
  5
7DE1B343D9E0165
330
7DE1B343D9E01FA
100
AcDbEntity
  8
TEXT
100
AcDbCircle
 10
0.3556737275729493
 20
0.5010921327619912
 30
0.0
 40
0.017902360805315
100
AcDbArc
 50
90.0
 51
270.0
  0
LINE
  5
7DE1B343D9E0166
330
7DE1B343D9E01FA
100
AcDbEntity
  8
TEXT
100
AcDbLine
 10
0.2683489380121951
 20
0.3851551615689971
 30
0.0
 11
0.2683489380121968
 21
0.3167981552355577
 31
0.0
  0
LINE
  5
7DE1B343D9E0167
330
7DE1B343D9E01FA
100
AcDbEntity
  8
TEXT
100
AcDbLine
 10
0.5225793816019198
 20
0.5189944935673033
 30
0.0
 11
0.5225793816019198
 21
0.3765905465736075
 31
0.0
  0
ARC
  5
7DE1B343D9E0168
330
7DE1B343D9E01FA
100
AcDbEntity
  8
TEXT
100
AcDbCircle
 10
0.4212738638172504
 20
0.3999939635961148
 30
0.0
 40
0.0831958083605586
100
AcDbArc
 50
270.0
 51
90.0
  0
ARC
  5
7DE1B343D9E0169
330
7DE1B343D9E01FA
100
AcDbEntity
  8
TEXT
100
AcDbCircle
 10
0.4262142377235301
 20
0.4021257154500312
 30
0.0
 40
0.0169705538810321
100
AcDbArc
 50
270.0
 51
90.0
  0
LWPOLYLINE
  5
7DE1B343D9E016A
330
7DE1B343D9E01FA
100
AcDbEntity
  8
TEXT
100
AcDbPolyline
 90
        2
 70
     0
 43
0.0006660908203125
 10
-0.0676412979469538
 20
0.5566275554115713
 10
-0.0676412979469538
 20
0.5832711882240723
  0
LWPOLYLINE
  5
7DE1B343D9E016E
330
7DE1B343D9E01FA
100
AcDbEntity
  8
TEXT
100
AcDbPolyline
 90
        2
 70
     0
 43
0.0006660908203125
 10
-0.0276758487282023
 20
0.5566275554115713
 10
-0.0276758487282023
 20
0.5832711882240723
  0
LINE
  5
7DE1B343D9E0172
330
7DE1B343D9E01FA
100
AcDbEntity
  8
TEXT
100
AcDbLine
 10
0.5261681503572127
 20
0.5832711882240688
 30
0.0
 11
0.3504363974587004
 21
0.5832711882240688
 31
0.0
  0
LINE
  5
7DE1B343D9E0173
330
7DE1B343D9E01FA
100
AcDbEntity
  8
TEXT
100
AcDbLine
 10
0.5261681503572127
 20
0.6176591058182069
 30
0.0
 11
0.5261681503572127
 21
0.5832711882240688
 31
0.0
  0
LINE
  5
7DE1B343D9E0174
330
7DE1B343D9E01FA
100
AcDbEntity
  8
TEXT
100
AcDbLine
 10
0.716640042377065
 20
0.4823991921109482
 30
0.0
 11
0.6580097213451271
 21
0.5832711882240688
 31
0.0
  0
LINE
  5
7DE1B343D9E0175
330
7DE1B343D9E01FA
100
AcDbEntity
  8
TEXT
100
AcDbLine
 10
0.7753886051829304
 20
0.5832711882240688
 30
0.0
 11
0.716640042377065
 21
0.4823991921109482
 31
0.0
  0
LINE
  5
7DE1B343D9E0176
330
7DE1B343D9E01FA
100
AcDbEntity
  8
TEXT
100
AcDbLine
 10
0.8723192305426717
 20
0.3991859933385569
 30
0.0
 11
0.8723192305426717
 21
0.6512826659628793
 31
0.0
  0
LINE
  5
7DE1B343D9E0177
330
7DE1B343D9E01FA
100
AcDbEntity
  8
TEXT
100
AcDbLine
 10
0.9046310846803319
 20
0.5832711882240688
 30
0.0
 11
0.9046310846803319
 21
0.3824069814916605
 31
0.0
  0
LINE
  5
7DE1B343D9E0178
330
7DE1B343D9E01FA
100
AcDbEntity
  8
TEXT
100
AcDbLine
 10
0.9046310846803319
 20
0.3824069814916605
 30
0.0
 11
0.8876374477957305
 21
0.3824069814916605
 31
0.0
  0
LINE
  5
7DE1B343D9E0179
330
7DE1B343D9E01FA
100
AcDbEntity
  8
TEXT
100
AcDbLine
 10
0.8734588040388665
 20
0.3167981552355577
 30
0.0
 11
0.9714621377383011
 21
0.3167981552355577
 31
0.0
  0
LINE
  5
7DE1B343D9E017A
330
7DE1B343D9E01FA
100
AcDbEntity
  8
TEXT
100
AcDbLine
 10
0.7070398053801106
 20
0.3367566613405707
 30
0.0
 11
0.8043395114735552
 21
0.5011068722758388
 31
0.0
  0
ARC
  5
7DE1B343D9E017B
330
7DE1B343D9E01FA
100
AcDbEntity
  8
TEXT
100
AcDbCircle
 10
0.6729962454678966
 20
0.3563458775092535
 30
0.0
 40
0.0392772371940762
100
AcDbArc
 50
270.1604552698595
 51
330.0831797321295
  0
LINE
  5
7DE1B343D9E017C
330
7DE1B343D9E01FA
100
AcDbEntity
  8
TEXT
100
AcDbLine
 10
0.5764659890820254
 20
0.3167981552355577
 30
0.0
 11
0.6731062401570198
 21
0.31706879433384
 31
0.0
  0
LWPOLYLINE
  5
7DE1B343D9E017D
330
7DE1B343D9E01FA
100
AcDbEntity
  8
TEXT
100
AcDbPolyline
 90
        6
 70
     1
 43
0.0
 10
0.6189897926571751
 20
0.5189944935673033
 10
0.5886731984369669
 20
0.5189944935673033
 10
0.5886731984369669
 20
0.3958834955124089
 42
0.407328721240804
 10
0.6002168495984433
 20
0.3840645808360229
 10
0.6608385486431741
 20
0.3840645808360229
 10
0.678303889050492
 20
0.4168768098795021
  0
LINE
  5
7DE1B343D9E0185
330
7DE1B343D9E01FA
100
AcDbEntity
  8
TEXT
100
AcDbLine
 10
0.8043395114735552
 20
0.5011068722758388
 30
0.0
 11
0.8043395114735552
 21
0.3683494974504825
 31
0.0
  0
ARC
  5
7DE1B343D9E0186
330
7DE1B343D9E01FA
100
AcDbEntity
  8
TEXT
100
AcDbCircle
 10
0.8876374477957288
 20
0.3977887877350859
 30
0.0
 40
0.0153818062434269
100
AcDbArc
 50
174.7883570302258
 51
270.0
  0
LWPOLYLINE
  5
7DE1B343D9E0187
330
7DE1B343D9E01FA
100
AcDbEntity
  8
TEXT
100
AcDbPolyline
 90
        2
 70
     0
 43
0.0
 10
0.8043395114735535
 20
0.368349497450486
 42
0.3318488747599744
 10
0.8734588040388665
 20
0.3167981552355577
 42
-6.868794160588311
  0
LINE
  5
7DE1B343D9E018B
330
7DE1B343D9E01FA
100
AcDbEntity
  8
TEXT
100
AcDbLine
 10
1.028851206727562
 20
0.3167981552355577
 30
0.0
 11
1.095909253509402
 21
0.3167981552355577
 31
0.0
  0
LINE
  5
7DE1B343D9E018C
330
7DE1B343D9E01FA
100
AcDbEntity
  8
TEXT
100
AcDbLine
 10
1.028851206727562
 20
0.5114407044011934
 30
0.0
 11
1.028851206727562
 21
0.3167981552355577
 31
0.0
  0
LINE
  5
7DE1B343D9E018D
330
7DE1B343D9E01FA
100
AcDbEntity
  8
TEXT
100
AcDbLine
 10
0.9714621377383011
 20
0.5189944935673033
 30
0.0
 11
1.021297417561448
 21
0.5189944935673033
 31
0.0
  0
LINE
  5
7DE1B343D9E018E
330
7DE1B343D9E01FA
100
AcDbEntity
  8
TEXT
100
AcDbLine
 10
0.9714621377383011
 20
0.3167981552355577
 30
0.0
 11
0.9714621377383011
 21
0.5189944935673033
 31
0.0
  0
LWPOLYLINE
  5
7DE1B343D9E018F
330
7DE1B343D9E01FA
100
AcDbEntity
  8
TEXT
100
AcDbPolyline
 90
        2
 70
     0
 43
0.0
 10
1.021297417561446
 20
0.5189944935673033
 42
-0.4142135623731017
 10
1.02885120672756
 20
0.5114407044011934
 42
-0.9999999999999998
  0
LINE
  5
7DE1B343D9E0193
330
7DE1B343D9E01FA
100
AcDbEntity
  8
TEXT
100
AcDbLine
 10
1.227107418339131
 20
0.5189944935673033
 30
0.0
 11
1.227107418339131
 21
0.4439420874930967
 31
0.0
  0
LINE
  5
7DE1B343D9E0194
330
7DE1B343D9E01FA
100
AcDbEntity
  8
TEXT
100
AcDbLine
 10
1.095909253509402
 20
0.5189944935673033
 30
0.0
 11
1.150042850430352
 21
0.5189944935673033
 31
0.0
  0
LINE
  5
7DE1B343D9E0195
330
7DE1B343D9E01FA
100
AcDbEntity
  8
TEXT
100
AcDbLine
 10
1.095909253509402
 20
0.3167981552355577
 30
0.0
 11
1.095909253509402
 21
0.5189944935673033
 31
0.0
  0
LWPOLYLINE
  5
7DE1B343D9E0196
330
7DE1B343D9E01FA
100
AcDbEntity
  8
TEXT
100
AcDbPolyline
 90
        2
 70
     0
 43
0.0
 10
1.15004285043035
 20
0.5189944935673033
 42
-0.4142135623731017
 10
1.157596639596464
 20
0.5114407044011934
 42
-0.9999999999999998
  0
LWPOLYLINE
  5
7DE1B343D9E019A
330
7DE1B343D9E01FA
100
AcDbEntity
  8
TEXT
100
AcDbPolyline
 90
        4
 70
     0
 43
0.0
 10
1.157596639596464
 20
0.5114407044011934
 10
1.157596639596464
 20
0.3167981552355577
 10
1.226074922884321
 20
0.3167981552355577
 10
1.226074922884321
 20
0.3602891001859959
 42
-1.714843617202739
  0
LINE
  5
7DE1B343D9E01A0
330
7DE1B343D9E01FA
100
AcDbEntity
  8
TEXT
100
AcDbLine
 10
0.5862107552012197
 20
0.5832711882240688
 30
0.0
 11
0.5862107552012197
 21
0.6176591058182069
 31
0.0
  0
LINE
  5
7DE1B343D9E01A1
330
7DE1B343D9E01FA
100
AcDbEntity
  8
TEXT
100
AcDbLine
 10
0.6580097213451271
 20
0.5832711882240688
 30
0.0
 11
0.5862107552012197
 21
0.5832711882240688
 31
0.0
  0
LINE
  5
7DE1B343D9E01A2
330
7DE1B343D9E01FA
100
AcDbEntity
  8
TEXT
100
AcDbLine
 10
0.8055105179763067
 20
0.5832711882240688
 30
0.0
 11
0.7753886051829304
 21
0.5832711882240688
 31
0.0
  0
LINE
  5
7DE1B343D9E01A3
330
7DE1B343D9E01FA
100
AcDbEntity
  8
TEXT
100
AcDbLine
 10
0.8055105179763067
 20
0.6512826659628793
 30
0.0
 11
0.8055105179763067
 21
0.5832711882240688
 31
0.0
  0
LINE
  5
7DE1B343D9E01A4
330
7DE1B343D9E01FA
100
AcDbEntity
  8
TEXT
100
AcDbLine
 10
0.8723192305426717
 20
0.6512826659628793
 30
0.0
 11
0.8055105179763067
 21
0.6512826659628793
 31
0.0
  0
LWPOLYLINE
  5
7DE1B343D9E01A5
330
7DE1B343D9E01FA
100
AcDbEntity
  8
TEXT
100
AcDbPolyline
 90
        3
 70
     0
 43
0.0
 10
1.192730990140673
 20
0.5832711882240723
 10
1.074430831324629
 20
0.5832711882240723
 10
1.074430831324629
 20
0.5561036914631764
 42
-1.960274751411753
  0
LINE
  5
7DE1B343D9E01AA
330
7DE1B343D9E01FA
100
AcDbEntity
  8
TEXT
100
AcDbLine
 10
1.038649140611468
 20
0.5832711882240688
 30
0.0
 11
0.9046310846803319
 21
0.5832711882240688
 31
0.0
  0
LWPOLYLINE
  5
7DE1B343D9E01AB
330
7DE1B343D9E01FA
100
AcDbEntity
  8
TEXT
100
AcDbPolyline
 90
        2
 70
     0
 43
0.0
 10
1.038649140611468
 20
0.5832711882240723
 42
-0.3328679258950098
 10
1.074430831324629
 20
0.5561036914631764
 42
6.772930709997214
  0
LINE
  5
7DE1B343D9E01AF
330
7DE1B343D9E01FA
100
AcDbEntity
  8
TEXT
100
AcDbLine
 10
1.22851268085384
 20
0.5832711882240688
 30
0.0
 11
1.22851268085384
 21
0.5549486424544249
 31
0.0
  0
LWPOLYLINE
  5
7DE1B343D9E01B0
330
7DE1B343D9E01FA
100
AcDbEntity
  8
TEXT
100
AcDbPolyline
 90
        2
 70
     0
 43
0.0
 10
1.192730990140673
 20
0.5832711882240723
 42
-0.3277054968067132
 10
1.228512680853838
 20
0.5549486424544284
 42
6.667889725900311
  0
LINE
  5
7DE1B343D9E01B4
330
7DE1B343D9E01FA
100
AcDbEntity
  8
TEXT
100
AcDbLine
 10
1.44230452894594
 20
0.4780592096706414
 30
0.0
 11
1.398553757764039
 21
0.5603094856667866
 31
0.0
  0
LINE
  5
7DE1B343D9E01B5
330
7DE1B343D9E01FA
100
AcDbEntity
  8
TEXT
100
AcDbLine
 10
1.44230452894594
 20
0.5832711882240688
 30
0.0
 11
1.44230452894594
 21
0.4780592096706414
 31
0.0
  0
LINE
  5
7DE1B343D9E01B6
330
7DE1B343D9E01FA
100
AcDbEntity
  8
TEXT
100
AcDbLine
 10
1.669988267884309
 20
0.5074058618125307
 30
0.0
 11
1.669988267884309
 21
0.6487353939916695
 31
0.0
  0
LINE
  5
7DE1B343D9E01B7
330
7DE1B343D9E01FA
100
AcDbEntity
  8
TEXT
100
AcDbLine
 10
1.717086426440294
 20
0.5832711882240688
 30
0.0
 11
1.669988267884309
 21
0.5074058618125307
 31
0.0
  0
LINE
  5
7DE1B343D9E01B8
330
7DE1B343D9E01FA
100
AcDbEntity
  8
TEXT
100
AcDbLine
 10
1.727521143204217
 20
0.4733779452830952
 30
0.0
 11
1.792078259169922
 21
0.5832711882240688
 31
0.0
  0
LINE
  5
7DE1B343D9E01B9
330
7DE1B343D9E01FA
100
AcDbEntity
  8
TEXT
100
AcDbLine
 10
1.606153276661536
 20
0.3167981552355577
 30
0.0
 11
1.670531460980157
 21
0.3167981552355577
 31
0.0
  0
LWPOLYLINE
  5
7DE1B343D9E01BA
330
7DE1B343D9E01FA
100
AcDbEntity
  8
TEXT
100
AcDbPolyline
 90
        2
 70
     0
 43
0.0
 10
1.446244206250978
 20
0.3602891001859959
 42
-0.2901071551932486
 10
1.403168273383334
 20
0.3167981552355577
 42
-5.328517124445184
  0
ARC
  5
7DE1B343D9E01BE
330
7DE1B343D9E01FA
100
AcDbEntity
  8
TEXT
100
AcDbCircle
 10
1.334313691726419
 20
0.490635118567306
 30
0.0
 40
0.028359375
100
AcDbArc
 50
25.78218179591245
 51
90.0
  0
LINE
  5
7DE1B343D9E01BF
330
7DE1B343D9E01FA
100
AcDbEntity
  8
TEXT
100
AcDbLine
 10
1.370114767030542
 20
0.4817195201051711
 30
0.0
 11
1.359850006616978
 21
0.5029700596778654
 31
0.0
  0
LINE
  5
7DE1B343D9E01C0
330
7DE1B343D9E01FA
100
AcDbEntity
  8
TEXT
100
AcDbLine
 10
1.287826777247159
 20
0.4817195201051711
 30
0.0
 11
1.370114767030542
 21
0.4817195201051711
 31
0.0
  0
LWPOLYLINE
  5
7DE1B343D9E01C1
330
7DE1B343D9E01FA
100
AcDbEntity
  8
TEXT
100
AcDbPolyline
 90
        4
 70
     1
 43
0.0
 10
1.383045808313441
 20
0.419762133219583
 10
1.294385489653583
 20
0.419762133219583
 42
0.9999999999999998
 10
1.294385489653583
 20
0.3773635927157223
 10
1.383045808313441
 20
0.3773635927157223
 42
1.0
  0
LWPOLYLINE
  5
7DE1B343D9E01C7
330
7DE1B343D9E01FA
100
AcDbEntity
  8
TEXT
100
AcDbPolyline
 90
        2
 70
     0
 43
0.0
 10
1.269150855751957
 20
0.3167981552355577
 10
1.403168273383334
 20
0.3167981552355577
 42
0.9999999999999998
  0
LINE
  5
7DE1B343D9E01CB
330
7DE1B343D9E01FA
100
AcDbEntity
  8
TEXT
100
AcDbLine
 10
1.529505295368973
 20
0.5189944935673033
 30
0.0
 11
1.606153276661531
 21
0.5189944935673033
 31
0.0
  0
LINE
  5
7DE1B343D9E01CC
330
7DE1B343D9E01FA
100
AcDbEntity
  8
TEXT
100
AcDbLine
 10
1.606153276661531
 20
0.5189944935673033
 30
0.0
 11
1.606153276661536
 21
0.3167981552355577
 31
0.0
  0
ARC
  5
7DE1B343D9E01CD
330
7DE1B343D9E01FA
100
AcDbEntity
  8
TEXT
100
AcDbCircle
 10
1.529505295368971
 20
0.4940886182846406
 30
0.0
 40
0.0249058752826653
100
AcDbArc
 50
89.99971217465335
 51
179.9999999999985
  0
LINE
  5
7DE1B343D9E01CE
330
7DE1B343D9E01FA
100
AcDbEntity
  8
TEXT
100
AcDbLine
 10
1.504599420086314
 20
0.3167981552355577
 30
0.0
 11
1.504599420086309
 21
0.4940886606670262
 31
0.0
  0
LWPOLYLINE
  5
7DE1B343D9E01CF
330
7DE1B343D9E01FA
100
AcDbEntity
  8
TEXT
100
AcDbPolyline
 90
        2
 70
     0
 43
0.0
 10
1.446244206250978
 20
0.3167981552355577
 10
1.504599420086312
 20
0.3167981552355577
  0
LWPOLYLINE
  5
7DE1B343D9E01D3
330
7DE1B343D9E01FA
100
AcDbEntity
  8
TEXT
100
AcDbPolyline
 90
        2
 70
     0
 43
0.0
 10
1.446244206250978
 20
0.3602891001859959
 10
1.446244206250978
 20
0.3167981552355577
  0
LINE
  5
7DE1B343D9E01D7
330
7DE1B343D9E01FA
100
AcDbEntity
  8
TEXT
100
AcDbLine
 10
1.823013366567827
 20
0.3167981552355577
 30
0.0
 11
1.727521143204217
 21
0.4733779452830952
 31
0.0
  0
LINE
  5
7DE1B343D9E01D8
330
7DE1B343D9E01FA
100
AcDbEntity
  8
TEXT
100
AcDbLine
 10
1.746434994191621
 20
0.3167981552355577
 30
0.0
 11
1.823013366567827
 21
0.3167981552355577
 31
0.0
  0
LINE
  5
7DE1B343D9E01D9
330
7DE1B343D9E01FA
100
AcDbEntity
  8
TEXT
100
AcDbLine
 10
1.670531460980157
 20
0.448377723711738
 30
0.0
 11
1.746434994191621
 21
0.3167981552355577
 31
0.0
  0
LINE
  5
7DE1B343D9E01DA
330
7DE1B343D9E01FA
100
AcDbEntity
  8
TEXT
100
AcDbLine
 10
1.670531460980157
 20
0.3167981552355577
 30
0.0
 11
1.670531460980157
 21
0.448377723711738
 31
0.0
  0
LINE
  5
7DE1B343D9E01DB
330
7DE1B343D9E01FA
100
AcDbEntity
  8
TEXT
100
AcDbLine
 10
1.669988267884309
 20
0.6487353939916695
 30
0.0
 11
1.601673389335036
 21
0.6487353939916695
 31
0.0
  0
ARC
  5
7DE1B343D9E01DC
330
7DE1B343D9E01FA
100
AcDbEntity
  8
TEXT
100
AcDbCircle
 10
1.36131765029383
 20
0.5416876211031664
 30
0.0
 40
0.0416329381542859
100
AcDbArc
 50
26.56974201007528
 51
87.20939649401342
  0
LINE
  5
7DE1B343D9E01DD
330
7DE1B343D9E01FA
100
AcDbEntity
  8
TEXT
100
AcDbLine
 10
1.506201435245441
 20
0.5832711882240688
 30
0.0
 11
1.44230452894594
 21
0.5832711882240688
 31
0.0
  0
LINE
  5
7DE1B343D9E01DE
330
7DE1B343D9E01FA
100
AcDbEntity
  8
TEXT
100
AcDbLine
 10
1.506201435245441
 20
0.5557235383631941
 30
0.0
 11
1.506201435245441
 21
0.5832711882240688
 31
0.0
  0
ARC
  5
7DE1B343D9E01DF
330
7DE1B343D9E01FA
100
AcDbEntity
  8
TEXT
100
AcDbCircle
 10
1.537394252308549
 20
0.552025460941804
 30
0.0
 40
0.0314112657011332
100
AcDbArc
 50
95.88484768694724
 51
173.2388340632136
  0
LINE
  5
7DE1B343D9E01E0
330
7DE1B343D9E01FA
100
AcDbEntity
  8
TEXT
100
AcDbLine
 10
1.601673389335031
 20
0.5832711882240688
 30
0.0
 11
1.534173671685514
 21
0.5832711882240688
 31
0.0
  0
LINE
  5
7DE1B343D9E01E1
330
7DE1B343D9E01FA
100
AcDbEntity
  8
TEXT
100
AcDbLine
 10
1.601673389335036
 20
0.6487353939916695
 30
0.0
 11
1.601673389335031
 21
0.5832711882240688
 31
0.0
  0
LINE
  5
7DE1B343D9E01E2
330
7DE1B343D9E01FA
100
AcDbEntity
  8
TEXT
100
AcDbLine
 10
1.792078259169922
 20
0.5832711882240688
 30
0.0
 11
1.717086426440296
 21
0.5832711882240688
 31
0.0
  0
ENDSEC
  0
SECTION
  2
OBJECTS
  0
DICTIONARY
  5
7DE1B343D9E01EE
330
0
100
AcDbDictionary
  3
ACAD_GROUP
350
7DE1B343D9E01EF
  3
ACAD_LAYOUT
350
7DE1B343D9E0214
  3
ACAD_MLINESTYLE
350
7DE1B343D9E01F0
  3
ACAD_PLOTSETTINGS
350
7DE1B343D9E0215
  3
ACAD_PLOTSTYLENAME
350
7DE1B343D9E0212
  3
ACDBHEADERROUNDTRIPXREC
350
7DE1B343D9E021F
  3
ACDBVARIABLEDICTIONARY
350
7DE1B343D9E021C
  0
DICTIONARY
  5
7DE1B343D9E0241
330
7DE1B343D9E01FA
100
AcDbDictionary
280
     1
  3
ACAD_LAYOUTSELFREF
360
7DE1B343D9E0242
  0
DICTIONARY
  5
7DE1B343D9E023F
330
7DE1B343D9E01F7
100
AcDbDictionary
280
     1
  3
ACAD_LAYOUTSELFREF
360
7DE1B343D9E0240
  0
DICTIONARY
  5
7DE1B343D9E01EF
102
{ACAD_REACTORS
330
7DE1B343D9E01EE
102
}
330
7DE1B343D9E01EE
100
AcDbDictionary
  0
DICTIONARY
  5
7DE1B343D9E0214
102
{ACAD_REACTORS
330
7DE1B343D9E01EE
102
}
330
7DE1B343D9E01EE
100
AcDbDictionary
  0
DICTIONARY
  5
7DE1B343D9E01F0
102
{ACAD_REACTORS
330
7DE1B343D9E01EE
102
}
330
7DE1B343D9E01EE
100
AcDbDictionary
  3
STANDARD
350
7DE1B343D9E01FD
  0
DICTIONARY
  5
7DE1B343D9E0215
102
{ACAD_REACTORS
330
7DE1B343D9E01EE
102
}
330
7DE1B343D9E01EE
100
AcDbDictionary
  0
ACDBDICTIONARYWDFLT
  5
7DE1B343D9E0212
102
{ACAD_REACTORS
330
7DE1B343D9E01EE
102
}
330
7DE1B343D9E01EE
100
AcDbDictionary
281
     1
  3
Normal
350
7DE1B343D9E0213
100
AcDbDictionaryWithDefault
340
7DE1B343D9E0213
  0
DICTIONARY
  5
7DE1B343D9E021F
102
{ACAD_REACTORS
330
7DE1B343D9E01EE
102
}
330
7DE1B343D9E01EE
100
AcDbDictionary
  3
CEPSNTYPE
350
7DE1B343D9E0229
  3
FINGERPRINTGUID
350
7DE1B343D9E022A
  3
HYPERLINKBASE
350
7DE1B343D9E0222
  3
INSUNITS
350
7DE1B343D9E0228
  3
LAYOUTDICT
350
7DE1B343D9E0224
  3
LWETCUNION
350
7DE1B343D9E0227
  3
PLOTSETDICT
350
7DE1B343D9E0225
  3
PLOTSTYLNAMDICT
350
7DE1B343D9E0226
  3
PSVPSCALE
350
7DE1B343D9E022C
  3
PUCSBASE
350
7DE1B343D9E022F
  3
PUCSORGBACK
350
7DE1B343D9E0235
  3
PUCSORGBOTTOM
350
7DE1B343D9E0231
  3
PUCSORGFRONT
350
7DE1B343D9E0234
  3
PUCSORGLEFT
350
7DE1B343D9E0232
  3
PUCSORGRIGHT
350
7DE1B343D9E0233
  3
PUCSORGTOP
350
7DE1B343D9E0230
  3
PUCSORTHOREF
350
7DE1B343D9E022D
  3
PUCSORTHOVIEW
350
7DE1B343D9E022E
  3
STYLESHEET
350
7DE1B343D9E0223
  3
TSTACKALIGN
350
7DE1B343D9E0220
  3
TSTACKSIZE
350
7DE1B343D9E0221
  3
UCSBASE
350
7DE1B343D9E0238
  3
UCSORGBACK
350
7DE1B343D9E023E
  3
UCSORGBOTTOM
350
7DE1B343D9E023A
  3
UCSORGFRONT
350
7DE1B343D9E023D
  3
UCSORGLEFT
350
7DE1B343D9E023B
  3
UCSORGRIGHT
350
7DE1B343D9E023C
  3
UCSORGTOP
350
7DE1B343D9E0239
  3
UCSORTHOREF
350
7DE1B343D9E0236
  3
UCSORTHOVIEW
350
7DE1B343D9E0237
  3
VERSIONGUID
350
7DE1B343D9E022B
  0
DICTIONARY
  5
7DE1B343D9E021C
102
{ACAD_REACTORS
330
7DE1B343D9E01EE
102
}
330
7DE1B343D9E01EE
100
AcDbDictionary
  3
DIMASSOC
350
7DE1B343D9E021D
  0
XRECORD
  5
7DE1B343D9E0242
102
{ACAD_REACTORS
330
7DE1B343D9E0241
102
}
330
7DE1B343D9E0241
100
AcDbXrecord
340
7DE1B343D9E01FA
  0
XRECORD
  5
7DE1B343D9E0240
102
{ACAD_REACTORS
330
7DE1B343D9E023F
102
}
330
7DE1B343D9E023F
100
AcDbXrecord
340
7DE1B343D9E01F7
  0
MLINESTYLE
  5
7DE1B343D9E01FD
102
{ACAD_REACTORS
330
7DE1B343D9E01F0
102
}
330
7DE1B343D9E01F0
100
AcDbMlineStyle
  2
STANDARD
 70
     0
  3

 62
     0
 51
90.0
 52
90.0
 71
     2
 49
0.5
 62
   256
  6
BYLAYER
 49
-0.5
 62
   256
  6
BYLAYER
  0
ACDBPLACEHOLDER
  5
7DE1B343D9E0213
102
{ACAD_REACTORS
330
7DE1B343D9E0212
102
}
330
7DE1B343D9E0212
100
AcDbPlaceHolder
280
     0
  0
XRECORD
  5
7DE1B343D9E0229
102
{ACAD_REACTORS
330
7DE1B343D9E021F
102
}
330
7DE1B343D9E021F
100
AcDbXrecord
 90
        0
  0
XRECORD
  5
7DE1B343D9E022A
102
{ACAD_REACTORS
330
7DE1B343D9E021F
102
}
330
7DE1B343D9E021F
100
AcDbXrecord
  1
{49713BE0-8DB9-11D6-88E6-0090279574E7}
  0
XRECORD
  5
7DE1B343D9E0222
102
{ACAD_REACTORS
330
7DE1B343D9E021F
102
}
330
7DE1B343D9E021F
100
AcDbXrecord
  1

  0
XRECORD
  5
7DE1B343D9E0228
102
{ACAD_REACTORS
330
7DE1B343D9E021F
102
}
330
7DE1B343D9E021F
100
AcDbXrecord
 90
        0
  0
XRECORD
  5
7DE1B343D9E0224
102
{ACAD_REACTORS
330
7DE1B343D9E021F
102
}
330
7DE1B343D9E021F
100
AcDbXrecord
340
7DE1B343D9E0214
  0
XRECORD
  5
7DE1B343D9E0227
102
{ACAD_REACTORS
330
7DE1B343D9E021F
102
}
330
7DE1B343D9E021F
100
AcDbXrecord
 90
    14877
  0
XRECORD
  5
7DE1B343D9E0225
102
{ACAD_REACTORS
330
7DE1B343D9E021F
102
}
330
7DE1B343D9E021F
100
AcDbXrecord
340
7DE1B343D9E0215
  0
XRECORD
  5
7DE1B343D9E0226
102
{ACAD_REACTORS
330
7DE1B343D9E021F
102
}
330
7DE1B343D9E021F
100
AcDbXrecord
340
7DE1B343D9E0212
  0
XRECORD
  5
7DE1B343D9E022C
102
{ACAD_REACTORS
330
7DE1B343D9E021F
102
}
330
7DE1B343D9E021F
100
AcDbXrecord
 40
0.0
  0
XRECORD
  5
7DE1B343D9E022F
102
{ACAD_REACTORS
330
7DE1B343D9E021F
102
}
330
7DE1B343D9E021F
100
AcDbXrecord
340
0
  0
XRECORD
  5
7DE1B343D9E0235
102
{ACAD_REACTORS
330
7DE1B343D9E021F
102
}
330
7DE1B343D9E021F
100
AcDbXrecord
 10
0.0
 20
0.0
 30
0.0
  0
XRECORD
  5
7DE1B343D9E0231
102
{ACAD_REACTORS
330
7DE1B343D9E021F
102
}
330
7DE1B343D9E021F
100
AcDbXrecord
 10
0.0
 20
0.0
 30
0.0
  0
XRECORD
  5
7DE1B343D9E0234
102
{ACAD_REACTORS
330
7DE1B343D9E021F
102
}
330
7DE1B343D9E021F
100
AcDbXrecord
 10
0.0
 20
0.0
 30
0.0
  0
XRECORD
  5
7DE1B343D9E0232
102
{ACAD_REACTORS
330
7DE1B343D9E021F
102
}
330
7DE1B343D9E021F
100
AcDbXrecord
 10
0.0
 20
0.0
 30
0.0
  0
XRECORD
  5
7DE1B343D9E0233
102
{ACAD_REACTORS
330
7DE1B343D9E021F
102
}
330
7DE1B343D9E021F
100
AcDbXrecord
 10
0.0
 20
0.0
 30
0.0
  0
XRECORD
  5
7DE1B343D9E0230
102
{ACAD_REACTORS
330
7DE1B343D9E021F
102
}
330
7DE1B343D9E021F
100
AcDbXrecord
 10
0.0
 20
0.0
 30
0.0
  0
XRECORD
  5
7DE1B343D9E022D
102
{ACAD_REACTORS
330
7DE1B343D9E021F
102
}
330
7DE1B343D9E021F
100
AcDbXrecord
340
0
  0
XRECORD
  5
7DE1B343D9E022E
102
{ACAD_REACTORS
330
7DE1B343D9E021F
102
}
330
7DE1B343D9E021F
100
AcDbXrecord
 70
     0
  0
XRECORD
  5
7DE1B343D9E0223
102
{ACAD_REACTORS
330
7DE1B343D9E021F
102
}
330
7DE1B343D9E021F
100
AcDbXrecord
  1

  0
XRECORD
  5
7DE1B343D9E0220
102
{ACAD_REACTORS
330
7DE1B343D9E021F
102
}
330
7DE1B343D9E021F
100
AcDbXrecord
 90
        1
  0
XRECORD
  5
7DE1B343D9E0221
102
{ACAD_REACTORS
330
7DE1B343D9E021F
102
}
330
7DE1B343D9E021F
100
AcDbXrecord
 90
       70
  0
XRECORD
  5
7DE1B343D9E0238
102
{ACAD_REACTORS
330
7DE1B343D9E021F
102
}
330
7DE1B343D9E021F
100
AcDbXrecord
340
0
  0
XRECORD
  5
7DE1B343D9E023E
102
{ACAD_REACTORS
330
7DE1B343D9E021F
102
}
330
7DE1B343D9E021F
100
AcDbXrecord
 10
0.0
 20
0.0
 30
0.0
  0
XRECORD
  5
7DE1B343D9E023A
102
{ACAD_REACTORS
330
7DE1B343D9E021F
102
}
330
7DE1B343D9E021F
100
AcDbXrecord
 10
0.0
 20
0.0
 30
0.0
  0
XRECORD
  5
7DE1B343D9E023D
102
{ACAD_REACTORS
330
7DE1B343D9E021F
102
}
330
7DE1B343D9E021F
100
AcDbXrecord
 10
0.0
 20
0.0
 30
0.0
  0
XRECORD
  5
7DE1B343D9E023B
102
{ACAD_REACTORS
330
7DE1B343D9E021F
102
}
330
7DE1B343D9E021F
100
AcDbXrecord
 10
0.0
 20
0.0
 30
0.0
  0
XRECORD
  5
7DE1B343D9E023C
102
{ACAD_REACTORS
330
7DE1B343D9E021F
102
}
330
7DE1B343D9E021F
100
AcDbXrecord
 10
0.0
 20
0.0
 30
0.0
  0
XRECORD
  5
7DE1B343D9E0239
102
{ACAD_REACTORS
330
7DE1B343D9E021F
102
}
330
7DE1B343D9E021F
100
AcDbXrecord
 10
0.0
 20
0.0
 30
0.0
  0
XRECORD
  5
7DE1B343D9E0236
102
{ACAD_REACTORS
330
7DE1B343D9E021F
102
}
330
7DE1B343D9E021F
100
AcDbXrecord
340
0
  0
XRECORD
  5
7DE1B343D9E0237
102
{ACAD_REACTORS
330
7DE1B343D9E021F
102
}
330
7DE1B343D9E021F
100
AcDbXrecord
 70
     0
  0
XRECORD
  5
7DE1B343D9E022B
102
{ACAD_REACTORS
330
7DE1B343D9E021F
102
}
330
7DE1B343D9E021F
100
AcDbXrecord
  1
{49713BE2-8DB9-11D6-88E6-0090279574E7}
  0
DICTIONARYVAR
  5
7DE1B343D9E021D
102
{ACAD_REACTORS
330
7DE1B343D9E021C
102
}
330
7DE1B343D9E021C
100
DictionaryVariables
280
     0
  1
1
  0
ENDSEC
  0
EOF
