  0
SECTION
  2
HEADER
  9
$ACADVER
  1
AC1014
  9
$ACADMAINTVER
 70
     9
  9
$DWGCODEPAGE
  3
ANSI_1252
  9
$INSBASE
 10
1.865121864735877
 20
1.397972571904114
 30
0.0
  9
$EXTMIN
 10
0.0946402855087352
 20
0.4574684527303856
 30
0.0
  9
$EXTMAX
 10
3.579859607255862
 20
1.591208615360154
 30
0.0
  9
$LIMMIN
 10
0.0
 20
0.0
  9
$LIMMAX
 10
18.0
 20
12.0
  9
$ORTHOMODE
 70
     1
  9
$REGENMODE
 70
     1
  9
$FILLMODE
 70
     1
  9
$QTEXTMODE
 70
     0
  9
$MIRRTEXT
 70
     0
  9
$DRAGMODE
 70
     2
  9
$LTSCALE
 40
1.0
  9
$OSMODE
 70
    39
  9
$ATTMODE
 70
     1
  9
$TEXTSIZE
 40
0.125
  9
$TRACEWID
 40
0.05
  9
$TEXTSTYLE
  7
ROMANS
  9
$CLAYER
  8
0
  9
$CELTYPE
  6
BYLAYER
  9
$CECOLOR
 62
   256
  9
$CELTSCALE
 40
1.0
  9
$DELOBJ
 70
     1
  9
$DISPSILH
 70
     1
  9
$DIMSCALE
 40
1.0
  9
$DIMASZ
 40
0.125
  9
$DIMEXO
 40
0.125
  9
$DIMDLI
 40
0.375
  9
$DIMRND
 40
0.0
  9
$DIMDLE
 40
0.0
  9
$DIMEXE
 40
0.125
  9
$DIMTP
 40
0.0
  9
$DIMTM
 40
0.0
  9
$DIMTXT
 40
0.125
  9
$DIMCEN
 40
-0.125
  9
$DIMTSZ
 40
0.0
  9
$DIMTOL
 70
     0
  9
$DIMLIM
 70
     0
  9
$DIMTIH
 70
     1
  9
$DIMTOH
 70
     1
  9
$DIMSE1
 70
     0
  9
$DIMSE2
 70
     0
  9
$DIMTAD
 70
     0
  9
$DIMZIN
 70
     4
  9
$DIMBLK
  1

  9
$DIMASO
 70
     1
  9
$DIMSHO
 70
     1
  9
$DIMPOST
  1

  9
$DIMAPOST
  1

  9
$DIMALT
 70
     0
  9
$DIMALTD
 70
     2
  9
$DIMALTF
 40
25.4
  9
$DIMLFAC
 40
1.0
  9
$DIMTOFL
 70
     0
  9
$DIMTVP
 40
0.0
  9
$DIMTIX
 70
     1
  9
$DIMSOXD
 70
     0
  9
$DIMSAH
 70
     0
  9
$DIMBLK1
  1

  9
$DIMBLK2
  1

  9
$DIMSTYLE
  2
STANDARD
  9
$DIMCLRD
 70
     0
  9
$DIMCLRE
 70
     0
  9
$DIMCLRT
 70
     0
  9
$DIMTFAC
 40
1.0
  9
$DIMGAP
 40
0.09
  9
$DIMJUST
 70
     0
  9
$DIMSD1
 70
     0
  9
$DIMSD2
 70
     0
  9
$DIMTOLJ
 70
     1
  9
$DIMTZIN
 70
     4
  9
$DIMALTZ
 70
     0
  9
$DIMALTTZ
 70
     0
  9
$DIMFIT
 70
     3
  9
$DIMUPT
 70
     0
  9
$DIMUNIT
 70
     2
  9
$DIMDEC
 70
     3
  9
$DIMTDEC
 70
     3
  9
$DIMALTU
 70
     2
  9
$DIMALTTD
 70
     2
  9
$DIMTXSTY
  7
ROMANS
  9
$DIMAUNIT
 70
     0
  9
$LUNITS
 70
     2
  9
$LUPREC
 70
     3
  9
$SKETCHINC
 40
0.1
  9
$FILLETRAD
 40
0.03125
  9
$AUNITS
 70
     0
  9
$AUPREC
 70
     0
  9
$MENU
  1
ACAD
  9
$ELEVATION
 40
0.0
  9
$PELEVATION
 40
0.0
  9
$THICKNESS
 40
0.0
  9
$LIMCHECK
 70
     0
  9
$BLIPMODE
 70
     0
  9
$CHAMFERA
 40
0.0
  9
$CHAMFERB
 40
0.0
  9
$CHAMFERC
 40
0.0
  9
$CHAMFERD
 40
0.0
  9
$SKPOLY
 70
     0
  9
$TDCREATE
 40
2448994.678396527
  9
$TDUPDATE
 40
2452458.321689502
  9
$TDINDWG
 40
0.0124558681
  9
$TDUSRTIMER
 40
0.0124558681
  9
$USRTIMER
 70
     1
  9
$ANGBASE
 50
0.0
  9
$ANGDIR
 70
     0
  9
$PDMODE
 70
     0
  9
$PDSIZE
 40
0.0
  9
$PLINEWID
 40
0.0
  9
$COORDS
 70
     2
  9
$SPLFRAME
 70
     0
  9
$SPLINETYPE
 70
     6
  9
$SPLINESEGS
 70
     8
  9
$ATTDIA
 70
     0
  9
$ATTREQ
 70
     1
  9
$HANDLING
 70
 22529
  9
$HANDSEED
  5
7DE1B343D9DFBB2
  9
$SURFTAB1
 70
     6
  9
$SURFTAB2
 70
     6
  9
$SURFTYPE
 70
     6
  9
$SURFU
 70
     6
  9
$SURFV
 70
     6
  9
$UCSNAME
  2

  9
$UCSORG
 10
0.0
 20
0.0
 30
0.0
  9
$UCSXDIR
 10
1.0
 20
0.0
 30
0.0
  9
$UCSYDIR
 10
0.0
 20
1.0
 30
0.0
  9
$PUCSNAME
  2

  9
$PUCSORG
 10
0.0
 20
0.0
 30
0.0
  9
$PUCSXDIR
 10
1.0
 20
0.0
 30
0.0
  9
$PUCSYDIR
 10
0.0
 20
1.0
 30
0.0
  9
$USERI1
 70
     0
  9
$USERI2
 70
     0
  9
$USERI3
 70
     0
  9
$USERI4
 70
     0
  9
$USERI5
 70
     0
  9
$USERR1
 40
0.0
  9
$USERR2
 40
0.0
  9
$USERR3
 40
0.0
  9
$USERR4
 40
0.0
  9
$USERR5
 40
0.0
  9
$WORLDVIEW
 70
     1
  9
$SHADEDGE
 70
     3
  9
$SHADEDIF
 70
    70
  9
$TILEMODE
 70
     1
  9
$MAXACTVP
 70
    16
  9
$PINSBASE
 10
0.9536246646852839
 20
50.00000000000001
 30
2.076219516329287
  9
$PLIMCHECK
 70
     0
  9
$PEXTMIN
 10
1.000000000000000E+20
 20
1.000000000000000E+20
 30
1.000000000000000E+20
  9
$PEXTMAX
 10
-1.000000000000000E+20
 20
-1.000000000000000E+20
 30
-1.000000000000000E+20
  9
$PLIMMIN
 10
0.0
 20
0.0
  9
$PLIMMAX
 10
12.0
 20
9.0
  9
$UNITMODE
 70
     0
  9
$VISRETAIN
 70
     0
  9
$PLINEGEN
 70
     1
  9
$PSLTSCALE
 70
     0
  9
$TREEDEPTH
 70
  3020
  9
$PICKSTYLE
 70
     1
  9
$CMLSTYLE
  2
STANDARD
  9
$CMLJUST
 70
     0
  9
$CMLSCALE
 40
1.0
  9
$PROXYGRAPHICS
 70
     1
  9
$MEASUREMENT
 70
     0
  0
ENDSEC
  0
SECTION
  2
CLASSES
  0
CLASS
  1
LWPOLYLINE
  2
AcDbPolyline
  3
AutoCAD 2000
 90
        0
280
     0
281
     1
  0
CLASS
  1
ACDBDICTIONARYWDFLT
  2
AcDbDictionaryWithDefault
  3
AutoCAD 2000
 90
        0
280
     0
281
     0
  0
CLASS
  1
ACDBPLACEHOLDER
  2
AcDbPlaceHolder
  3
AutoCAD 2000
 90
        0
280
     0
281
     0
  0
CLASS
  1
LAYOUT
  2
AcDbLayout
  3
AutoCAD 2000
 90
        0
280
     0
281
     0
  0
CLASS
  1
DICTIONARYVAR
  2
AcDbDictionaryVar
  3
AutoCAD 2000
 90
        0
280
     0
281
     0
  0
CLASS
  1
LONG_TRANSACTION
  2
AcDbLongTransaction
  3
AutoCAD 2000
 90
        0
280
     0
281
     0
  0
CLASS
  1
LWPOLYLINE
  2
AcDbPolyline
  3
AutoCAD 2000
 90
        0
280
     0
281
     1
  0
CLASS
  1
HATCH
  2
AcDbHatch
  3
AutoCAD 2000
 90
        0
280
     0
281
     1
  0
CLASS
  1
XRECORD
  2
AcDbXrecord
  3
AutoCAD 2000
 90
        0
280
     0
281
     0
  0
ENDSEC
  0
SECTION
  2
TABLES
  0
TABLE
  2
VPORT
  5
7DE1B343D9DFB59
330
0
100
AcDbSymbolTable
 70
     2
  0
VPORT
  5
7DE1B343D9DFB8D
330
7DE1B343D9DFB59
100
AcDbSymbolTableRecord
100
AcDbViewportTableRecord
  2
*ACTIVE
 70
     0
 10
0.0
 20
0.0
 11
1.0
 21
1.0
 12
4.813937030617804
 22
1.024566672538135
 13
0.0
 23
0.0
 14
0.015625
 24
0.015625
 15
0.0
 25
0.0
 16
0.0
 26
0.0
 36
1.0
 17
0.0
 27
0.0
 37
0.0
 40
2.282647215150728
 41
4.320930232558139
 42
50.0
 43
0.0
 44
0.0
 50
0.0
 51
0.0
 71
     0
 72
  2000
 73
     1
 74
     0
 75
     0
 76
     0
 77
     0
 78
     0
  0
ENDTAB
  0
TABLE
  2
LTYPE
  5
7DE1B343D9DFB56
330
0
100
AcDbSymbolTable
 70
     1
  0
LTYPE
  5
7DE1B343D9DFB63
330
7DE1B343D9DFB56
100
AcDbSymbolTableRecord
100
AcDbLinetypeTableRecord
  2
BYBLOCK
 70
     0
  3

 72
    65
 73
     0
 40
0.0
  0
LTYPE
  5
7DE1B343D9DFB64
330
7DE1B343D9DFB56
100
AcDbSymbolTableRecord
100
AcDbLinetypeTableRecord
  2
BYLAYER
 70
     0
  3

 72
    65
 73
     0
 40
0.0
  0
LTYPE
  5
7DE1B343D9DFB65
330
7DE1B343D9DFB56
100
AcDbSymbolTableRecord
100
AcDbLinetypeTableRecord
  2
CONTINUOUS
 70
     0
  3
Solid line
 72
    65
 73
     0
 40
0.0
  0
ENDTAB
  0
TABLE
  2
LAYER
  5
7DE1B343D9DFB53
330
0
100
AcDbSymbolTable
 70
     2
  0
LAYER
  5
7DE1B343D9DFB60
330
7DE1B343D9DFB53
100
AcDbSymbolTableRecord
100
AcDbLayerTableRecord
  2
0
 70
     0
 62
     7
  6
CONTINUOUS
  0
LAYER
  5
7DE1B343D9DFB70
330
7DE1B343D9DFB53
100
AcDbSymbolTableRecord
100
AcDbLayerTableRecord
  2
TEXT
 70
     0
 62
     3
  6
CONTINUOUS
  0
ENDTAB
  0
TABLE
  2
STYLE
  5
7DE1B343D9DFB54
330
0
100
AcDbSymbolTable
 70
     3
  0
STYLE
  5
7DE1B343D9DFB61
330
7DE1B343D9DFB54
100
AcDbSymbolTableRecord
100
AcDbTextStyleTableRecord
  2
STANDARD
 70
     0
 40
0.0
 41
1.0
 50
0.0
 71
     0
 42
0.3125
  3
txt
  4

  0
STYLE
  5
7DE1B343D9DFB6D
330
7DE1B343D9DFB54
100
AcDbSymbolTableRecord
100
AcDbTextStyleTableRecord
  2
ITALICC
 70
     0
 40
0.0
 41
1.0
 50
0.0
 71
     0
 42
0.125
  3
italicc
  4

  0
STYLE
  5
7DE1B343D9DFB7D
330
7DE1B343D9DFB54
100
AcDbSymbolTableRecord
100
AcDbTextStyleTableRecord
  2
ROMANS
 70
     0
 40
0.0
 41
1.0
 50
0.0
 71
     0
 42
0.125
  3
romans.shx
  4

  0
ENDTAB
  0
TABLE
  2
VIEW
  5
7DE1B343D9DFB57
330
0
100
AcDbSymbolTable
 70
     0
  0
ENDTAB
  0
TABLE
  2
UCS
  5
7DE1B343D9DFB58
330
0
100
AcDbSymbolTable
 70
     0
  0
ENDTAB
  0
TABLE
  2
APPID
  5
7DE1B343D9DFB5A
330
0
100
AcDbSymbolTable
 70
     1
  0
APPID
  5
7DE1B343D9DFB62
330
7DE1B343D9DFB5A
100
AcDbSymbolTableRecord
100
AcDbRegAppTableRecord
  2
ACAD
 70
     0
  0
ENDTAB
  0
TABLE
  2
DIMSTYLE
  5
7DE1B343D9DFB5B
330
0
100
AcDbSymbolTable
 70
     1
  0
DIMSTYLE
105
7DE1B343D9DFB75
330
7DE1B343D9DFB5B
100
AcDbSymbolTableRecord
100
AcDbDimStyleTableRecord
  2
STANDARD
 70
     0
  3

  4

  5

  6

  7

 40
1.0
 41
0.125
 42
0.125
 43
0.375
 44
0.125
 45
0.0
 46
0.0
 47
0.0
 48
0.0
140
0.125
141
-0.125
142
0.0
143
25.4
144
1.0
145
0.0
146
1.0
147
0.09
 71
     0
 72
     0
 73
     1
 74
     1
 75
     0
 76
     0
 77
     0
 78
     4
170
     0
171
     2
172
     0
173
     0
174
     1
175
     0
176
     0
177
     0
178
     0
270
     2
271
     3
272
     3
273
     2
274
     2
340
7DE1B343D9DFB7D
275
     0
280
     0
281
     0
282
     0
283
     1
284
     4
285
     0
286
     0
287
     3
288
     0
  0
ENDTAB
  0
TABLE
  2
BLOCK_RECORD
  5
7DE1B343D9DFB52
330
0
100
AcDbSymbolTable
 70
     0
  0
BLOCK_RECORD
  5
7DE1B343D9DFB69
102
{ACAD_XDICTIONARY
360
7DE1B343D9DFBB0
102
}
330
7DE1B343D9DFB52
100
AcDbSymbolTableRecord
100
AcDbBlockTableRecord
  2
*MODEL_SPACE
  0
BLOCK_RECORD
  5
7DE1B343D9DFB66
102
{ACAD_XDICTIONARY
360
7DE1B343D9DFBAE
102
}
330
7DE1B343D9DFB52
100
AcDbSymbolTableRecord
100
AcDbBlockTableRecord
  2
*PAPER_SPACE
  0
ENDTAB
  0
ENDSEC
  0
SECTION
  2
BLOCKS
  0
BLOCK
  5
7DE1B343D9DFB73
330
7DE1B343D9DFB69
100
AcDbEntity
  8
0
100
AcDbBlockBegin
  2
*MODEL_SPACE
 70
     0
 10
0.0
 20
0.0
 30
0.0
  3
*MODEL_SPACE
  1

  0
ENDBLK
  5
7DE1B343D9DFB74
330
7DE1B343D9DFB69
100
AcDbEntity
  8
0
100
AcDbBlockEnd
  0
BLOCK
  5
7DE1B343D9DFB71
330
7DE1B343D9DFB66
100
AcDbEntity
 67
     1
  8
0
100
AcDbBlockBegin
  2
*PAPER_SPACE
 70
     0
 10
0.0
 20
0.0
 30
0.0
  3
*PAPER_SPACE
  1

  0
ENDBLK
  5
7DE1B343D9DFB72
330
7DE1B343D9DFB66
100
AcDbEntity
 67
     1
  8
0
100
AcDbBlockEnd
  0
ENDSEC
  0
SECTION
  2
ENTITIES
  0
LWPOLYLINE
  5
7DE1B343D9DE5A8
330
7DE1B343D9DFB69
100
AcDbEntity
  8
0
100
AcDbPolyline
 90
       23
 70
     1
 43
0.0
 10
2.128246864735878
 20
1.223597571904113
 42
-0.4142135623730914
 10
2.112621864735878
 20
1.207972571904113
 10
1.562621864735878
 20
1.207972571904114
 42
-0.4142135623730951
 10
1.546996864735878
 20
1.223597571904114
 10
1.546996864735878
 20
1.244847571904113
 42
-0.4142135623730986
 10
1.562621864735878
 20
1.260472571904113
 10
1.810121864735878
 20
1.260472571904113
 10
1.810121864735878
 20
1.535472571904115
 10
1.562621864735878
 20
1.535472571904115
 42
-0.4142135623730951
 10
1.546996864735878
 20
1.551097571904115
 10
1.546996864735877
 20
1.572347571904114
 42
-0.4142135623730951
 10
1.562621864735877
 20
1.587972571904114
 10
2.112621864735877
 20
1.587972571904114
 42
-0.4142135623730914
 10
2.128246864735877
 20
1.572347571904114
 10
2.128246864735878
 20
1.551097571904115
 42
-0.4142135623730951
 10
2.112621864735878
 20
1.535472571904115
 10
1.968871864735876
 20
1.535472571904115
 10
1.958871864735877
 20
1.545472571904115
 10
1.948871864735877
 20
1.535472571904115
 10
1.865121864735877
 20
1.535472571904115
 10
1.865121864735877
 20
1.260472571904113
 10
2.112621864735878
 20
1.260472571904113
 42
-0.4142135623730951
 10
2.128246864735878
 20
1.244847571904113
  0
TEXT
  5
7DE1B343D9DFA14
330
7DE1B343D9DFB69
100
AcDbEntity
  8
TEXT
100
AcDbText
 10
1.084645674259687
 20
0.9154870568129672
 30
0.0
 40
0.125
  1
PART #120016
  7
ITALICC
 72
     1
 11
1.837621864735878
 21
0.9154870568129672
 31
0.0
100
AcDbText
  0
TEXT
  5
7DE1B343D9DFA15
330
7DE1B343D9DFB69
100
AcDbEntity
  8
TEXT
100
AcDbText
 10
2.250927022986199
 20
0.468564414140592
 30
0.0
 40
0.0522247191011236
  1
Phone  1-800-328-2495
 41
1.272321428571429
 72
     5
 11
3.579859607255862
 21
0.468564414140592
 31
0.0
100
AcDbText
  0
TEXT
  5
7DE1B343D9DFA16
330
7DE1B343D9DFB69
100
AcDbEntity
  8
TEXT
100
AcDbText
 10
2.250927022986199
 20
0.7483396950394685
 30
0.0
 40
0.0522247191011236
  1
Stylmark  Incorporated
 41
1.221428571428573
 72
     5
 11
3.579859607255862
 21
0.7483396950394685
 31
0.0
100
AcDbText
  0
TEXT
  5
7DE1B343D9DFA17
330
7DE1B343D9DFB69
100
AcDbEntity
  8
TEXT
100
AcDbText
 10
2.250927022986199
 20
0.6550812680731763
 30
0.0
 40
0.0522247191011236
  1
6536 Main St. N.E. * P.O. Box 32008
 41
0.8388932496075366
 72
     5
 11
3.579859607255862
 21
0.6550812680731763
 31
0.0
100
AcDbText
  0
TEXT
  5
7DE1B343D9DFA18
330
7DE1B343D9DFB69
100
AcDbEntity
  8
TEXT
100
AcDbText
 10
2.250927022986199
 20
0.5618228411068842
 30
0.0
 40
0.0522247191011236
  1
Minneapolis, MN 55432-0008
 41
1.11444212721585
 72
     5
 11
3.579859607255862
 21
0.5618228411068842
 31
0.0
100
AcDbText
  0
LWPOLYLINE
  5
7DE1B343D9DFA19
330
7DE1B343D9DFB69
100
AcDbEntity
  8
TEXT
100
AcDbPolyline
 90
        3
 70
     0
 43
0.0006660908203125
 10
0.0949733309188914
 20
0.5822091767780269
 10
0.0949733309188914
 20
0.4689737373248992
 10
0.2082087703720137
 20
0.4689737373248992
  0
LWPOLYLINE
  5
7DE1B343D9DFA1E
330
7DE1B343D9DFB69
100
AcDbEntity
  8
TEXT
100
AcDbPolyline
 90
        3
 70
     0
 43
0.0006660908203125
 10
0.1216169637313889
 20
0.5822091767780269
 10
0.1216169637313889
 20
0.4956173701374003
 10
0.2082087703720137
 20
0.4956173701374003
  0
LWPOLYLINE
  5
7DE1B343D9DFA23
330
7DE1B343D9DFB69
100
AcDbEntity
  8
TEXT
100
AcDbPolyline
 90
        2
 70
     0
 43
0.0001332181640625
 10
0.1682433211532657
 20
0.5922005390827121
 10
0.0949733309188914
 20
0.5822091767780269
  0
LWPOLYLINE
  5
7DE1B343D9DFA27
330
7DE1B343D9DFB69
100
AcDbEntity
  8
TEXT
100
AcDbPolyline
 90
        2
 70
     0
 43
0.0001332181640625
 10
0.1216169637313889
 20
0.5822091767780269
 10
0.1815651375595162
 20
0.5922005390827121
  0
LWPOLYLINE
  5
7DE1B343D9DFA2B
330
7DE1B343D9DFB69
100
AcDbEntity
  8
TEXT
100
AcDbPolyline
 90
        2
 70
     0
 43
0.0001332181640625
 10
0.1216169637313889
 20
0.4956173701374003
 10
0.1815651375595162
 20
0.5555655439655258
  0
LWPOLYLINE
  5
7DE1B343D9DFA2F
330
7DE1B343D9DFB69
100
AcDbEntity
  8
TEXT
100
AcDbPolyline
 90
        3
 70
     0
 43
0.0006660908203125
 10
0.2082087703720137
 20
0.7354100654499025
 10
0.0949733309188914
 20
0.7354100654499025
 10
0.0949733309188914
 20
0.6221746259967749
  0
LWPOLYLINE
  5
7DE1B343D9DFA34
330
7DE1B343D9DFB69
100
AcDbEntity
  8
TEXT
100
AcDbPolyline
 90
        3
 70
     0
 43
0.0006660908203125
 10
0.2082087703720137
 20
0.7087664326374015
 10
0.1216169637313889
 20
0.7087664326374015
 10
0.1216169637313889
 20
0.6221746259967749
  0
LWPOLYLINE
  5
7DE1B343D9DFA39
330
7DE1B343D9DFB69
100
AcDbEntity
  8
TEXT
100
AcDbPolyline
 90
        2
 70
     0
 43
0.0001332181640625
 10
0.1216169637313889
 20
0.7087664326374015
 10
0.1815651375595144
 20
0.6488182588092759
  0
LWPOLYLINE
  5
7DE1B343D9DFA3D
330
7DE1B343D9DFB69
100
AcDbEntity
  8
TEXT
100
AcDbPolyline
 90
        2
 70
     0
 43
0.0001332181640625
 10
0.1216169637313889
 20
0.6221746259967749
 10
0.1815651375595144
 20
0.6121832636920861
  0
LWPOLYLINE
  5
7DE1B343D9DFA41
330
7DE1B343D9DFB69
100
AcDbEntity
  8
TEXT
100
AcDbPolyline
 90
        2
 70
     0
 43
0.0001332181640625
 10
0.0949733309188914
 20
0.6221746259967749
 10
0.1682433211532657
 20
0.6121832636920861
  0
LWPOLYLINE
  5
7DE1B343D9DFA45
330
7DE1B343D9DFB69
100
AcDbEntity
  8
TEXT
100
AcDbPolyline
 90
        2
 70
     0
 43
0.0006660908203125
 10
0.1216169637313889
 20
0.5822091767780269
 10
0.0949733309188914
 20
0.5822091767780269
  0
LWPOLYLINE
  5
7DE1B343D9DFA49
330
7DE1B343D9DFB69
100
AcDbEntity
  8
TEXT
100
AcDbPolyline
 90
        2
 70
     0
 43
0.0006660908203125
 10
0.1216169637313889
 20
0.6221746259967749
 10
0.0949733309188914
 20
0.6221746259967749
  0
LINE
  5
7DE1B343D9DFA4D
330
7DE1B343D9DFB69
100
AcDbEntity
  8
TEXT
100
AcDbLine
 10
1.610163760045388
 20
0.6711333707931335
 30
0.0
 11
1.502957486658099
 21
0.6711333707931335
 31
0.0
  0
LINE
  5
7DE1B343D9DFA4E
330
7DE1B343D9DFB69
100
AcDbEntity
  8
TEXT
100
AcDbLine
 10
1.639194658389867
 20
0.7354100654498989
 30
0.0
 11
1.504362749172808
 21
0.7354100654498989
 31
0.0
  0
ARC
  5
7DE1B343D9DFA4F
330
7DE1B343D9DFB69
100
AcDbEntity
  8
TEXT
100
AcDbCircle
 10
1.563676845566125
 20
0.5661728161868826
 30
0.0
 40
0.0676855811441166
100
AcDbArc
 50
90.0
 51
153.7768192527749
  0
LWPOLYLINE
  5
7DE1B343D9DFA50
330
7DE1B343D9DFB69
100
AcDbEntity
  8
TEXT
100
AcDbPolyline
 90
        2
 70
     0
 43
0.0
 10
1.501924991203289
 20
0.5124279774118261
 42
0.2901071551932823
 10
1.545000924070925
 20
0.468937032461388
 42
5.328517124445801
  0
ARC
  5
7DE1B343D9DFA54
330
7DE1B343D9DFB69
100
AcDbEntity
  8
TEXT
100
AcDbCircle
 10
0.8585454678946394
 20
0.5287294237994378
 30
0.0
 40
0.0601160179737537
100
AcDbArc
 50
180.0000000000003
 51
264.0521544866073
  0
LINE
  5
7DE1B343D9DFA55
330
7DE1B343D9DFB69
100
AcDbEntity
  8
TEXT
100
AcDbLine
 10
0.8620608235201871
 20
0.7697979830440371
 30
0.0
 11
0.80201821867618
 21
0.7697979830440371
 31
0.0
  0
ARC
  5
7DE1B343D9DFA56
330
7DE1B343D9DFB69
100
AcDbEntity
  8
TEXT
100
AcDbCircle
 10
0.6262864657776688
 20
0.6533226060033972
 30
0.0
 40
0.0820874594465043
100
AcDbArc
 50
90.0
 51
270.0
  0
LWPOLYLINE
  5
7DE1B343D9DFA57
330
7DE1B343D9DFB69
100
AcDbEntity
  8
TEXT
100
AcDbPolyline
 90
        2
 70
     0
 43
0.0001332181640625
 10
0.2182001326767042
 20
0.6621400752155229
 10
0.2082087703720137
 20
0.7354100654499025
  0
LWPOLYLINE
  5
7DE1B343D9DFA5B
330
7DE1B343D9DFB69
100
AcDbEntity
  8
TEXT
100
AcDbPolyline
 90
        2
 70
     0
 43
0.0001332181640625
 10
0.2082087703720137
 20
0.7087664326374015
 10
0.2182001326767042
 20
0.6488182588092759
  0
LWPOLYLINE
  5
7DE1B343D9DFA5F
330
7DE1B343D9DFB69
100
AcDbEntity
  8
TEXT
100
AcDbPolyline
 90
        3
 70
     0
 43
0.0006660908203125
 10
0.3614096590438911
 20
0.6221746259967749
 10
0.3614096590438911
 20
0.7354100654499025
 10
0.2481742195907652
 20
0.7354100654499025
  0
LWPOLYLINE
  5
7DE1B343D9DFA64
330
7DE1B343D9DFB69
100
AcDbEntity
  8
TEXT
100
AcDbPolyline
 90
        3
 70
     0
 43
0.0006660908203125
 10
0.3347660262313901
 20
0.6221746259967749
 10
0.3347660262313901
 20
0.7087664326374015
 10
0.2481742195907652
 20
0.7087664326374015
  0
LWPOLYLINE
  5
7DE1B343D9DFA69
330
7DE1B343D9DFB69
100
AcDbEntity
  8
TEXT
100
AcDbPolyline
 90
        2
 70
     0
 43
0.0001332181640625
 10
0.3347660262313901
 20
0.7087664326374015
 10
0.2748178524032663
 20
0.6488182588092759
  0
LWPOLYLINE
  5
7DE1B343D9DFA6D
330
7DE1B343D9DFB69
100
AcDbEntity
  8
TEXT
100
AcDbPolyline
 90
        2
 70
     0
 43
0.0001332181640625
 10
0.2481742195907652
 20
0.7087664326374015
 10
0.2381828572860765
 20
0.6488182588092759
  0
LWPOLYLINE
  5
7DE1B343D9DFA71
330
7DE1B343D9DFB69
100
AcDbEntity
  8
TEXT
100
AcDbPolyline
 90
        2
 70
     0
 43
0.0001332181640625
 10
0.2481742195907652
 20
0.7354100654499025
 10
0.2381828572860765
 20
0.6621400752155229
  0
LWPOLYLINE
  5
7DE1B343D9DFA75
330
7DE1B343D9DFB69
100
AcDbEntity
  8
TEXT
100
AcDbPolyline
 90
        2
 70
     0
 43
0.0001332181640625
 10
0.288139668809515
 20
0.6121832636920861
 10
0.3614096590438911
 20
0.6221746259967749
  0
LWPOLYLINE
  5
7DE1B343D9DFA79
330
7DE1B343D9DFB69
100
AcDbEntity
  8
TEXT
100
AcDbPolyline
 90
        2
 70
     0
 43
0.0001332181640625
 10
0.3347660262313901
 20
0.6221746259967749
 10
0.2748178524032663
 20
0.6121832636920861
  0
LWPOLYLINE
  5
7DE1B343D9DFA7D
330
7DE1B343D9DFB69
100
AcDbEntity
  8
TEXT
100
AcDbPolyline
 90
        2
 70
     0
 43
0.0001332181640625
 10
0.3614096590438911
 20
0.5822091767780269
 10
0.288139668809515
 20
0.5922005390827121
  0
LWPOLYLINE
  5
7DE1B343D9DFA81
330
7DE1B343D9DFB69
100
AcDbEntity
  8
TEXT
100
AcDbPolyline
 90
        2
 70
     0
 43
0.0001332181640625
 10
0.3347660262313901
 20
0.5822091767780269
 10
0.2748178524032663
 20
0.5922005390827121
  0
LWPOLYLINE
  5
7DE1B343D9DFA85
330
7DE1B343D9DFB69
100
AcDbEntity
  8
TEXT
100
AcDbPolyline
 90
        2
 70
     0
 43
0.0001332181640625
 10
0.3347660262313901
 20
0.4956173701374003
 10
0.2748178524032663
 20
0.5555655439655258
  0
LWPOLYLINE
  5
7DE1B343D9DFA89
330
7DE1B343D9DFB69
100
AcDbEntity
  8
TEXT
100
AcDbPolyline
 90
        3
 70
     0
 43
0.0006660908203125
 10
0.2481742195907652
 20
0.4956173701374003
 10
0.3347660262313901
 20
0.4956173701374003
 10
0.3347660262313901
 20
0.5822091767780269
  0
LWPOLYLINE
  5
7DE1B343D9DFA8E
330
7DE1B343D9DFB69
100
AcDbEntity
  8
TEXT
100
AcDbPolyline
 90
        3
 70
     0
 43
0.0006660908203125
 10
0.2481742195907652
 20
0.4689737373248992
 10
0.3614096590438911
 20
0.4689737373248992
 10
0.3614096590438911
 20
0.5822091767780269
  0
LWPOLYLINE
  5
7DE1B343D9DFA93
330
7DE1B343D9DFB69
100
AcDbEntity
  8
TEXT
100
AcDbPolyline
 90
        5
 70
     0
 43
0.0001332181640625
 10
0.2182001326767042
 20
0.5422437275592753
 10
0.2182001326767042
 20
0.5555655439655258
 10
0.1815651375595162
 20
0.5555655439655258
 10
0.1815651375595162
 20
0.5922005390827121
 10
0.1682433211532657
 20
0.5922005390827121
  0
LWPOLYLINE
  5
7DE1B343D9DFA9A
330
7DE1B343D9DFB69
100
AcDbEntity
  8
TEXT
100
AcDbPolyline
 90
        2
 70
     0
 43
0.0006660908203125
 10
0.2082087703720137
 20
0.4956173701374003
 10
0.2082087703720137
 20
0.4689737373248992
  0
LWPOLYLINE
  5
7DE1B343D9DFA9E
330
7DE1B343D9DFB69
100
AcDbEntity
  8
TEXT
100
AcDbPolyline
 90
        2
 70
     0
 43
0.0001332181640625
 10
0.2082087703720137
 20
0.4956173701374003
 10
0.2182001326767042
 20
0.5555655439655258
  0
LWPOLYLINE
  5
7DE1B343D9DFAA2
330
7DE1B343D9DFB69
100
AcDbEntity
  8
TEXT
100
AcDbPolyline
 90
        2
 70
     0
 43
0.0001332181640625
 10
0.2082087703720137
 20
0.4689737373248992
 10
0.2182001326767042
 20
0.5422437275592753
  0
LWPOLYLINE
  5
7DE1B343D9DFAA6
330
7DE1B343D9DFB69
100
AcDbEntity
  8
TEXT
100
AcDbPolyline
 90
        5
 70
     0
 43
0.0001332181640625
 10
0.1682433211532657
 20
0.6121832636920861
 10
0.1815651375595144
 20
0.6121832636920861
 10
0.1815651375595144
 20
0.6488182588092759
 10
0.2182001326767042
 20
0.6488182588092759
 10
0.2182001326767042
 20
0.6621400752155229
  0
LWPOLYLINE
  5
7DE1B343D9DFAAD
330
7DE1B343D9DFB69
100
AcDbEntity
  8
TEXT
100
AcDbPolyline
 90
        5
 70
     0
 43
0.0001332181640625
 10
0.2381828572860765
 20
0.6621400752155229
 10
0.2381828572860765
 20
0.6488182588092759
 10
0.2748178524032663
 20
0.6488182588092759
 10
0.2748178524032663
 20
0.6121832636920861
 10
0.288139668809515
 20
0.6121832636920861
  0
LWPOLYLINE
  5
7DE1B343D9DFAB4
330
7DE1B343D9DFB69
100
AcDbEntity
  8
TEXT
100
AcDbPolyline
 90
        2
 70
     0
 43
0.0001332181640625
 10
0.2481742195907652
 20
0.4956173701374003
 10
0.2381828572860765
 20
0.5555655439655258
  0
LWPOLYLINE
  5
7DE1B343D9DFAB8
330
7DE1B343D9DFB69
100
AcDbEntity
  8
TEXT
100
AcDbPolyline
 90
        2
 70
     0
 43
0.0001332181640625
 10
0.2381828572860765
 20
0.5422437275592753
 10
0.2481742195907652
 20
0.4689737373248992
  0
LWPOLYLINE
  5
7DE1B343D9DFABC
330
7DE1B343D9DFB69
100
AcDbEntity
  8
TEXT
100
AcDbPolyline
 90
        2
 70
     0
 43
0.0006660908203125
 10
0.2481742195907652
 20
0.4956173701374003
 10
0.2481742195907652
 20
0.4689737373248992
  0
LWPOLYLINE
  5
7DE1B343D9DFAC0
330
7DE1B343D9DFB69
100
AcDbEntity
  8
TEXT
100
AcDbPolyline
 90
        5
 70
     0
 43
0.0001332181640625
 10
0.288139668809515
 20
0.5922005390827121
 10
0.2748178524032663
 20
0.5922005390827121
 10
0.2748178524032663
 20
0.5555655439655258
 10
0.2381828572860765
 20
0.5555655439655258
 10
0.2381828572860765
 20
0.5422437275592753
  0
LWPOLYLINE
  5
7DE1B343D9DFAC7
330
7DE1B343D9DFB69
100
AcDbEntity
  8
TEXT
100
AcDbPolyline
 90
        2
 70
     0
 43
0.0006660908203125
 10
0.3347660262313901
 20
0.6221746259967749
 10
0.3614096590438911
 20
0.6221746259967749
  0
LWPOLYLINE
  5
7DE1B343D9DFACB
330
7DE1B343D9DFB69
100
AcDbEntity
  8
TEXT
100
AcDbPolyline
 90
        2
 70
     0
 43
0.0006660908203125
 10
0.3347660262313901
 20
0.5822091767780269
 10
0.3614096590438911
 20
0.5822091767780269
  0
LINE
  5
7DE1B343D9DFACF
330
7DE1B343D9DFB69
100
AcDbEntity
  8
TEXT
100
AcDbLine
 10
0.631523795891916
 20
0.6711333707931335
 30
0.0
 11
0.7984294499208873
 21
0.6711333707931335
 31
0.0
  0
LINE
  5
7DE1B343D9DFAD0
330
7DE1B343D9DFB69
100
AcDbEntity
  8
TEXT
100
AcDbLine
 10
0.6971239321362171
 20
0.6353286491825056
 30
0.0
 11
0.631523795891916
 21
0.6353286491825056
 31
0.0
  0
LINE
  5
7DE1B343D9DFAD1
330
7DE1B343D9DFB69
100
AcDbEntity
  8
TEXT
100
AcDbLine
 10
0.5441990063311644
 20
0.468937032461388
 30
0.0
 11
0.6971239321362171
 21
0.468937032461388
 31
0.0
  0
LINE
  5
7DE1B343D9DFAD2
330
7DE1B343D9DFB69
100
AcDbEntity
  8
TEXT
100
AcDbLine
 10
0.7020643060424967
 20
0.5372940387948273
 30
0.0
 11
0.5441990063311626
 21
0.5372940387948273
 31
0.0
  0
LINE
  5
7DE1B343D9DFAD3
330
7DE1B343D9DFB69
100
AcDbEntity
  8
TEXT
100
AcDbLine
 10
0.6262864657776679
 20
0.5712351465568919
 30
0.0
 11
0.7020643060424967
 21
0.5712351465568919
 31
0.0
  0
ARC
  5
7DE1B343D9DFAD4
330
7DE1B343D9DFB69
100
AcDbEntity
  8
TEXT
100
AcDbCircle
 10
0.6315237958919169
 20
0.6532310099878213
 30
0.0
 40
0.017902360805315
100
AcDbArc
 50
90.0
 51
270.0
  0
LINE
  5
7DE1B343D9DFAD5
330
7DE1B343D9DFB69
100
AcDbEntity
  8
TEXT
100
AcDbLine
 10
0.5441990063311626
 20
0.5372940387948273
 30
0.0
 11
0.5441990063311644
 21
0.468937032461388
 31
0.0
  0
LINE
  5
7DE1B343D9DFAD6
330
7DE1B343D9DFB69
100
AcDbEntity
  8
TEXT
100
AcDbLine
 10
0.7984294499208873
 20
0.6711333707931335
 30
0.0
 11
0.7984294499208873
 21
0.5287294237994378
 31
0.0
  0
ARC
  5
7DE1B343D9DFAD7
330
7DE1B343D9DFB69
100
AcDbEntity
  8
TEXT
100
AcDbCircle
 10
0.697123932136218
 20
0.552132840821945
 30
0.0
 40
0.0831958083605586
100
AcDbArc
 50
270.0
 51
90.0
  0
ARC
  5
7DE1B343D9DFAD8
330
7DE1B343D9DFB69
100
AcDbEntity
  8
TEXT
100
AcDbCircle
 10
0.7020643060424976
 20
0.5542645926758614
 30
0.0
 40
0.0169705538810321
100
AcDbArc
 50
270.0
 51
90.0
  0
LWPOLYLINE
  5
7DE1B343D9DFAD9
330
7DE1B343D9DFB69
100
AcDbEntity
  8
TEXT
100
AcDbPolyline
 90
        2
 70
     0
 43
0.0006660908203125
 10
0.2082087703720137
 20
0.7087664326374015
 10
0.2082087703720137
 20
0.7354100654499025
  0
LWPOLYLINE
  5
7DE1B343D9DFADD
330
7DE1B343D9DFB69
100
AcDbEntity
  8
TEXT
100
AcDbPolyline
 90
        2
 70
     0
 43
0.0006660908203125
 10
0.2481742195907652
 20
0.7087664326374015
 10
0.2481742195907652
 20
0.7354100654499025
  0
LINE
  5
7DE1B343D9DFAE1
330
7DE1B343D9DFB69
100
AcDbEntity
  8
TEXT
100
AcDbLine
 10
0.80201821867618
 20
0.7354100654498989
 30
0.0
 11
0.6262864657776679
 21
0.7354100654498989
 31
0.0
  0
LINE
  5
7DE1B343D9DFAE2
330
7DE1B343D9DFB69
100
AcDbEntity
  8
TEXT
100
AcDbLine
 10
0.80201821867618
 20
0.7697979830440371
 30
0.0
 11
0.80201821867618
 21
0.7354100654498989
 31
0.0
  0
LINE
  5
7DE1B343D9DFAE3
330
7DE1B343D9DFB69
100
AcDbEntity
  8
TEXT
100
AcDbLine
 10
0.9924901106960323
 20
0.6345380693367784
 30
0.0
 11
0.9338597896640944
 21
0.7354100654498989
 31
0.0
  0
LINE
  5
7DE1B343D9DFAE4
330
7DE1B343D9DFB69
100
AcDbEntity
  8
TEXT
100
AcDbLine
 10
1.051238673501897
 20
0.7354100654498989
 30
0.0
 11
0.9924901106960323
 21
0.6345380693367784
 31
0.0
  0
LINE
  5
7DE1B343D9DFAE5
330
7DE1B343D9DFB69
100
AcDbEntity
  8
TEXT
100
AcDbLine
 10
1.148169298861639
 20
0.5513248705643872
 30
0.0
 11
1.148169298861639
 21
0.8034215431887094
 31
0.0
  0
LINE
  5
7DE1B343D9DFAE6
330
7DE1B343D9DFB69
100
AcDbEntity
  8
TEXT
100
AcDbLine
 10
1.180481152999299
 20
0.7354100654498989
 30
0.0
 11
1.180481152999299
 21
0.5345458587174907
 31
0.0
  0
LINE
  5
7DE1B343D9DFAE7
330
7DE1B343D9DFB69
100
AcDbEntity
  8
TEXT
100
AcDbLine
 10
1.180481152999299
 20
0.5345458587174907
 30
0.0
 11
1.163487516114698
 21
0.5345458587174907
 31
0.0
  0
LINE
  5
7DE1B343D9DFAE8
330
7DE1B343D9DFB69
100
AcDbEntity
  8
TEXT
100
AcDbLine
 10
1.149308872357833
 20
0.468937032461388
 30
0.0
 11
1.247312206057268
 21
0.468937032461388
 31
0.0
  0
LINE
  5
7DE1B343D9DFAE9
330
7DE1B343D9DFB69
100
AcDbEntity
  8
TEXT
100
AcDbLine
 10
0.982889873699078
 20
0.4888955385664009
 30
0.0
 11
1.080189579792522
 21
0.653245749501669
 31
0.0
  0
ARC
  5
7DE1B343D9DFAEA
330
7DE1B343D9DFB69
100
AcDbEntity
  8
TEXT
100
AcDbCircle
 10
0.9488463137868642
 20
0.5084847547350837
 30
0.0
 40
0.0392772371940762
100
AcDbArc
 50
270.1604552698595
 51
330.0831797321295
  0
LINE
  5
7DE1B343D9DFAEB
330
7DE1B343D9DFB69
100
AcDbEntity
  8
TEXT
100
AcDbLine
 10
0.8523160574009928
 20
0.468937032461388
 30
0.0
 11
0.9489563084759872
 21
0.4692076715596702
 31
0.0
  0
LWPOLYLINE
  5
7DE1B343D9DFAEC
330
7DE1B343D9DFB69
100
AcDbEntity
  8
TEXT
100
AcDbPolyline
 90
        6
 70
     1
 43
0.0
 10
0.8948398609761426
 20
0.6711333707931335
 10
0.8645232667559344
 20
0.6711333707931335
 10
0.8645232667559344
 20
0.5480223727382392
 42
0.407328721240804
 10
0.8760669179174108
 20
0.5362034580618531
 10
0.9366886169621416
 20
0.5362034580618531
 10
0.9541539573694596
 20
0.5690156871053322
  0
LINE
  5
7DE1B343D9DFAF4
330
7DE1B343D9DFB69
100
AcDbEntity
  8
TEXT
100
AcDbLine
 10
1.080189579792522
 20
0.653245749501669
 30
0.0
 11
1.080189579792522
 21
0.5204883746763127
 31
0.0
  0
ARC
  5
7DE1B343D9DFAF5
330
7DE1B343D9DFB69
100
AcDbEntity
  8
TEXT
100
AcDbCircle
 10
1.163487516114696
 20
0.5499276649609162
 30
0.0
 40
0.0153818062434269
100
AcDbArc
 50
174.7883570302258
 51
270.0
  0
LWPOLYLINE
  5
7DE1B343D9DFAF6
330
7DE1B343D9DFB69
100
AcDbEntity
  8
TEXT
100
AcDbPolyline
 90
        2
 70
     0
 43
0.0
 10
1.08018957979252
 20
0.5204883746763163
 42
0.3318488747599744
 10
1.149308872357833
 20
0.468937032461388
 42
-6.868794160588311
  0
LINE
  5
7DE1B343D9DFAFA
330
7DE1B343D9DFB69
100
AcDbEntity
  8
TEXT
100
AcDbLine
 10
1.304701275046529
 20
0.468937032461388
 30
0.0
 11
1.371759321828369
 21
0.468937032461388
 31
0.0
  0
LINE
  5
7DE1B343D9DFAFB
330
7DE1B343D9DFB69
100
AcDbEntity
  8
TEXT
100
AcDbLine
 10
1.304701275046529
 20
0.6635795816270236
 30
0.0
 11
1.304701275046529
 21
0.468937032461388
 31
0.0
  0
LINE
  5
7DE1B343D9DFAFC
330
7DE1B343D9DFB69
100
AcDbEntity
  8
TEXT
100
AcDbLine
 10
1.247312206057268
 20
0.6711333707931335
 30
0.0
 11
1.297147485880416
 21
0.6711333707931335
 31
0.0
  0
LINE
  5
7DE1B343D9DFAFD
330
7DE1B343D9DFB69
100
AcDbEntity
  8
TEXT
100
AcDbLine
 10
1.247312206057268
 20
0.468937032461388
 30
0.0
 11
1.247312206057268
 21
0.6711333707931335
 31
0.0
  0
LWPOLYLINE
  5
7DE1B343D9DFAFE
330
7DE1B343D9DFB69
100
AcDbEntity
  8
TEXT
100
AcDbPolyline
 90
        2
 70
     0
 43
0.0
 10
1.297147485880414
 20
0.6711333707931335
 42
-0.4142135623731017
 10
1.304701275046527
 20
0.6635795816270236
 42
-0.9999999999999998
  0
LINE
  5
7DE1B343D9DFB02
330
7DE1B343D9DFB69
100
AcDbEntity
  8
TEXT
100
AcDbLine
 10
1.502957486658099
 20
0.6711333707931335
 30
0.0
 11
1.502957486658099
 21
0.5960809647189269
 31
0.0
  0
LINE
  5
7DE1B343D9DFB03
330
7DE1B343D9DFB69
100
AcDbEntity
  8
TEXT
100
AcDbLine
 10
1.371759321828369
 20
0.6711333707931335
 30
0.0
 11
1.425892918749319
 21
0.6711333707931335
 31
0.0
  0
LINE
  5
7DE1B343D9DFB04
330
7DE1B343D9DFB69
100
AcDbEntity
  8
TEXT
100
AcDbLine
 10
1.371759321828369
 20
0.468937032461388
 30
0.0
 11
1.371759321828369
 21
0.6711333707931335
 31
0.0
  0
LWPOLYLINE
  5
7DE1B343D9DFB05
330
7DE1B343D9DFB69
100
AcDbEntity
  8
TEXT
100
AcDbPolyline
 90
        2
 70
     0
 43
0.0
 10
1.425892918749318
 20
0.6711333707931335
 42
-0.4142135623731017
 10
1.433446707915431
 20
0.6635795816270236
 42
-0.9999999999999998
  0
LWPOLYLINE
  5
7DE1B343D9DFB09
330
7DE1B343D9DFB69
100
AcDbEntity
  8
TEXT
100
AcDbPolyline
 90
        4
 70
     0
 43
0.0
 10
1.433446707915431
 20
0.6635795816270236
 10
1.433446707915431
 20
0.468937032461388
 10
1.501924991203289
 20
0.468937032461388
 10
1.501924991203289
 20
0.5124279774118261
 42
-1.714843617202739
  0
LINE
  5
7DE1B343D9DFB0F
330
7DE1B343D9DFB69
100
AcDbEntity
  8
TEXT
100
AcDbLine
 10
0.8620608235201871
 20
0.7354100654498989
 30
0.0
 11
0.8620608235201871
 21
0.7697979830440371
 31
0.0
  0
LINE
  5
7DE1B343D9DFB10
330
7DE1B343D9DFB69
100
AcDbEntity
  8
TEXT
100
AcDbLine
 10
0.9338597896640944
 20
0.7354100654498989
 30
0.0
 11
0.8620608235201871
 21
0.7354100654498989
 31
0.0
  0
LINE
  5
7DE1B343D9DFB11
330
7DE1B343D9DFB69
100
AcDbEntity
  8
TEXT
100
AcDbLine
 10
1.081360586295274
 20
0.7354100654498989
 30
0.0
 11
1.051238673501897
 21
0.7354100654498989
 31
0.0
  0
LINE
  5
7DE1B343D9DFB12
330
7DE1B343D9DFB69
100
AcDbEntity
  8
TEXT
100
AcDbLine
 10
1.081360586295274
 20
0.8034215431887094
 30
0.0
 11
1.081360586295274
 21
0.7354100654498989
 31
0.0
  0
LINE
  5
7DE1B343D9DFB13
330
7DE1B343D9DFB69
100
AcDbEntity
  8
TEXT
100
AcDbLine
 10
1.148169298861639
 20
0.8034215431887094
 30
0.0
 11
1.081360586295274
 21
0.8034215431887094
 31
0.0
  0
LWPOLYLINE
  5
7DE1B343D9DFB14
330
7DE1B343D9DFB69
100
AcDbEntity
  8
TEXT
100
AcDbPolyline
 90
        3
 70
     0
 43
0.0
 10
1.468581058459641
 20
0.7354100654499025
 10
1.350280899643597
 20
0.7354100654499025
 10
1.350280899643597
 20
0.7082425686890066
 42
-1.960274751411753
  0
LINE
  5
7DE1B343D9DFB19
330
7DE1B343D9DFB69
100
AcDbEntity
  8
TEXT
100
AcDbLine
 10
1.314499208930435
 20
0.7354100654498989
 30
0.0
 11
1.180481152999299
 21
0.7354100654498989
 31
0.0
  0
LWPOLYLINE
  5
7DE1B343D9DFB1A
330
7DE1B343D9DFB69
100
AcDbEntity
  8
TEXT
100
AcDbPolyline
 90
        2
 70
     0
 43
0.0
 10
1.314499208930435
 20
0.7354100654499025
 42
-0.3328679258950098
 10
1.350280899643597
 20
0.7082425686890066
 42
6.772930709997214
  0
LINE
  5
7DE1B343D9DFB1E
330
7DE1B343D9DFB69
100
AcDbEntity
  8
TEXT
100
AcDbLine
 10
1.504362749172808
 20
0.7354100654498989
 30
0.0
 11
1.504362749172808
 21
0.7070875196802551
 31
0.0
  0
LWPOLYLINE
  5
7DE1B343D9DFB1F
330
7DE1B343D9DFB69
100
AcDbEntity
  8
TEXT
100
AcDbPolyline
 90
        2
 70
     0
 43
0.0
 10
1.468581058459641
 20
0.7354100654499025
 42
-0.3277054968067132
 10
1.504362749172806
 20
0.7070875196802586
 42
6.667889725900311
  0
LINE
  5
7DE1B343D9DFB23
330
7DE1B343D9DFB69
100
AcDbEntity
  8
TEXT
100
AcDbLine
 10
1.718154597264908
 20
0.6301980868964716
 30
0.0
 11
1.674403826083006
 21
0.7124483628926168
 31
0.0
  0
LINE
  5
7DE1B343D9DFB24
330
7DE1B343D9DFB69
100
AcDbEntity
  8
TEXT
100
AcDbLine
 10
1.718154597264908
 20
0.7354100654498989
 30
0.0
 11
1.718154597264908
 21
0.6301980868964716
 31
0.0
  0
LINE
  5
7DE1B343D9DFB25
330
7DE1B343D9DFB69
100
AcDbEntity
  8
TEXT
100
AcDbLine
 10
1.945838336203277
 20
0.6595447390383609
 30
0.0
 11
1.945838336203277
 21
0.8008742712174996
 31
0.0
  0
LINE
  5
7DE1B343D9DFB26
330
7DE1B343D9DFB69
100
AcDbEntity
  8
TEXT
100
AcDbLine
 10
1.992936494759261
 20
0.7354100654498989
 30
0.0
 11
1.945838336203277
 21
0.6595447390383609
 31
0.0
  0
LINE
  5
7DE1B343D9DFB27
330
7DE1B343D9DFB69
100
AcDbEntity
  8
TEXT
100
AcDbLine
 10
2.003371211523184
 20
0.6255168225089254
 30
0.0
 11
2.067928327488889
 21
0.7354100654498989
 31
0.0
  0
LINE
  5
7DE1B343D9DFB28
330
7DE1B343D9DFB69
100
AcDbEntity
  8
TEXT
100
AcDbLine
 10
1.882003344980504
 20
0.468937032461388
 30
0.0
 11
1.946381529299124
 21
0.468937032461388
 31
0.0
  0
LWPOLYLINE
  5
7DE1B343D9DFB29
330
7DE1B343D9DFB69
100
AcDbEntity
  8
TEXT
100
AcDbPolyline
 90
        2
 70
     0
 43
0.0
 10
1.722094274569946
 20
0.5124279774118261
 42
-0.2901071551932486
 10
1.679018341702301
 20
0.468937032461388
 42
-5.328517124445184
  0
ARC
  5
7DE1B343D9DFB2D
330
7DE1B343D9DFB69
100
AcDbEntity
  8
TEXT
100
AcDbCircle
 10
1.610163760045387
 20
0.6427739957931362
 30
0.0
 40
0.028359375
100
AcDbArc
 50
25.78218179591245
 51
90.0
  0
LINE
  5
7DE1B343D9DFB2E
330
7DE1B343D9DFB69
100
AcDbEntity
  8
TEXT
100
AcDbLine
 10
1.64596483534951
 20
0.6338583973310012
 30
0.0
 11
1.635700074935945
 21
0.6551089369036955
 31
0.0
  0
LINE
  5
7DE1B343D9DFB2F
330
7DE1B343D9DFB69
100
AcDbEntity
  8
TEXT
100
AcDbLine
 10
1.563676845566126
 20
0.6338583973310012
 30
0.0
 11
1.64596483534951
 21
0.6338583973310012
 31
0.0
  0
LWPOLYLINE
  5
7DE1B343D9DFB30
330
7DE1B343D9DFB69
100
AcDbEntity
  8
TEXT
100
AcDbPolyline
 90
        4
 70
     1
 43
0.0
 10
1.658895876632409
 20
0.5719010104454132
 10
1.57023555797255
 20
0.5719010104454132
 42
0.9999999999999998
 10
1.57023555797255
 20
0.5295024699415525
 10
1.658895876632409
 20
0.5295024699415525
 42
1.0
  0
LWPOLYLINE
  5
7DE1B343D9DFB36
330
7DE1B343D9DFB69
100
AcDbEntity
  8
TEXT
100
AcDbPolyline
 90
        2
 70
     0
 43
0.0
 10
1.545000924070925
 20
0.468937032461388
 10
1.679018341702301
 20
0.468937032461388
 42
0.9999999999999998
  0
LINE
  5
7DE1B343D9DFB3A
330
7DE1B343D9DFB69
100
AcDbEntity
  8
TEXT
100
AcDbLine
 10
1.805355363687941
 20
0.6711333707931335
 30
0.0
 11
1.882003344980498
 21
0.6711333707931335
 31
0.0
  0
LINE
  5
7DE1B343D9DFB3B
330
7DE1B343D9DFB69
100
AcDbEntity
  8
TEXT
100
AcDbLine
 10
1.882003344980498
 20
0.6711333707931335
 30
0.0
 11
1.882003344980504
 21
0.468937032461388
 31
0.0
  0
ARC
  5
7DE1B343D9DFB3C
330
7DE1B343D9DFB69
100
AcDbEntity
  8
TEXT
100
AcDbCircle
 10
1.805355363687939
 20
0.6462274955104708
 30
0.0
 40
0.0249058752826653
100
AcDbArc
 50
89.99971217465335
 51
179.9999999999985
  0
LINE
  5
7DE1B343D9DFB3D
330
7DE1B343D9DFB69
100
AcDbEntity
  8
TEXT
100
AcDbLine
 10
1.780449488405281
 20
0.468937032461388
 30
0.0
 11
1.780449488405276
 21
0.6462275378928564
 31
0.0
  0
LWPOLYLINE
  5
7DE1B343D9DFB3E
330
7DE1B343D9DFB69
100
AcDbEntity
  8
TEXT
100
AcDbPolyline
 90
        2
 70
     0
 43
0.0
 10
1.722094274569946
 20
0.468937032461388
 10
1.78044948840528
 20
0.468937032461388
  0
LWPOLYLINE
  5
7DE1B343D9DFB42
330
7DE1B343D9DFB69
100
AcDbEntity
  8
TEXT
100
AcDbPolyline
 90
        2
 70
     0
 43
0.0
 10
1.722094274569946
 20
0.5124279774118261
 10
1.722094274569946
 20
0.468937032461388
  0
LINE
  5
7DE1B343D9DFB46
330
7DE1B343D9DFB69
100
AcDbEntity
  8
TEXT
100
AcDbLine
 10
2.098863434886795
 20
0.468937032461388
 30
0.0
 11
2.003371211523184
 21
0.6255168225089254
 31
0.0
  0
LINE
  5
7DE1B343D9DFB47
330
7DE1B343D9DFB69
100
AcDbEntity
  8
TEXT
100
AcDbLine
 10
2.022285062510589
 20
0.468937032461388
 30
0.0
 11
2.098863434886795
 21
0.468937032461388
 31
0.0
  0
LINE
  5
7DE1B343D9DFB48
330
7DE1B343D9DFB69
100
AcDbEntity
  8
TEXT
100
AcDbLine
 10
1.946381529299124
 20
0.6005166009375682
 30
0.0
 11
2.022285062510589
 21
0.468937032461388
 31
0.0
  0
LINE
  5
7DE1B343D9DFB49
330
7DE1B343D9DFB69
100
AcDbEntity
  8
TEXT
100
AcDbLine
 10
1.946381529299124
 20
0.468937032461388
 30
0.0
 11
1.946381529299124
 21
0.6005166009375682
 31
0.0
  0
LINE
  5
7DE1B343D9DFB4A
330
7DE1B343D9DFB69
100
AcDbEntity
  8
TEXT
100
AcDbLine
 10
1.945838336203277
 20
0.8008742712174996
 30
0.0
 11
1.877523457654003
 21
0.8008742712174996
 31
0.0
  0
ARC
  5
7DE1B343D9DFB4B
330
7DE1B343D9DFB69
100
AcDbEntity
  8
TEXT
100
AcDbCircle
 10
1.637167718612797
 20
0.6938264983289966
 30
0.0
 40
0.0416329381542859
100
AcDbArc
 50
26.56974201007528
 51
87.20939649401342
  0
LINE
  5
7DE1B343D9DFB4C
330
7DE1B343D9DFB69
100
AcDbEntity
  8
TEXT
100
AcDbLine
 10
1.782051503564409
 20
0.7354100654498989
 30
0.0
 11
1.718154597264908
 21
0.7354100654498989
 31
0.0
  0
LINE
  5
7DE1B343D9DFB4D
330
7DE1B343D9DFB69
100
AcDbEntity
  8
TEXT
100
AcDbLine
 10
1.782051503564409
 20
0.7078624155890243
 30
0.0
 11
1.782051503564409
 21
0.7354100654498989
 31
0.0
  0
ARC
  5
7DE1B343D9DFB4E
330
7DE1B343D9DFB69
100
AcDbEntity
  8
TEXT
100
AcDbCircle
 10
1.813244320627516
 20
0.7041643381676341
 30
0.0
 40
0.0314112657011332
100
AcDbArc
 50
95.88484768694724
 51
173.2388340632136
  0
LINE
  5
7DE1B343D9DFB4F
330
7DE1B343D9DFB69
100
AcDbEntity
  8
TEXT
100
AcDbLine
 10
1.877523457653998
 20
0.7354100654498989
 30
0.0
 11
1.810023740004482
 21
0.7354100654498989
 31
0.0
  0
LINE
  5
7DE1B343D9DFB50
330
7DE1B343D9DFB69
100
AcDbEntity
  8
TEXT
100
AcDbLine
 10
1.877523457654003
 20
0.8008742712174996
 30
0.0
 11
1.877523457653998
 21
0.7354100654498989
 31
0.0
  0
LINE
  5
7DE1B343D9DFB51
330
7DE1B343D9DFB69
100
AcDbEntity
  8
TEXT
100
AcDbLine
 10
2.067928327488889
 20
0.7354100654498989
 30
0.0
 11
1.992936494759263
 21
0.7354100654498989
 31
0.0
  0
ENDSEC
  0
SECTION
  2
OBJECTS
  0
DICTIONARY
  5
7DE1B343D9DFB5D
330
0
100
AcDbDictionary
  3
ACAD_GROUP
350
7DE1B343D9DFB5E
  3
ACAD_LAYOUT
350
7DE1B343D9DFB83
  3
ACAD_MLINESTYLE
350
7DE1B343D9DFB5F
  3
ACAD_PLOTSETTINGS
350
7DE1B343D9DFB84
  3
ACAD_PLOTSTYLENAME
350
7DE1B343D9DFB81
  3
ACDBHEADERROUNDTRIPXREC
350
7DE1B343D9DFB8E
  3
ACDBVARIABLEDICTIONARY
350
7DE1B343D9DFB8B
  0
DICTIONARY
  5
7DE1B343D9DFBB0
330
7DE1B343D9DFB69
100
AcDbDictionary
280
     1
  3
ACAD_LAYOUTSELFREF
360
7DE1B343D9DFBB1
  0
DICTIONARY
  5
7DE1B343D9DFBAE
330
7DE1B343D9DFB66
100
AcDbDictionary
280
     1
  3
ACAD_LAYOUTSELFREF
360
7DE1B343D9DFBAF
  0
DICTIONARY
  5
7DE1B343D9DFB5E
102
{ACAD_REACTORS
330
7DE1B343D9DFB5D
102
}
330
7DE1B343D9DFB5D
100
AcDbDictionary
  0
DICTIONARY
  5
7DE1B343D9DFB83
102
{ACAD_REACTORS
330
7DE1B343D9DFB5D
102
}
330
7DE1B343D9DFB5D
100
AcDbDictionary
  0
DICTIONARY
  5
7DE1B343D9DFB5F
102
{ACAD_REACTORS
330
7DE1B343D9DFB5D
102
}
330
7DE1B343D9DFB5D
100
AcDbDictionary
  3
STANDARD
350
7DE1B343D9DFB6C
  0
DICTIONARY
  5
7DE1B343D9DFB84
102
{ACAD_REACTORS
330
7DE1B343D9DFB5D
102
}
330
7DE1B343D9DFB5D
100
AcDbDictionary
  0
ACDBDICTIONARYWDFLT
  5
7DE1B343D9DFB81
102
{ACAD_REACTORS
330
7DE1B343D9DFB5D
102
}
330
7DE1B343D9DFB5D
100
AcDbDictionary
281
     1
  3
Normal
350
7DE1B343D9DFB82
100
AcDbDictionaryWithDefault
340
7DE1B343D9DFB82
  0
DICTIONARY
  5
7DE1B343D9DFB8E
102
{ACAD_REACTORS
330
7DE1B343D9DFB5D
102
}
330
7DE1B343D9DFB5D
100
AcDbDictionary
  3
CEPSNTYPE
350
7DE1B343D9DFB98
  3
FINGERPRINTGUID
350
7DE1B343D9DFB99
  3
HYPERLINKBASE
350
7DE1B343D9DFB91
  3
INSUNITS
350
7DE1B343D9DFB97
  3
LAYOUTDICT
350
7DE1B343D9DFB93
  3
LWETCUNION
350
7DE1B343D9DFB96
  3
PLOTSETDICT
350
7DE1B343D9DFB94
  3
PLOTSTYLNAMDICT
350
7DE1B343D9DFB95
  3
PSVPSCALE
350
7DE1B343D9DFB9B
  3
PUCSBASE
350
7DE1B343D9DFB9E
  3
PUCSORGBACK
350
7DE1B343D9DFBA4
  3
PUCSORGBOTTOM
350
7DE1B343D9DFBA0
  3
PUCSORGFRONT
350
7DE1B343D9DFBA3
  3
PUCSORGLEFT
350
7DE1B343D9DFBA1
  3
PUCSORGRIGHT
350
7DE1B343D9DFBA2
  3
PUCSORGTOP
350
7DE1B343D9DFB9F
  3
PUCSORTHOREF
350
7DE1B343D9DFB9C
  3
PUCSORTHOVIEW
350
7DE1B343D9DFB9D
  3
STYLESHEET
350
7DE1B343D9DFB92
  3
TSTACKALIGN
350
7DE1B343D9DFB8F
  3
TSTACKSIZE
350
7DE1B343D9DFB90
  3
UCSBASE
350
7DE1B343D9DFBA7
  3
UCSORGBACK
350
7DE1B343D9DFBAD
  3
UCSORGBOTTOM
350
7DE1B343D9DFBA9
  3
UCSORGFRONT
350
7DE1B343D9DFBAC
  3
UCSORGLEFT
350
7DE1B343D9DFBAA
  3
UCSORGRIGHT
350
7DE1B343D9DFBAB
  3
UCSORGTOP
350
7DE1B343D9DFBA8
  3
UCSORTHOREF
350
7DE1B343D9DFBA5
  3
UCSORTHOVIEW
350
7DE1B343D9DFBA6
  3
VERSIONGUID
350
7DE1B343D9DFB9A
  0
DICTIONARY
  5
7DE1B343D9DFB8B
102
{ACAD_REACTORS
330
7DE1B343D9DFB5D
102
}
330
7DE1B343D9DFB5D
100
AcDbDictionary
  3
DIMASSOC
350
7DE1B343D9DFB8C
  0
XRECORD
  5
7DE1B343D9DFBB1
102
{ACAD_REACTORS
330
7DE1B343D9DFBB0
102
}
330
7DE1B343D9DFBB0
100
AcDbXrecord
340
7DE1B343D9DFB69
  0
XRECORD
  5
7DE1B343D9DFBAF
102
{ACAD_REACTORS
330
7DE1B343D9DFBAE
102
}
330
7DE1B343D9DFBAE
100
AcDbXrecord
340
7DE1B343D9DFB66
  0
MLINESTYLE
  5
7DE1B343D9DFB6C
102
{ACAD_REACTORS
330
7DE1B343D9DFB5F
102
}
330
7DE1B343D9DFB5F
100
AcDbMlineStyle
  2
STANDARD
 70
     0
  3

 62
     0
 51
90.0
 52
90.0
 71
     2
 49
0.5
 62
   256
  6
BYLAYER
 49
-0.5
 62
   256
  6
BYLAYER
  0
ACDBPLACEHOLDER
  5
7DE1B343D9DFB82
102
{ACAD_REACTORS
330
7DE1B343D9DFB81
102
}
330
7DE1B343D9DFB81
100
AcDbPlaceHolder
280
     0
  0
XRECORD
  5
7DE1B343D9DFB98
102
{ACAD_REACTORS
330
7DE1B343D9DFB8E
102
}
330
7DE1B343D9DFB8E
100
AcDbXrecord
 90
        0
  0
XRECORD
  5
7DE1B343D9DFB99
102
{ACAD_REACTORS
330
7DE1B343D9DFB8E
102
}
330
7DE1B343D9DFB8E
100
AcDbXrecord
  1
{447858B0-8DB9-11D6-88E6-0090279574E7}
  0
XRECORD
  5
7DE1B343D9DFB91
102
{ACAD_REACTORS
330
7DE1B343D9DFB8E
102
}
330
7DE1B343D9DFB8E
100
AcDbXrecord
  1

  0
XRECORD
  5
7DE1B343D9DFB97
102
{ACAD_REACTORS
330
7DE1B343D9DFB8E
102
}
330
7DE1B343D9DFB8E
100
AcDbXrecord
 90
        0
  0
XRECORD
  5
7DE1B343D9DFB93
102
{ACAD_REACTORS
330
7DE1B343D9DFB8E
102
}
330
7DE1B343D9DFB8E
100
AcDbXrecord
340
7DE1B343D9DFB83
  0
XRECORD
  5
7DE1B343D9DFB96
102
{ACAD_REACTORS
330
7DE1B343D9DFB8E
102
}
330
7DE1B343D9DFB8E
100
AcDbXrecord
 90
    14877
  0
XRECORD
  5
7DE1B343D9DFB94
102
{ACAD_REACTORS
330
7DE1B343D9DFB8E
102
}
330
7DE1B343D9DFB8E
100
AcDbXrecord
340
7DE1B343D9DFB84
  0
XRECORD
  5
7DE1B343D9DFB95
102
{ACAD_REACTORS
330
7DE1B343D9DFB8E
102
}
330
7DE1B343D9DFB8E
100
AcDbXrecord
340
7DE1B343D9DFB81
  0
XRECORD
  5
7DE1B343D9DFB9B
102
{ACAD_REACTORS
330
7DE1B343D9DFB8E
102
}
330
7DE1B343D9DFB8E
100
AcDbXrecord
 40
0.0
  0
XRECORD
  5
7DE1B343D9DFB9E
102
{ACAD_REACTORS
330
7DE1B343D9DFB8E
102
}
330
7DE1B343D9DFB8E
100
AcDbXrecord
340
0
  0
XRECORD
  5
7DE1B343D9DFBA4
102
{ACAD_REACTORS
330
7DE1B343D9DFB8E
102
}
330
7DE1B343D9DFB8E
100
AcDbXrecord
 10
0.0
 20
0.0
 30
0.0
  0
XRECORD
  5
7DE1B343D9DFBA0
102
{ACAD_REACTORS
330
7DE1B343D9DFB8E
102
}
330
7DE1B343D9DFB8E
100
AcDbXrecord
 10
0.0
 20
0.0
 30
0.0
  0
XRECORD
  5
7DE1B343D9DFBA3
102
{ACAD_REACTORS
330
7DE1B343D9DFB8E
102
}
330
7DE1B343D9DFB8E
100
AcDbXrecord
 10
0.0
 20
0.0
 30
0.0
  0
XRECORD
  5
7DE1B343D9DFBA1
102
{ACAD_REACTORS
330
7DE1B343D9DFB8E
102
}
330
7DE1B343D9DFB8E
100
AcDbXrecord
 10
0.0
 20
0.0
 30
0.0
  0
XRECORD
  5
7DE1B343D9DFBA2
102
{ACAD_REACTORS
330
7DE1B343D9DFB8E
102
}
330
7DE1B343D9DFB8E
100
AcDbXrecord
 10
0.0
 20
0.0
 30
0.0
  0
XRECORD
  5
7DE1B343D9DFB9F
102
{ACAD_REACTORS
330
7DE1B343D9DFB8E
102
}
330
7DE1B343D9DFB8E
100
AcDbXrecord
 10
0.0
 20
0.0
 30
0.0
  0
XRECORD
  5
7DE1B343D9DFB9C
102
{ACAD_REACTORS
330
7DE1B343D9DFB8E
102
}
330
7DE1B343D9DFB8E
100
AcDbXrecord
340
0
  0
XRECORD
  5
7DE1B343D9DFB9D
102
{ACAD_REACTORS
330
7DE1B343D9DFB8E
102
}
330
7DE1B343D9DFB8E
100
AcDbXrecord
 70
     0
  0
XRECORD
  5
7DE1B343D9DFB92
102
{ACAD_REACTORS
330
7DE1B343D9DFB8E
102
}
330
7DE1B343D9DFB8E
100
AcDbXrecord
  1

  0
XRECORD
  5
7DE1B343D9DFB8F
102
{ACAD_REACTORS
330
7DE1B343D9DFB8E
102
}
330
7DE1B343D9DFB8E
100
AcDbXrecord
 90
        1
  0
XRECORD
  5
7DE1B343D9DFB90
102
{ACAD_REACTORS
330
7DE1B343D9DFB8E
102
}
330
7DE1B343D9DFB8E
100
AcDbXrecord
 90
       70
  0
XRECORD
  5
7DE1B343D9DFBA7
102
{ACAD_REACTORS
330
7DE1B343D9DFB8E
102
}
330
7DE1B343D9DFB8E
100
AcDbXrecord
340
0
  0
XRECORD
  5
7DE1B343D9DFBAD
102
{ACAD_REACTORS
330
7DE1B343D9DFB8E
102
}
330
7DE1B343D9DFB8E
100
AcDbXrecord
 10
0.0
 20
0.0
 30
0.0
  0
XRECORD
  5
7DE1B343D9DFBA9
102
{ACAD_REACTORS
330
7DE1B343D9DFB8E
102
}
330
7DE1B343D9DFB8E
100
AcDbXrecord
 10
0.0
 20
0.0
 30
0.0
  0
XRECORD
  5
7DE1B343D9DFBAC
102
{ACAD_REACTORS
330
7DE1B343D9DFB8E
102
}
330
7DE1B343D9DFB8E
100
AcDbXrecord
 10
0.0
 20
0.0
 30
0.0
  0
XRECORD
  5
7DE1B343D9DFBAA
102
{ACAD_REACTORS
330
7DE1B343D9DFB8E
102
}
330
7DE1B343D9DFB8E
100
AcDbXrecord
 10
0.0
 20
0.0
 30
0.0
  0
XRECORD
  5
7DE1B343D9DFBAB
102
{ACAD_REACTORS
330
7DE1B343D9DFB8E
102
}
330
7DE1B343D9DFB8E
100
AcDbXrecord
 10
0.0
 20
0.0
 30
0.0
  0
XRECORD
  5
7DE1B343D9DFBA8
102
{ACAD_REACTORS
330
7DE1B343D9DFB8E
102
}
330
7DE1B343D9DFB8E
100
AcDbXrecord
 10
0.0
 20
0.0
 30
0.0
  0
XRECORD
  5
7DE1B343D9DFBA5
102
{ACAD_REACTORS
330
7DE1B343D9DFB8E
102
}
330
7DE1B343D9DFB8E
100
AcDbXrecord
340
0
  0
XRECORD
  5
7DE1B343D9DFBA6
102
{ACAD_REACTORS
330
7DE1B343D9DFB8E
102
}
330
7DE1B343D9DFB8E
100
AcDbXrecord
 70
     0
  0
XRECORD
  5
7DE1B343D9DFB9A
102
{ACAD_REACTORS
330
7DE1B343D9DFB8E
102
}
330
7DE1B343D9DFB8E
100
AcDbXrecord
  1
{447858B2-8DB9-11D6-88E6-0090279574E7}
  0
DICTIONARYVAR
  5
7DE1B343D9DFB8C
102
{ACAD_REACTORS
330
7DE1B343D9DFB8B
102
}
330
7DE1B343D9DFB8B
100
DictionaryVariables
280
     0
  1
1
  0
ENDSEC
  0
EOF
