  0
SECTION
  2
HEADER
  9
$ACADVER
  1
AC1014
  9
$ACADMAINTVER
 70
     9
  9
$DWGCODEPAGE
  3
ANSI_1252
  9
$INSBASE
 10
0.0
 20
0.0
 30
0.0
  9
$EXTMIN
 10
8.485461463548693
 20
44.97568305843677
 30
0.0
  9
$EXTMAX
 10
11.97068078529584
 20
46.79697994406684
 30
0.0
  9
$LIMMIN
 10
0.0
 20
0.0
  9
$LIMMAX
 10
12.0
 20
9.0
  9
$ORTHOMODE
 70
     0
  9
$REGENMODE
 70
     1
  9
$FILLMODE
 70
     1
  9
$QTEXTMODE
 70
     0
  9
$MIRRTEXT
 70
     0
  9
$DRAGMODE
 70
     2
  9
$LTSCALE
 40
1.0
  9
$OSMODE
 70
    39
  9
$ATTMODE
 70
     1
  9
$TEXTSIZE
 40
0.125
  9
$TRACEWID
 40
0.05
  9
$TEXTSTYLE
  7
ROMANS
  9
$CLAYER
  8
0
  9
$CELTYPE
  6
BYLAYER
  9
$CECOLOR
 62
   256
  9
$CELTSCALE
 40
1.0
  9
$DELOBJ
 70
     1
  9
$DISPSILH
 70
     1
  9
$DIMSCALE
 40
1.0
  9
$DIMASZ
 40
0.125
  9
$DIMEXO
 40
0.125
  9
$DIMDLI
 40
0.38
  9
$DIMRND
 40
0.0
  9
$DIMDLE
 40
0.0
  9
$DIMEXE
 40
0.125
  9
$DIMTP
 40
0.0
  9
$DIMTM
 40
0.0
  9
$DIMTXT
 40
0.125
  9
$DIMCEN
 40
-0.125
  9
$DIMTSZ
 40
0.0
  9
$DIMTOL
 70
     0
  9
$DIMLIM
 70
     0
  9
$DIMTIH
 70
     1
  9
$DIMTOH
 70
     1
  9
$DIMSE1
 70
     0
  9
$DIMSE2
 70
     0
  9
$DIMTAD
 70
     0
  9
$DIMZIN
 70
     4
  9
$DIMBLK
  1

  9
$DIMASO
 70
     1
  9
$DIMSHO
 70
     1
  9
$DIMPOST
  1

  9
$DIMAPOST
  1

  9
$DIMALT
 70
     0
  9
$DIMALTD
 70
     2
  9
$DIMALTF
 40
25.4
  9
$DIMLFAC
 40
1.0
  9
$DIMTOFL
 70
     0
  9
$DIMTVP
 40
0.0
  9
$DIMTIX
 70
     0
  9
$DIMSOXD
 70
     0
  9
$DIMSAH
 70
     0
  9
$DIMBLK1
  1

  9
$DIMBLK2
  1

  9
$DIMSTYLE
  2
110653
  9
$DIMCLRD
 70
     0
  9
$DIMCLRE
 70
     0
  9
$DIMCLRT
 70
     0
  9
$DIMTFAC
 40
1.0
  9
$DIMGAP
 40
0.09
  9
$DIMJUST
 70
     0
  9
$DIMSD1
 70
     0
  9
$DIMSD2
 70
     0
  9
$DIMTOLJ
 70
     1
  9
$DIMTZIN
 70
     4
  9
$DIMALTZ
 70
     0
  9
$DIMALTTZ
 70
     0
  9
$DIMFIT
 70
     3
  9
$DIMUPT
 70
     0
  9
$DIMUNIT
 70
     2
  9
$DIMDEC
 70
     3
  9
$DIMTDEC
 70
     3
  9
$DIMALTU
 70
     2
  9
$DIMALTTD
 70
     2
  9
$DIMTXSTY
  7
ROMANS
  9
$DIMAUNIT
 70
     0
  9
$LUNITS
 70
     2
  9
$LUPREC
 70
     4
  9
$SKETCHINC
 40
0.1
  9
$FILLETRAD
 40
0.016
  9
$AUNITS
 70
     0
  9
$AUPREC
 70
     0
  9
$MENU
  1
.
  9
$ELEVATION
 40
0.0
  9
$PELEVATION
 40
0.0
  9
$THICKNESS
 40
0.0
  9
$LIMCHECK
 70
     0
  9
$BLIPMODE
 70
     0
  9
$CHAMFERA
 40
0.5
  9
$CHAMFERB
 40
0.5
  9
$CHAMFERC
 40
1.0
  9
$CHAMFERD
 40
0.0
  9
$SKPOLY
 70
     0
  9
$TDCREATE
 40
2452349.615856504
  9
$TDUPDATE
 40
2452458.321593761
  9
$TDINDWG
 40
0.1154720486
  9
$TDUSRTIMER
 40
0.1154720486
  9
$USRTIMER
 70
     1
  9
$ANGBASE
 50
0.0
  9
$ANGDIR
 70
     0
  9
$PDMODE
 70
     0
  9
$PDSIZE
 40
0.0
  9
$PLINEWID
 40
0.0
  9
$COORDS
 70
     2
  9
$SPLFRAME
 70
     0
  9
$SPLINETYPE
 70
     6
  9
$SPLINESEGS
 70
     8
  9
$ATTDIA
 70
     0
  9
$ATTREQ
 70
     1
  9
$HANDLING
 70
 22529
  9
$HANDSEED
  5
1963
  9
$SURFTAB1
 70
     6
  9
$SURFTAB2
 70
     6
  9
$SURFTYPE
 70
     6
  9
$SURFU
 70
     6
  9
$SURFV
 70
     6
  9
$UCSNAME
  2

  9
$UCSORG
 10
0.0
 20
0.0
 30
0.0
  9
$UCSXDIR
 10
1.0
 20
0.0
 30
0.0
  9
$UCSYDIR
 10
0.0
 20
1.0
 30
0.0
  9
$PUCSNAME
  2

  9
$PUCSORG
 10
0.0
 20
0.0
 30
0.0
  9
$PUCSXDIR
 10
1.0
 20
0.0
 30
0.0
  9
$PUCSYDIR
 10
0.0
 20
1.0
 30
0.0
  9
$USERI1
 70
     0
  9
$USERI2
 70
     0
  9
$USERI3
 70
     0
  9
$USERI4
 70
     0
  9
$USERI5
 70
     0
  9
$USERR1
 40
0.0
  9
$USERR2
 40
0.0
  9
$USERR3
 40
0.0
  9
$USERR4
 40
0.0
  9
$USERR5
 40
0.0
  9
$WORLDVIEW
 70
     1
  9
$SHADEDGE
 70
     3
  9
$SHADEDIF
 70
    70
  9
$TILEMODE
 70
     1
  9
$MAXACTVP
 70
    48
  9
$PINSBASE
 10
0.0
 20
0.0
 30
0.0
  9
$PLIMCHECK
 70
     0
  9
$PEXTMIN
 10
1.000000000000000E+20
 20
1.000000000000000E+20
 30
1.000000000000000E+20
  9
$PEXTMAX
 10
-1.000000000000000E+20
 20
-1.000000000000000E+20
 30
-1.000000000000000E+20
  9
$PLIMMIN
 10
0.0
 20
0.0
  9
$PLIMMAX
 10
12.0
 20
9.0
  9
$UNITMODE
 70
     0
  9
$VISRETAIN
 70
     1
  9
$PLINEGEN
 70
     1
  9
$PSLTSCALE
 70
     1
  9
$TREEDEPTH
 70
  3020
  9
$PICKSTYLE
 70
     1
  9
$CMLSTYLE
  2
STANDARD
  9
$CMLJUST
 70
     0
  9
$CMLSCALE
 40
1.0
  9
$PROXYGRAPHICS
 70
     1
  9
$MEASUREMENT
 70
     0
  0
ENDSEC
  0
SECTION
  2
CLASSES
  0
CLASS
  1
DICTIONARYVAR
  2
AcDbDictionaryVar
  3
AutoCAD 2000
 90
        0
280
     0
281
     0
  0
CLASS
  1
LWPOLYLINE
  2
AcDbPolyline
  3
AutoCAD 2000
 90
        0
280
     0
281
     1
  0
CLASS
  1
ACDBDICTIONARYWDFLT
  2
AcDbDictionaryWithDefault
  3
AutoCAD 2000
 90
        0
280
     0
281
     0
  0
CLASS
  1
ACDBPLACEHOLDER
  2
AcDbPlaceHolder
  3
AutoCAD 2000
 90
        0
280
     0
281
     0
  0
CLASS
  1
LAYOUT
  2
AcDbLayout
  3
AutoCAD 2000
 90
        0
280
     0
281
     0
  0
CLASS
  1
LONG_TRANSACTION
  2
AcDbLongTransaction
  3
AutoCAD 2000
 90
        0
280
     0
281
     0
  0
CLASS
  1
LWPOLYLINE
  2
AcDbPolyline
  3
AutoCAD 2000
 90
        0
280
     0
281
     1
  0
CLASS
  1
HATCH
  2
AcDbHatch
  3
AutoCAD 2000
 90
        0
280
     0
281
     1
  0
CLASS
  1
XRECORD
  2
AcDbXrecord
  3
AutoCAD 2000
 90
        0
280
     0
281
     0
  0
ENDSEC
  0
SECTION
  2
TABLES
  0
TABLE
  2
VPORT
  5
8
330
0
100
AcDbSymbolTable
 70
     2
  0
VPORT
  5
193E
330
8
100
AcDbSymbolTableRecord
100
AcDbViewportTableRecord
  2
*ACTIVE
 70
     0
 10
0.0
 20
0.0
 11
1.0
 21
1.0
 12
13.15004014777397
 22
45.88503579155218
 13
0.0
 23
0.0
 14
0.5
 24
0.5
 15
0.5
 25
0.5
 16
0.0
 26
0.0
 36
1.0
 17
0.0
 27
0.0
 37
0.0
 40
2.163660628305246
 41
4.320930232558139
 42
50.0
 43
0.0
 44
0.0
 50
0.0
 51
0.0
 71
     0
 72
  2000
 73
     1
 74
     1
 75
     0
 76
     0
 77
     0
 78
     0
  0
ENDTAB
  0
TABLE
  2
LTYPE
  5
5
330
0
100
AcDbSymbolTable
 70
     1
  0
LTYPE
  5
12
330
5
100
AcDbSymbolTableRecord
100
AcDbLinetypeTableRecord
  2
BYBLOCK
 70
     0
  3

 72
    65
 73
     0
 40
0.0
  0
LTYPE
  5
13
330
5
100
AcDbSymbolTableRecord
100
AcDbLinetypeTableRecord
  2
BYLAYER
 70
     0
  3

 72
    65
 73
     0
 40
0.0
  0
LTYPE
  5
14
330
5
100
AcDbSymbolTableRecord
100
AcDbLinetypeTableRecord
  2
CONTINUOUS
 70
     0
  3
Solid line
 72
    65
 73
     0
 40
0.0
  0
ENDTAB
  0
TABLE
  2
LAYER
  5
2
330
0
100
AcDbSymbolTable
 70
     2
  0
LAYER
  5
E
330
2
100
AcDbSymbolTableRecord
100
AcDbLayerTableRecord
  2
0
 70
     0
 62
     7
  6
CONTINUOUS
  0
LAYER
  5
27
330
2
100
AcDbSymbolTableRecord
100
AcDbLayerTableRecord
  2
TEXT
 70
     0
 62
     3
  6
CONTINUOUS
  0
ENDTAB
  0
TABLE
  2
STYLE
  5
3
330
0
100
AcDbSymbolTable
 70
     3
  0
STYLE
  5
F
330
3
100
AcDbSymbolTableRecord
100
AcDbTextStyleTableRecord
  2
STANDARD
 70
     0
 40
0.0
 41
1.0
 50
0.0
 71
     0
 42
0.2
  3
txt
  4

  0
STYLE
  5
20
330
3
100
AcDbSymbolTableRecord
100
AcDbTextStyleTableRecord
  2
ROMANS
 70
     0
 40
0.0
 41
1.0
 50
0.0
 71
     0
 42
0.125
  3
romans.shx
  4

  0
STYLE
  5
182D
330
3
100
AcDbSymbolTableRecord
100
AcDbTextStyleTableRecord
  2
ITALICC
 70
     0
 40
0.0
 41
1.0
 50
0.0
 71
     0
 42
0.125
  3
italicc
  4

  0
ENDTAB
  0
TABLE
  2
VIEW
  5
6
330
0
100
AcDbSymbolTable
 70
     0
  0
ENDTAB
  0
TABLE
  2
UCS
  5
7
330
0
100
AcDbSymbolTable
 70
     0
  0
ENDTAB
  0
TABLE
  2
APPID
  5
9
330
0
100
AcDbSymbolTable
 70
     1
  0
APPID
  5
10
330
9
100
AcDbSymbolTableRecord
100
AcDbRegAppTableRecord
  2
ACAD
 70
     0
  0
ENDTAB
  0
TABLE
  2
DIMSTYLE
  5
A
330
0
100
AcDbSymbolTable
 70
     2
  0
DIMSTYLE
105
1D
330
A
100
AcDbSymbolTableRecord
100
AcDbDimStyleTableRecord
  2
STANDARD
 70
     0
  3

  4

  5

  6

  7

 40
1.0
 41
0.18
 42
0.0625
 43
0.38
 44
0.18
 45
0.0
 46
0.0
 47
0.0
 48
0.0
140
0.18
141
0.09
142
0.0
143
25.4
144
1.0
145
0.0
146
1.0
147
0.09
 71
     0
 72
     0
 73
     1
 74
     1
 75
     0
 76
     0
 77
     0
 78
     0
170
     0
171
     2
172
     0
173
     0
174
     0
175
     0
176
     0
177
     0
178
     0
270
     2
271
     4
272
     4
273
     2
274
     2
340
F
275
     0
280
     0
281
     0
282
     0
283
     1
284
     0
285
     0
286
     0
287
     3
288
     0
  0
DIMSTYLE
105
9A0
330
A
100
AcDbSymbolTableRecord
100
AcDbDimStyleTableRecord
  2
110653
 70
     0
  3

  4

  5

  6

  7

 40
1.0
 41
0.125
 42
0.125
 43
0.38
 44
0.125
 45
0.0
 46
0.0
 47
0.0
 48
0.0
140
0.125
141
-0.125
142
0.0
143
25.4
144
0.5
145
0.0
146
1.0
147
0.09
 71
     0
 72
     0
 73
     1
 74
     1
 75
     0
 76
     0
 77
     0
 78
     4
170
     0
171
     2
172
     0
173
     0
174
     0
175
     0
176
     0
177
     0
178
     0
270
     2
271
     3
272
     3
273
     2
274
     2
340
20
275
     0
280
     0
281
     0
282
     0
283
     1
284
     4
285
     0
286
     0
287
     3
288
     0
  0
ENDTAB
  0
TABLE
  2
BLOCK_RECORD
  5
1
330
0
100
AcDbSymbolTable
 70
     0
  0
BLOCK_RECORD
  5
18
102
{ACAD_XDICTIONARY
360
1961
102
}
330
1
100
AcDbSymbolTableRecord
100
AcDbBlockTableRecord
  2
*MODEL_SPACE
  0
BLOCK_RECORD
  5
15
102
{ACAD_XDICTIONARY
360
195F
102
}
330
1
100
AcDbSymbolTableRecord
100
AcDbBlockTableRecord
  2
*PAPER_SPACE
  0
ENDTAB
  0
ENDSEC
  0
SECTION
  2
BLOCKS
  0
BLOCK
  5
19
330
18
100
AcDbEntity
  8
0
100
AcDbBlockBegin
  2
*MODEL_SPACE
 70
     0
 10
0.0
 20
0.0
 30
0.0
  3
*MODEL_SPACE
  1

  0
ENDBLK
  5
1A
330
18
100
AcDbEntity
  8
0
100
AcDbBlockEnd
  0
BLOCK
  5
16
330
15
100
AcDbEntity
 67
     1
  8
0
100
AcDbBlockBegin
  2
*PAPER_SPACE
 70
     0
 10
0.0
 20
0.0
 30
0.0
  3
*PAPER_SPACE
  1

  0
ENDBLK
  5
17
330
15
100
AcDbEntity
 67
     1
  8
0
100
AcDbBlockEnd
  0
ENDSEC
  0
SECTION
  2
ENTITIES
  0
REGION
  5
17DF
330
18
100
AcDbEntity
  8
0
100
AcDbModelerGeometry
 70
     1
  1
noi nln n o         
  1
=0;& {rn {n {rn {rn |
  1
3*2/ {rn {rn {m {o |
  1
,7:33 {rn {rn {rn {l {n |
  1
9><: {rn {rn {k {m {rn {j 90-(>-; ;0*=3: 0*+ |
  1
300/ {rn {rn {i {l |
  1
/3>1:r,*-9><: {rn noqoiggglnlgfljjmf kiqmkljikfolofomnh o o o n n o o o V V V V |
  1
<0:;8: {rn {h {g {rn {f n {k {rn |
  1
<0:;8: {rn {no {i {rn {nn o {k {rn |
  1
<0:;8: {rn {i {nm {rn {nl n {k {rn |
  1
:;8: {rn {nk {nj {i {ni o |
  1
<0:;8: {rn {nh {h {rn {ng n {k {rn |
  1
:;8: {rn {nk {nf {h {mo o |
  1
<0:;8: {rn {g {mn {rn {mm n {k {rn |
  1
:;8: {rn {nj {ml {g {mk o |
  1
):-+:' {rn {f {mj |
  1
):-+:' {rn {f {mi |
  1
,+->687+r<*-): {rn noqnjohmnfmihoiil kjqhgmlkgihfigiigj o oqlkmomonkllmjijilf oqflfifmimohgjfnmgh o V V |
  1
<0:;8: {rn {mh {no {rn {mg n {k {rn |
  1
:;8: {rn {mf {nf {no {lo o |
  1
):-+:' {rn {ng {ln |
  1
:336/,:r<*-): {rn noqnijhjhoogilfmok kjqhhighiljhlflkhi o o o n oqonjffffffffffffnmi o o n V V |
  1
<0:;8: {rn {nm {lm {rn {ll n {k {rn |
  1
:;8: {rn {ml {lk {nm {lj o |
  1
):-+:' {rn {nl {li |
  1
,+->687+r<*-): {rn noqmknfoijkkmjnhlj kiqolmghiljhlflkhi o n o o V V |
  1
/061+ {rn noqnjohmnfmihoiil kjqhgmlkgihfigiigj o |
  1
/061+ {rn noqmknfoijkkmjnhlj kiqolmghiljhlflkhi o |
  1
<0:;8: {rn {lh {nh {rn {lg n {k {rn |
  1
:;8: {rn {lf {mf {nh {ko o |
  1
):-+:' {rn {mg {kn |
  1
,+->687+r<*-): {rn noqlnkhgnikojlnlmf kjqhioghiljhlflkhn o rn o o V V |
  1
/061+ {rn noqnijhjhoogilfmok kjqhioghiljhlflkhn o |
  1
<0:;8: {rn {mn {km {rn {kl n {k {rn |
  1
:;8: {rn {lk {kk {mn {kj o |
  1
):-+:' {rn {mm {ki |
  1
,+->687+r<*-): {rn noqmjmmgnikojlnlmf kiqolmghiljhlflkhi o o n o V V |
  1
/061+ {rn noqmjmmgnikojlnlmf kiqolmghiljhlflkhi o |
  1
<0:;8: {rn {kh {mh {rn {kg n {k {rn |
  1
:;8: {rn {kf {lf {mh {jo o |
  1
):-+:' {rn {lg {jn |
  1
,+->687+r<*-): {rn noqlnkhgnikojlnlmg kiqnjmlhiljhlflkhm o kqjlhlofflkinnnojk:ronj rn o V V |
  1
/061+ {rn noqlnkhgnikojlnlmf kjqhioghiljhlflkhn o |
  1
<0:;8: {rn {lm {jm {rn {jl o {k {rn |
  1
:;8: {rn {kk {jk {lm {jj o |
  1
):-+:' {rn {ll {ji |
  1
,+->687+r<*-): {rn noqmjmmgnikojlnlmf kiqmnkghiljhlflkhm o rn o o V V |
  1
/061+ {rn noqmjmmgnikojlnlmf kiqmnkghiljhlflkhm o |
  1
<0:;8: {rn {jh {lh {rn {jg n {k {rn |
  1
:;8: {rn {jf {kf {lh {io o |
  1
):-+:' {rn {kg {in |
  1
,+->687+r<*-): {rn noqklmhnojhmhnfkil kiqnjmlhiljhlflkhm o rn o o V V |
  1
/061+ {rn noqlnkhgnikojlnlmg kiqnjmlhiljhlflkhm o |
  1
<0:;8: {rn {km {im {rn {il n {k {rn |
  1
:;8: {rn {ik {jk {km {ij o |
  1
):-+:' {rn {kl {ii |
  1
,+->687+r<*-): {rn fqhlnhjhoogilfmokf kiqmnkghiljhlflkhm o o rn o V V |
  1
/061+ {rn fqhlnhjhoogilfmokf kiqmnkghiljhlflkhm o |
  1
<0:;8: {rn {ih {kh {rn {ig n {k {rn |
  1
:;8: {rn {if {jf {kh {ho o |
  1
):-+:' {rn {jg {hn |
  1
,+->687+r<*-): {rn noqklfhgnikojlnlmg kiqnjfkkhkmjmojlli o roqhohnoihgnngijkhki roqhohnoihgnngijkhki o V V |
  1
/061+ {rn noqklmhnojhmhnfkil kiqnjmlhiljhlflkhm o |
  1
<0:;8: {rn {jm {hm {rn {hl n {k {rn |
  1
:;8: {rn {ik {hk {jm {hj o |
  1
):-+:' {rn {jl {hi |
  1
:336/,:r<*-): {rn fqhoojohoogilfmokf kjqhfmnmiljhlflkhn o o o n oqolnmj o o n V V |
  1
/061+ {rn fqhlnhjhoogilfmokf kjqhfmnmiljhlflkhn o |
  1
<0:;8: {rn {hh {jh {rn {hg n {k {rn |
  1
:;8: {rn {hf {if {jh {go o |
  1
):-+:' {rn {ig {gn |
  1
,+->687+r<*-): {rn noqkkigjmhoglklnfm kiqnjmlhiljhlflkhm o roqhohnoihgnngijkhki oqhohnoihgnngijkhki o V V |
  1
/061+ {rn noqklfhgnikojlnlmg kiqnjfkkhkmjmojlli o |
  1
<0:;8: {rn {im {gm {rn {gl o {k {rn |
  1
:;8: {rn {hk {gk {im {gj o |
  1
):-+:' {rn {il {gi |
  1
,+->687+r<*-): {rn fqhoojohoogilfmokf kjqhioghiljhlflkhn o rn o o V V |
  1
/061+ {rn fqhoojohoogilfmokf kjqhioghiljhlflkhn o |
  1
<0:;8: {rn {gh {ih {rn {gg o {k {rn |
  1
:;8: {rn {gf {hf {ih {fo o |
  1
):-+:' {rn {hg {fn |
  1
,+->687+r<*-): {rn noqghhmjhoogilfmoj kiqnjmlhiljhlflkhm o rn o o V V |
  1
/061+ {rn noqkkigjmhoglklnfm kiqnjmlhiljhlflkhm o |
  1
<0:;8: {rn {hm {fm {rn {fl n {k {rn |
  1
:;8: {rn {fk {gk {hm {fj o |
  1
):-+:' {rn {hl {fi |
  1
,+->687+r<*-): {rn fqiifmjhoogilfmokf kjqhioghiljhlflkhn o o n o V V |
  1
/061+ {rn fqiifmjhoogilfmokf kjqhioghiljhlflkhn o |
  1
<0:;8: {rn {fh {hh {rn {fg n {k {rn |
  1
:;8: {rn {gf {ff {hh {noo o |
  1
):-+:' {rn {gg {non |
  1
,+->687+r<*-): {rn noqghhmjhoogilfmoj kiqminlhiljhlflkhl o o rn o V V |
  1
/061+ {rn noqghhmjhoogilfmoj kiqnjmlhiljhlflkhm o |
  1
<0:;8: {rn {gm {nom {rn {nol o {k {rn |
  1
:;8: {rn {fk {nok {gm {noj o |
  1
):-+:' {rn {gl {noi |
  1
:336/,:r<*-): {rn fqhoojohoogilfmokf kiqhjoimiljhlflkhm o o o n oqolnmj o o n V V |
  1
/061+ {rn fqiifmjhoogilfmokf kiqhjoimiljhlflkhm o |
  1
<0:;8: {rn {noh {gh {rn {nog n {k {rn |
  1
:;8: {rn {nof {ff {gh {nno o |
  1
):-+:' {rn {fg {nnn |
  1
:336/,:r<*-): {rn noqginmjhoogilfmoh kiqminlhiljhlflkhl o o o n oqonjfffffffffffgmlg o o n V V |
  1
/061+ {rn noqghhmjhoogilfmoj kiqminlhiljhlflkhl o |
  1
<0:;8: {rn {fm {nnm {rn {nnl n {k {rn |
  1
:;8: {rn {nnk {nok {fm {nnj o |
  1
):-+:' {rn {fl {nni |
  1
,+->687+r<*-): {rn fqhoojohoogilfmokf kiqhgnghiljhlflkhm o n o o V V |
  1
/061+ {rn fqhoojohoogilfmokf kiqhgnghiljhlflkhm o |
  1
<0:;8: {rn {nnm {fh {rn {nnh n {k {rn |
  1
:;8: {rn {nng {nof {fh {nnf o |
  1
):-+:' {rn {nog {nmo |
  1
,+->687+r<*-): {rn fqhkhhjhoogilfmoln kiqmhhlhiljhlflkik o n iqlgnnijnniglfig:ronj o V V |
  1
/061+ {rn noqginmjhoogilfmoh kiqmhhlhiljhlflkhm o |
  1
<0:;8: {rn {nom {noh {rn {nmn n {k {rn |
  1
:;8: {rn {nnk {nmm {nom {nml o |
  1
):-+:' {rn {nol {nmk |
  1
:336/,:r<*-): {rn fqhjlgfhjjnifhiihk kiqjlnghiljhlflkhm o o o n oqmjoooooooooooonhg o o n V V |
  1
/061+ {rn fqhjlgfhjjnifhiihk kiqhgnghiljhlflkhm o |
  1
:;8: {rn {nmj {nng {noh {nmi o |
  1
):-+:' {rn {nnh {nmh |
  1
:336/,:r<*-): {rn fqhkhhjhoogilfmoln kiqmfllhiljhlflkil o o o n oqoni o o n V V |
  1
/061+ {rn fqhkhhjhoogilfmoln kiqmhhlhiljhlflkik o |
  1
:;8: {rn {nmm {nmj {nnm {nmg o |
  1
):-+:' {rn {nnl {nmf |
  1
,+->687+r<*-): {rn fqfnfmjhoogilfmoih kiqhnflhiljhlflkhm o rn kqnklnoillofimikoh:ronk o V V |
  1
/061+ {rn fqfnfmjhoogilfmoih kiqhnflhiljhlflkhm o |
  1
):-+:' {rn {nmn {nlo |
  1
,+->687+r<*-): {rn fqhlnhjhoogilfmokf kiqhollhiljhlflkgn o rkqllmjhhijhohljfmm:ronj rn o V V |
  1
/061+ {rn fqhlnhjhoogilfmoln kiqmfllhiljhlflkil o |
  1
:336/,:r<*-): {rn fqhkhhjhoogilfmokf kiqhollhiljhlflkgn o o o n oqoni o o n V V |
  1
/061+ {rn fqhkhhjhoogilfmokf kiqhnflhiljhlflkhf o |
  1
/061+ {rn fqhlnhjhoogilfmokf kiqhollhiljhlflkgn o |
  0
TEXT
  5
18B2
330
18
100
AcDbEntity
  8
TEXT
100
AcDbText
 10
9.475466852299646
 20
45.43370166251936
 30
0.0
 40
0.125
  1
PART #110653
  7
ITALICC
 72
     1
 11
10.22844304277583
 21
45.43370166251936
 31
0.0
100
AcDbText
  0
LINE
  5
18B3
330
18
100
AcDbEntity
  8
TEXT
100
AcDbLine
 10
10.1961765417279
 20
45.18934797649952
 30
0.0
 11
10.27282452302045
 21
45.18934797649952
 31
0.0
  0
LINE
  5
18B4
330
18
100
AcDbEntity
  8
TEXT
100
AcDbLine
 10
10.26834463569395
 20
45.2536246711563
 30
0.0
 11
10.20084491804444
 21
45.2536246711563
 31
0.0
  0
LWPOLYLINE
  5
18B5
330
18
100
AcDbEntity
  8
TEXT
100
AcDbPolyline
 90
        5
 70
     0
 43
0.0001332181640625
 10
8.559064499193224
 20
45.13039786939848
 10
8.572386315599473
 20
45.13039786939848
 10
8.572386315599473
 20
45.16703286451567
 10
8.609021310716663
 20
45.16703286451567
 10
8.609021310716663
 20
45.18035468092191
  0
LWPOLYLINE
  5
18B6
330
18
100
AcDbEntity
  8
TEXT
100
AcDbPolyline
 90
        3
 70
     0
 43
0.0006660908203125
 10
8.599029948411972
 20
45.22698103834379
 10
8.512438141771347
 20
45.22698103834379
 10
8.512438141771347
 20
45.14038923170317
  0
LWPOLYLINE
  5
18B7
330
18
100
AcDbEntity
  8
TEXT
100
AcDbPolyline
 90
        3
 70
     0
 43
0.0006660908203125
 10
8.599029948411972
 20
45.2536246711563
 10
8.48579450895885
 20
45.2536246711563
 10
8.48579450895885
 20
45.14038923170317
  0
LWPOLYLINE
  5
18B8
330
18
100
AcDbEntity
  8
TEXT
100
AcDbPolyline
 90
        5
 70
     0
 43
0.0001332181640625
 10
8.609021310716663
 20
45.06045833326567
 10
8.609021310716663
 20
45.07378014967192
 10
8.572386315599475
 20
45.07378014967192
 10
8.572386315599475
 20
45.1104151447891
 10
8.559064499193224
 20
45.1104151447891
  0
LWPOLYLINE
  5
18B9
330
18
100
AcDbEntity
  8
TEXT
100
AcDbPolyline
 90
        3
 70
     0
 43
0.0006660908203125
 10
8.512438141771347
 20
45.10042378248441
 10
8.512438141771347
 20
45.01383197584379
 10
8.599029948411972
 20
45.01383197584379
  0
LWPOLYLINE
  5
18BA
330
18
100
AcDbEntity
  8
TEXT
100
AcDbPolyline
 90
        3
 70
     0
 43
0.0006660908203125
 10
8.48579450895885
 20
45.10042378248441
 10
8.48579450895885
 20
44.98718834303129
 10
8.599029948411972
 20
44.98718834303129
  0
LWPOLYLINE
  5
18BB
330
18
100
AcDbEntity
  8
TEXT
100
AcDbPolyline
 90
        2
 70
     0
 43
0.0001332181640625
 10
8.512438141771347
 20
45.10042378248441
 10
8.572386315599475
 20
45.1104151447891
  0
LWPOLYLINE
  5
18BC
330
18
100
AcDbEntity
  8
TEXT
100
AcDbPolyline
 90
        2
 70
     0
 43
0.0001332181640625
 10
8.559064499193224
 20
45.1104151447891
 10
8.48579450895885
 20
45.10042378248441
  0
LWPOLYLINE
  5
18BD
330
18
100
AcDbEntity
  8
TEXT
100
AcDbPolyline
 90
        2
 70
     0
 43
0.0006660908203125
 10
8.512438141771347
 20
45.10042378248441
 10
8.48579450895885
 20
45.10042378248441
  0
LWPOLYLINE
  5
18BE
330
18
100
AcDbEntity
  8
TEXT
100
AcDbPolyline
 90
        2
 70
     0
 43
0.0001332181640625
 10
8.512438141771347
 20
45.01383197584379
 10
8.572386315599475
 20
45.07378014967192
  0
LWPOLYLINE
  5
18BF
330
18
100
AcDbEntity
  8
TEXT
100
AcDbPolyline
 90
        2
 70
     0
 43
0.0006660908203125
 10
8.512438141771347
 20
45.14038923170317
 10
8.48579450895885
 20
45.14038923170317
  0
LWPOLYLINE
  5
18C0
330
18
100
AcDbEntity
  8
TEXT
100
AcDbPolyline
 90
        2
 70
     0
 43
0.0001332181640625
 10
8.48579450895885
 20
45.14038923170317
 10
8.559064499193224
 20
45.13039786939848
  0
LWPOLYLINE
  5
18C1
330
18
100
AcDbEntity
  8
TEXT
100
AcDbPolyline
 90
        2
 70
     0
 43
0.0001332181640625
 10
8.512438141771347
 20
45.14038923170317
 10
8.572386315599473
 20
45.13039786939848
  0
LWPOLYLINE
  5
18C2
330
18
100
AcDbEntity
  8
TEXT
100
AcDbPolyline
 90
        2
 70
     0
 43
0.0001332181640625
 10
8.512438141771347
 20
45.22698103834379
 10
8.572386315599473
 20
45.16703286451567
  0
LWPOLYLINE
  5
18C3
330
18
100
AcDbEntity
  8
TEXT
100
AcDbPolyline
 90
        5
 70
     0
 43
0.0001332181640625
 10
8.678960846849474
 20
45.1104151447891
 10
8.665639030443225
 20
45.1104151447891
 10
8.665639030443225
 20
45.07378014967192
 10
8.629004035326035
 20
45.07378014967192
 10
8.629004035326035
 20
45.06045833326567
  0
LWPOLYLINE
  5
18C4
330
18
100
AcDbEntity
  8
TEXT
100
AcDbPolyline
 90
        2
 70
     0
 43
0.0001332181640625
 10
8.725587204271349
 20
45.10042378248441
 10
8.665639030443225
 20
45.1104151447891
  0
LWPOLYLINE
  5
18C5
330
18
100
AcDbEntity
  8
TEXT
100
AcDbPolyline
 90
        2
 70
     0
 43
0.0001332181640625
 10
8.75223083708385
 20
45.10042378248441
 10
8.678960846849474
 20
45.1104151447891
  0
LWPOLYLINE
  5
18C6
330
18
100
AcDbEntity
  8
TEXT
100
AcDbPolyline
 90
        3
 70
     0
 43
0.0006660908203125
 10
8.638995397630724
 20
44.98718834303129
 10
8.75223083708385
 20
44.98718834303129
 10
8.75223083708385
 20
45.10042378248441
  0
LWPOLYLINE
  5
18C7
330
18
100
AcDbEntity
  8
TEXT
100
AcDbPolyline
 90
        3
 70
     0
 43
0.0006660908203125
 10
8.638995397630724
 20
45.01383197584379
 10
8.725587204271349
 20
45.01383197584379
 10
8.725587204271349
 20
45.10042378248441
  0
LWPOLYLINE
  5
18C8
330
18
100
AcDbEntity
  8
TEXT
100
AcDbPolyline
 90
        2
 70
     0
 43
0.0001332181640625
 10
8.725587204271349
 20
45.01383197584379
 10
8.665639030443225
 20
45.07378014967192
  0
LWPOLYLINE
  5
18C9
330
18
100
AcDbEntity
  8
TEXT
100
AcDbPolyline
 90
        2
 70
     0
 43
0.0006660908203125
 10
8.638995397630724
 20
45.01383197584379
 10
8.638995397630724
 20
44.98718834303129
  0
LWPOLYLINE
  5
18CA
330
18
100
AcDbEntity
  8
TEXT
100
AcDbPolyline
 90
        2
 70
     0
 43
0.0001332181640625
 10
8.629004035326035
 20
45.06045833326567
 10
8.638995397630724
 20
44.98718834303129
  0
LWPOLYLINE
  5
18CB
330
18
100
AcDbEntity
  8
TEXT
100
AcDbPolyline
 90
        2
 70
     0
 43
0.0001332181640625
 10
8.638995397630724
 20
45.01383197584379
 10
8.629004035326035
 20
45.07378014967192
  0
LWPOLYLINE
  5
18CC
330
18
100
AcDbEntity
  8
TEXT
100
AcDbPolyline
 90
        2
 70
     0
 43
0.0001332181640625
 10
8.599029948411972
 20
44.98718834303129
 10
8.609021310716663
 20
45.06045833326567
  0
LWPOLYLINE
  5
18CD
330
18
100
AcDbEntity
  8
TEXT
100
AcDbPolyline
 90
        2
 70
     0
 43
0.0001332181640625
 10
8.599029948411972
 20
45.01383197584379
 10
8.609021310716663
 20
45.07378014967192
  0
LWPOLYLINE
  5
18CE
330
18
100
AcDbEntity
  8
TEXT
100
AcDbPolyline
 90
        2
 70
     0
 43
0.0006660908203125
 10
8.599029948411972
 20
45.01383197584379
 10
8.599029948411972
 20
44.98718834303129
  0
LWPOLYLINE
  5
18CF
330
18
100
AcDbEntity
  8
TEXT
100
AcDbPolyline
 90
        2
 70
     0
 43
0.0006660908203125
 10
8.725587204271349
 20
45.10042378248441
 10
8.75223083708385
 20
45.10042378248441
  0
LWPOLYLINE
  5
18D0
330
18
100
AcDbEntity
  8
TEXT
100
AcDbPolyline
 90
        2
 70
     0
 43
0.0001332181640625
 10
8.725587204271349
 20
45.22698103834379
 10
8.665639030443225
 20
45.16703286451567
  0
LWPOLYLINE
  5
18D1
330
18
100
AcDbEntity
  8
TEXT
100
AcDbPolyline
 90
        2
 70
     0
 43
0.0001332181640625
 10
8.725587204271349
 20
45.14038923170317
 10
8.665639030443225
 20
45.13039786939848
  0
LWPOLYLINE
  5
18D2
330
18
100
AcDbEntity
  8
TEXT
100
AcDbPolyline
 90
        2
 70
     0
 43
0.0001332181640625
 10
8.678960846849474
 20
45.13039786939848
 10
8.75223083708385
 20
45.14038923170317
  0
LWPOLYLINE
  5
18D3
330
18
100
AcDbEntity
  8
TEXT
100
AcDbPolyline
 90
        3
 70
     0
 43
0.0006660908203125
 10
8.725587204271349
 20
45.14038923170317
 10
8.725587204271349
 20
45.22698103834379
 10
8.638995397630724
 20
45.22698103834379
  0
LWPOLYLINE
  5
18D4
330
18
100
AcDbEntity
  8
TEXT
100
AcDbPolyline
 90
        3
 70
     0
 43
0.0006660908203125
 10
8.75223083708385
 20
45.14038923170317
 10
8.75223083708385
 20
45.2536246711563
 10
8.638995397630724
 20
45.2536246711563
  0
LWPOLYLINE
  5
18D5
330
18
100
AcDbEntity
  8
TEXT
100
AcDbPolyline
 90
        2
 70
     0
 43
0.0001332181640625
 10
8.638995397630724
 20
45.2536246711563
 10
8.629004035326035
 20
45.18035468092191
  0
LWPOLYLINE
  5
18D6
330
18
100
AcDbEntity
  8
TEXT
100
AcDbPolyline
 90
        2
 70
     0
 43
0.0001332181640625
 10
8.638995397630724
 20
45.22698103834379
 10
8.629004035326035
 20
45.16703286451567
  0
LWPOLYLINE
  5
18D7
330
18
100
AcDbEntity
  8
TEXT
100
AcDbPolyline
 90
        2
 70
     0
 43
0.0006660908203125
 10
8.638995397630724
 20
45.22698103834379
 10
8.638995397630724
 20
45.2536246711563
  0
LWPOLYLINE
  5
18D8
330
18
100
AcDbEntity
  8
TEXT
100
AcDbPolyline
 90
        5
 70
     0
 43
0.0001332181640625
 10
8.629004035326035
 20
45.18035468092191
 10
8.629004035326035
 20
45.16703286451567
 10
8.665639030443225
 20
45.16703286451567
 10
8.665639030443225
 20
45.13039786939848
 10
8.678960846849474
 20
45.13039786939848
  0
LWPOLYLINE
  5
18D9
330
18
100
AcDbEntity
  8
TEXT
100
AcDbPolyline
 90
        2
 70
     0
 43
0.0001332181640625
 10
8.599029948411972
 20
45.22698103834379
 10
8.609021310716663
 20
45.16703286451567
  0
LWPOLYLINE
  5
18DA
330
18
100
AcDbEntity
  8
TEXT
100
AcDbPolyline
 90
        2
 70
     0
 43
0.0001332181640625
 10
8.609021310716663
 20
45.18035468092191
 10
8.599029948411972
 20
45.2536246711563
  0
LWPOLYLINE
  5
18DB
330
18
100
AcDbEntity
  8
TEXT
100
AcDbPolyline
 90
        2
 70
     0
 43
0.0006660908203125
 10
8.599029948411972
 20
45.22698103834379
 10
8.599029948411972
 20
45.2536246711563
  0
LWPOLYLINE
  5
18DC
330
18
100
AcDbEntity
  8
TEXT
100
AcDbPolyline
 90
        2
 70
     0
 43
0.0006660908203125
 10
8.725587204271349
 20
45.14038923170317
 10
8.75223083708385
 20
45.14038923170317
  0
LWPOLYLINE
  5
18DD
330
18
100
AcDbEntity
  8
TEXT
100
AcDbPolyline
 90
        2
 70
     0
 43
0.0
 10
9.47101075783248
 20
45.03870298038271
 42
0.3318488747599744
 10
9.540130050397793
 20
44.98715163816778
 42
-6.868794160588311
  0
LINE
  5
18DE
330
18
100
AcDbEntity
  8
TEXT
100
AcDbLine
 10
9.538990476901599
 20
45.3216361488951
 30
0.0
 11
9.472181764335232
 21
45.3216361488951
 31
0.0
  0
LINE
  5
18DF
330
18
100
AcDbEntity
  8
TEXT
100
AcDbLine
 10
9.192839396716138
 20
45.2536246711563
 30
0.0
 11
9.017107643817627
 21
45.2536246711563
 31
0.0
  0
ARC
  5
18E0
330
18
100
AcDbEntity
  8
TEXT
100
AcDbCircle
 10
9.087945110176177
 20
45.07034744652833
 30
0.0
 40
0.0831958083605586
100
AcDbArc
 50
270.0
 51
90.0
  0
LINE
  5
18E1
330
18
100
AcDbEntity
  8
TEXT
100
AcDbLine
 10
9.022344973931875
 20
45.18934797649952
 30
0.0
 11
9.189250627960845
 21
45.18934797649952
 31
0.0
  0
LINE
  5
18E2
330
18
100
AcDbEntity
  8
TEXT
100
AcDbLine
 10
9.092885484082456
 20
45.05550864450122
 30
0.0
 11
8.935020184371122
 21
45.05550864450122
 31
0.0
  0
LINE
  5
18E3
330
18
100
AcDbEntity
  8
TEXT
100
AcDbLine
 10
8.935020184371124
 20
44.98715163816778
 30
0.0
 11
9.087945110176177
 21
44.98715163816778
 31
0.0
  0
ARC
  5
18E4
330
18
100
AcDbEntity
  8
TEXT
100
AcDbCircle
 10
9.017107643817627
 20
45.17153721170979
 30
0.0
 40
0.0820874594465043
100
AcDbArc
 50
90.0
 51
270.0
  0
LINE
  5
18E5
330
18
100
AcDbEntity
  8
TEXT
100
AcDbLine
 10
8.935020184371122
 20
45.05550864450122
 30
0.0
 11
8.935020184371124
 21
44.98715163816778
 31
0.0
  0
LINE
  5
18E6
330
18
100
AcDbEntity
  8
TEXT
100
AcDbLine
 10
9.017107643817627
 20
45.08944975226328
 30
0.0
 11
9.092885484082456
 21
45.08944975226328
 31
0.0
  0
ARC
  5
18E7
330
18
100
AcDbEntity
  8
TEXT
100
AcDbCircle
 10
9.092885484082456
 20
45.07247919838225
 30
0.0
 40
0.0169705538810321
100
AcDbArc
 50
270.0
 51
90.0
  0
LINE
  5
18E8
330
18
100
AcDbEntity
  8
TEXT
100
AcDbLine
 10
9.087945110176177
 20
45.1535432548889
 30
0.0
 11
9.022344973931875
 21
45.1535432548889
 31
0.0
  0
ARC
  5
18E9
330
18
100
AcDbEntity
  8
TEXT
100
AcDbCircle
 10
9.022344973931875
 20
45.17144561569422
 30
0.0
 40
0.017902360805315
100
AcDbArc
 50
90.0
 51
270.0
  0
LINE
  5
18EA
330
18
100
AcDbEntity
  8
TEXT
100
AcDbLine
 10
9.383311288735992
 20
45.15275267504317
 30
0.0
 11
9.324680967704054
 21
45.2536246711563
 31
0.0
  0
LINE
  5
18EB
330
18
100
AcDbEntity
  8
TEXT
100
AcDbLine
 10
9.243137235440951
 20
44.98715163816778
 30
0.0
 11
9.339777486515945
 21
44.98742227726606
 31
0.0
  0
LWPOLYLINE
  5
18EC
330
18
100
AcDbEntity
  8
TEXT
100
AcDbPolyline
 90
        6
 70
     1
 43
0.0
 10
9.285661039016101
 20
45.18934797649952
 10
9.255344444795893
 20
45.18934797649952
 10
9.255344444795893
 20
45.06623697844463
 42
0.407328721240804
 10
9.266888095957369
 20
45.05441806376825
 10
9.3275097950021
 20
45.05441806376825
 10
9.344975135409418
 20
45.08723029281172
  0
LINE
  5
18ED
330
18
100
AcDbEntity
  8
TEXT
100
AcDbLine
 10
9.189250627960845
 20
45.18934797649952
 30
0.0
 11
9.189250627960845
 21
45.04694402950582
 31
0.0
  0
ARC
  5
18EE
330
18
100
AcDbEntity
  8
TEXT
100
AcDbCircle
 10
9.249366645934598
 20
45.04694402950582
 30
0.0
 40
0.0601160179737537
100
AcDbArc
 50
180.0000000000003
 51
264.0521544866073
  0
LINE
  5
18EF
330
18
100
AcDbEntity
  8
TEXT
100
AcDbLine
 10
9.252882001560145
 20
45.28801258875043
 30
0.0
 11
9.192839396716138
 21
45.28801258875043
 31
0.0
  0
LINE
  5
18F0
330
18
100
AcDbEntity
  8
TEXT
100
AcDbLine
 10
9.192839396716138
 20
45.28801258875043
 30
0.0
 11
9.192839396716138
 21
45.2536246711563
 31
0.0
  0
LINE
  5
18F1
330
18
100
AcDbEntity
  8
TEXT
100
AcDbLine
 10
9.252882001560145
 20
45.2536246711563
 30
0.0
 11
9.252882001560145
 21
45.28801258875043
 31
0.0
  0
LINE
  5
18F2
330
18
100
AcDbEntity
  8
TEXT
100
AcDbLine
 10
9.324680967704054
 20
45.2536246711563
 30
0.0
 11
9.252882001560145
 21
45.2536246711563
 31
0.0
  0
LINE
  5
18F3
330
18
100
AcDbEntity
  8
TEXT
100
AcDbLine
 10
9.373711051739036
 20
45.00711014427279
 30
0.0
 11
9.47101075783248
 21
45.17146035520806
 31
0.0
  0
LINE
  5
18F4
330
18
100
AcDbEntity
  8
TEXT
100
AcDbLine
 10
9.47101075783248
 20
45.17146035520806
 30
0.0
 11
9.47101075783248
 21
45.03870298038271
 31
0.0
  0
ARC
  5
18F5
330
18
100
AcDbEntity
  8
TEXT
100
AcDbCircle
 10
9.339667491826823
 20
45.02669936044148
 30
0.0
 40
0.0392772371940762
100
AcDbArc
 50
270.1604552698595
 51
330.0831797321295
  0
LINE
  5
18F6
330
18
100
AcDbEntity
  8
TEXT
100
AcDbLine
 10
9.442059851541856
 20
45.2536246711563
 30
0.0
 11
9.383311288735992
 21
45.15275267504317
 31
0.0
  0
LINE
  5
18F7
330
18
100
AcDbEntity
  8
TEXT
100
AcDbLine
 10
9.472181764335232
 20
45.3216361488951
 30
0.0
 11
9.472181764335232
 21
45.2536246711563
 31
0.0
  0
LINE
  5
18F8
330
18
100
AcDbEntity
  8
TEXT
100
AcDbLine
 10
9.472181764335232
 20
45.2536246711563
 30
0.0
 11
9.442059851541856
 21
45.2536246711563
 31
0.0
  0
LWPOLYLINE
  5
18F9
330
18
100
AcDbEntity
  8
TEXT
100
AcDbPolyline
 90
        4
 70
     0
 43
0.0
 10
9.824267885955391
 20
45.18179418733342
 10
9.824267885955391
 20
44.98715163816778
 10
9.892746169243249
 20
44.98715163816778
 10
9.892746169243249
 20
45.03064258311822
 42
-1.714843617202739
  0
LWPOLYLINE
  5
18FA
330
18
100
AcDbEntity
  8
TEXT
100
AcDbPolyline
 90
        2
 70
     0
 43
0.0
 10
9.859402236499601
 20
45.2536246711563
 42
-0.3277054968067132
 10
9.895183927212766
 20
45.22530212538665
 42
6.667889725900311
  0
LWPOLYLINE
  5
18FB
330
18
100
AcDbEntity
  8
TEXT
100
AcDbPolyline
 90
        2
 70
     0
 43
0.0
 10
9.687968663920374
 20
45.18934797649952
 42
-0.4142135623731017
 10
9.695522453086487
 20
45.18179418733342
 42
-0.9999999999999998
  0
LINE
  5
18FC
330
18
100
AcDbEntity
  8
TEXT
100
AcDbLine
 10
9.705320386970395
 20
45.2536246711563
 30
0.0
 11
9.571302331039259
 21
45.2536246711563
 31
0.0
  0
LINE
  5
18FD
330
18
100
AcDbEntity
  8
TEXT
100
AcDbLine
 10
9.638133384097226
 20
44.98715163816778
 30
0.0
 11
9.638133384097226
 21
45.18934797649952
 31
0.0
  0
LINE
  5
18FE
330
18
100
AcDbEntity
  8
TEXT
100
AcDbLine
 10
9.571302331039259
 20
45.2536246711563
 30
0.0
 11
9.571302331039259
 21
45.05276046442388
 31
0.0
  0
LINE
  5
18FF
330
18
100
AcDbEntity
  8
TEXT
100
AcDbLine
 10
9.538990476901599
 20
45.06953947627078
 30
0.0
 11
9.538990476901599
 21
45.3216361488951
 31
0.0
  0
LINE
  5
1900
330
18
100
AcDbEntity
  8
TEXT
100
AcDbLine
 10
9.540130050397792
 20
44.98715163816778
 30
0.0
 11
9.638133384097226
 21
44.98715163816778
 31
0.0
  0
LINE
  5
1901
330
18
100
AcDbEntity
  8
TEXT
100
AcDbLine
 10
9.571302331039259
 20
45.05276046442388
 30
0.0
 11
9.554308694154656
 21
45.05276046442388
 31
0.0
  0
ARC
  5
1902
330
18
100
AcDbEntity
  8
TEXT
100
AcDbCircle
 10
9.554308694154656
 20
45.06814227066731
 30
0.0
 40
0.0153818062434269
100
AcDbArc
 50
174.7883570302258
 51
270.0
  0
LINE
  5
1903
330
18
100
AcDbEntity
  8
TEXT
100
AcDbLine
 10
9.638133384097226
 20
45.18934797649952
 30
0.0
 11
9.687968663920376
 21
45.18934797649952
 31
0.0
  0
LINE
  5
1904
330
18
100
AcDbEntity
  8
TEXT
100
AcDbLine
 10
9.695522453086489
 20
45.18179418733342
 30
0.0
 11
9.695522453086489
 21
44.98715163816778
 31
0.0
  0
LINE
  5
1905
330
18
100
AcDbEntity
  8
TEXT
100
AcDbLine
 10
9.762580499868327
 20
44.98715163816778
 30
0.0
 11
9.762580499868327
 21
45.18934797649952
 31
0.0
  0
LINE
  5
1906
330
18
100
AcDbEntity
  8
TEXT
100
AcDbLine
 10
9.695522453086489
 20
44.98715163816778
 30
0.0
 11
9.762580499868327
 21
44.98715163816778
 31
0.0
  0
LWPOLYLINE
  5
1907
330
18
100
AcDbEntity
  8
TEXT
100
AcDbPolyline
 90
        3
 70
     0
 43
0.0
 10
9.859402236499601
 20
45.2536246711563
 10
9.741102077683557
 20
45.2536246711563
 10
9.741102077683557
 20
45.2264571743954
 42
-1.960274751411753
  0
LINE
  5
1908
330
18
100
AcDbEntity
  8
TEXT
100
AcDbLine
 10
9.762580499868327
 20
45.18934797649952
 30
0.0
 11
9.816714096789279
 21
45.18934797649952
 31
0.0
  0
LWPOLYLINE
  5
1909
330
18
100
AcDbEntity
  8
TEXT
100
AcDbPolyline
 90
        2
 70
     0
 43
0.0
 10
9.705320386970395
 20
45.2536246711563
 42
-0.3328679258950098
 10
9.741102077683557
 20
45.2264571743954
 42
6.772930709997214
  0
LWPOLYLINE
  5
190A
330
18
100
AcDbEntity
  8
TEXT
100
AcDbPolyline
 90
        2
 70
     0
 43
0.0
 10
9.816714096789278
 20
45.18934797649952
 42
-0.4142135623731017
 10
9.824267885955391
 20
45.18179418733342
 42
-0.9999999999999998
  0
ARC
  5
190B
330
18
100
AcDbEntity
  8
TEXT
100
AcDbCircle
 10
10.02798889665275
 20
45.21204110403539
 30
0.0
 40
0.0416329381542859
100
AcDbArc
 50
26.56974201007528
 51
87.20939649401342
  0
LWPOLYLINE
  5
190C
330
18
100
AcDbEntity
  8
TEXT
100
AcDbPolyline
 90
        2
 70
     0
 43
0.0
 10
9.935822102110885
 20
44.98715163816778
 10
10.06983951974226
 20
44.98715163816778
 42
0.9999999999999998
  0
LWPOLYLINE
  5
190D
330
18
100
AcDbEntity
  8
TEXT
100
AcDbPolyline
 90
        4
 70
     1
 43
0.0
 10
10.04971705467236
 20
45.09011561615181
 10
9.96105673601251
 20
45.09011561615181
 42
0.9999999999999998
 10
9.96105673601251
 20
45.04771707564795
 10
10.04971705467236
 20
45.04771707564795
 42
1.0
  0
LWPOLYLINE
  5
190E
330
18
100
AcDbEntity
  8
TEXT
100
AcDbPolyline
 90
        2
 70
     0
 43
0.0
 10
9.892746169243249
 20
45.03064258311822
 42
0.2901071551932823
 10
9.935822102110885
 20
44.98715163816778
 42
5.328517124445801
  0
LINE
  5
190F
330
18
100
AcDbEntity
  8
TEXT
100
AcDbLine
 10
10.03001583642982
 20
45.2536246711563
 30
0.0
 11
9.895183927212766
 21
45.2536246711563
 31
0.0
  0
LINE
  5
1910
330
18
100
AcDbEntity
  8
TEXT
100
AcDbLine
 10
9.954498023606085
 20
45.15207300303739
 30
0.0
 11
10.03678601338947
 21
45.15207300303739
 31
0.0
  0
LINE
  5
1911
330
18
100
AcDbEntity
  8
TEXT
100
AcDbLine
 10
10.00098493808534
 20
45.18934797649952
 30
0.0
 11
9.893778664698057
 21
45.18934797649952
 31
0.0
  0
LINE
  5
1912
330
18
100
AcDbEntity
  8
TEXT
100
AcDbLine
 10
9.895183927212766
 20
45.2536246711563
 30
0.0
 11
9.895183927212766
 21
45.22530212538664
 31
0.0
  0
ARC
  5
1913
330
18
100
AcDbEntity
  8
TEXT
100
AcDbCircle
 10
9.954498023606085
 20
45.08438742189327
 30
0.0
 40
0.0676855811441166
100
AcDbArc
 50
90.0
 51
153.7768192527749
  0
LINE
  5
1914
330
18
100
AcDbEntity
  8
TEXT
100
AcDbLine
 10
9.893778664698057
 20
45.18934797649952
 30
0.0
 11
9.893778664698057
 21
45.11429557042531
 31
0.0
  0
LINE
  5
1915
330
18
100
AcDbEntity
  8
TEXT
100
AcDbLine
 10
10.03678601338947
 20
45.15207300303739
 30
0.0
 11
10.0265212529759
 21
45.17332354261009
 31
0.0
  0
ARC
  5
1916
330
18
100
AcDbEntity
  8
TEXT
100
AcDbCircle
 10
10.00098493808534
 20
45.16098860149953
 30
0.0
 40
0.028359375
100
AcDbArc
 50
25.78218179591245
 51
90.0
  0
LINE
  5
1917
330
18
100
AcDbEntity
  8
TEXT
100
AcDbLine
 10
10.17127066644524
 20
44.98715163816778
 30
0.0
 11
10.17127066644523
 21
45.16444214359925
 31
0.0
  0
LWPOLYLINE
  5
1918
330
18
100
AcDbEntity
  8
TEXT
100
AcDbPolyline
 90
        2
 70
     0
 43
0.0
 10
10.1129154526099
 20
44.98715163816778
 10
10.17127066644524
 20
44.98715163816778
  0
LWPOLYLINE
  5
1919
330
18
100
AcDbEntity
  8
TEXT
100
AcDbPolyline
 90
        2
 70
     0
 43
0.0
 10
10.1129154526099
 20
45.03064258311822
 42
-0.2901071551932486
 10
10.06983951974226
 20
44.98715163816778
 42
-5.328517124445184
  0
LWPOLYLINE
  5
191A
330
18
100
AcDbEntity
  8
TEXT
100
AcDbPolyline
 90
        2
 70
     0
 43
0.0
 10
10.1129154526099
 20
45.03064258311822
 10
10.1129154526099
 20
44.98715163816778
  0
LINE
  5
191B
330
18
100
AcDbEntity
  8
TEXT
100
AcDbLine
 10
10.17287268160436
 20
45.2536246711563
 30
0.0
 11
10.10897577530486
 21
45.2536246711563
 31
0.0
  0
LINE
  5
191C
330
18
100
AcDbEntity
  8
TEXT
100
AcDbLine
 10
10.10897577530486
 20
45.2536246711563
 30
0.0
 11
10.10897577530486
 21
45.14841269260286
 31
0.0
  0
LINE
  5
191D
330
18
100
AcDbEntity
  8
TEXT
100
AcDbLine
 10
10.10897577530486
 20
45.14841269260286
 30
0.0
 11
10.06522500412296
 21
45.23066296859901
 31
0.0
  0
ARC
  5
191E
330
18
100
AcDbEntity
  8
TEXT
100
AcDbCircle
 10
10.19617654172789
 20
45.16444210121686
 30
0.0
 40
0.0249058752826653
100
AcDbArc
 50
89.99971217465335
 51
179.9999999999985
  0
ARC
  5
191F
330
18
100
AcDbEntity
  8
TEXT
100
AcDbCircle
 10
10.20406549866747
 20
45.22237894387402
 30
0.0
 40
0.0314112657011332
100
AcDbArc
 50
95.88484768694724
 51
173.2388340632136
  0
LINE
  5
1920
330
18
100
AcDbEntity
  8
TEXT
100
AcDbLine
 10
10.17287268160436
 20
45.22607702129541
 30
0.0
 11
10.17287268160436
 21
45.2536246711563
 31
0.0
  0
TEXT
  5
1921
330
18
100
AcDbEntity
  8
TEXT
100
AcDbText
 10
10.64174820102615
 20
45.08003744681327
 30
0.0
 40
0.0522247191011236
  1
Minneapolis, MN 55432-0008
 41
1.11444212721585
 72
     5
 11
11.97068078529582
 21
45.08003744681327
 31
0.0
100
AcDbText
  0
TEXT
  5
1922
330
18
100
AcDbEntity
  8
TEXT
100
AcDbText
 10
10.64174820102615
 20
45.17329587377957
 30
0.0
 40
0.0522247191011236
  1
6536 Main St. N.E. * P.O. Box 32008
 41
0.8388932496075355
 72
     5
 11
11.97068078529582
 21
45.17329587377957
 31
0.0
100
AcDbText
  0
TEXT
  5
1923
330
18
100
AcDbEntity
  8
TEXT
100
AcDbText
 10
10.64174820102615
 20
45.26655430074586
 30
0.0
 40
0.0522247191011236
  1
Stylmark  Incorporated
 41
1.221428571428571
 72
     5
 11
11.97068078529582
 21
45.26655430074586
 31
0.0
100
AcDbText
  0
TEXT
  5
1924
330
18
100
AcDbEntity
  8
TEXT
100
AcDbText
 10
10.64174820102615
 20
44.98677901984698
 30
0.0
 40
0.0522247191011236
  1
Phone  1-800-328-2495
 41
1.272321428571429
 72
     5
 11
11.97068078529582
 21
44.98677901984698
 31
0.0
100
AcDbText
  0
LINE
  5
1925
330
18
100
AcDbEntity
  8
TEXT
100
AcDbLine
 10
10.39419238956314
 20
45.14373142821532
 30
0.0
 11
10.45874950552885
 21
45.2536246711563
 31
0.0
  0
LINE
  5
1926
330
18
100
AcDbEntity
  8
TEXT
100
AcDbLine
 10
10.45874950552885
 20
45.2536246711563
 30
0.0
 11
10.38375767279922
 21
45.2536246711563
 31
0.0
  0
LINE
  5
1927
330
18
100
AcDbEntity
  8
TEXT
100
AcDbLine
 10
10.41310624055054
 20
44.98715163816778
 30
0.0
 11
10.48968461292675
 21
44.98715163816778
 31
0.0
  0
LINE
  5
1928
330
18
100
AcDbEntity
  8
TEXT
100
AcDbLine
 10
10.48968461292675
 20
44.98715163816778
 30
0.0
 11
10.39419238956314
 21
45.14373142821532
 31
0.0
  0
LINE
  5
1929
330
18
100
AcDbEntity
  8
TEXT
100
AcDbLine
 10
10.33720270733908
 20
44.98715163816778
 30
0.0
 11
10.33720270733908
 21
45.11873120664396
 31
0.0
  0
LINE
  5
192A
330
18
100
AcDbEntity
  8
TEXT
100
AcDbLine
 10
10.33720270733908
 20
45.11873120664396
 30
0.0
 11
10.41310624055054
 21
44.98715163816778
 31
0.0
  0
LINE
  5
192B
330
18
100
AcDbEntity
  8
TEXT
100
AcDbLine
 10
10.27282452302045
 20
45.18934797649952
 30
0.0
 11
10.27282452302046
 21
44.98715163816778
 31
0.0
  0
LINE
  5
192C
330
18
100
AcDbEntity
  8
TEXT
100
AcDbLine
 10
10.27282452302046
 20
44.98715163816778
 30
0.0
 11
10.33720270733908
 21
44.98715163816778
 31
0.0
  0
LINE
  5
192D
330
18
100
AcDbEntity
  8
TEXT
100
AcDbLine
 10
10.33665951424323
 20
45.31908887692389
 30
0.0
 11
10.26834463569396
 21
45.31908887692389
 31
0.0
  0
LINE
  5
192E
330
18
100
AcDbEntity
  8
TEXT
100
AcDbLine
 10
10.26834463569396
 20
45.31908887692389
 30
0.0
 11
10.26834463569395
 21
45.2536246711563
 31
0.0
  0
LINE
  5
192F
330
18
100
AcDbEntity
  8
TEXT
100
AcDbLine
 10
10.38375767279922
 20
45.2536246711563
 30
0.0
 11
10.33665951424323
 21
45.17775934474475
 31
0.0
  0
LINE
  5
1930
330
18
100
AcDbEntity
  8
TEXT
100
AcDbLine
 10
10.33665951424323
 20
45.17775934474475
 30
0.0
 11
10.33665951424323
 21
45.31908887692389
 31
0.0
  0
ENDSEC
  0
SECTION
  2
OBJECTS
  0
DICTIONARY
  5
C
330
0
100
AcDbDictionary
  3
ACAD_GROUP
350
D
  3
ACAD_LAYOUT
350
1935
  3
ACAD_MLINESTYLE
350
1B
  3
ACAD_PLOTSETTINGS
350
1936
  3
ACAD_PLOTSTYLENAME
350
1933
  3
ACDBHEADERROUNDTRIPXREC
350
193F
  3
ACDBVARIABLEDICTIONARY
350
22
  0
DICTIONARY
  5
1961
330
18
100
AcDbDictionary
280
     1
  3
ACAD_LAYOUTSELFREF
360
1962
  0
DICTIONARY
  5
195F
330
15
100
AcDbDictionary
280
     1
  3
ACAD_LAYOUTSELFREF
360
1960
  0
DICTIONARY
  5
D
102
{ACAD_REACTORS
330
C
102
}
330
C
100
AcDbDictionary
  3
*A1
350
2A
  3
*A10
350
2D
  3
*A11
350
251
  3
*A12
350
494
  3
*A13
350
495
  3
*A14
350
7B7
  3
*A2
350
82D
  3
*A3
350
9D8
  3
*A4
350
9D9
  3
*A5
350
9DA
  3
*A6
350
9DB
  3
*A7
350
E8B
  3
*A8
350
2B
  3
*A9
350
2C
  0
DICTIONARY
  5
1935
102
{ACAD_REACTORS
330
C
102
}
330
C
100
AcDbDictionary
  0
DICTIONARY
  5
1B
102
{ACAD_REACTORS
330
C
102
}
330
C
100
AcDbDictionary
  3
STANDARD
350
1C
  0
DICTIONARY
  5
1936
102
{ACAD_REACTORS
330
C
102
}
330
C
100
AcDbDictionary
  0
ACDBDICTIONARYWDFLT
  5
1933
102
{ACAD_REACTORS
330
C
102
}
330
C
100
AcDbDictionary
281
     1
  3
Normal
350
1934
100
AcDbDictionaryWithDefault
340
1934
  0
DICTIONARY
  5
193F
102
{ACAD_REACTORS
330
C
102
}
330
C
100
AcDbDictionary
  3
CEPSNTYPE
350
1949
  3
FINGERPRINTGUID
350
194A
  3
HYPERLINKBASE
350
1942
  3
INSUNITS
350
1948
  3
LAYOUTDICT
350
1944
  3
LWETCUNION
350
1947
  3
PLOTSETDICT
350
1945
  3
PLOTSTYLNAMDICT
350
1946
  3
PSVPSCALE
350
194C
  3
PUCSBASE
350
194F
  3
PUCSORGBACK
350
1955
  3
PUCSORGBOTTOM
350
1951
  3
PUCSORGFRONT
350
1954
  3
PUCSORGLEFT
350
1952
  3
PUCSORGRIGHT
350
1953
  3
PUCSORGTOP
350
1950
  3
PUCSORTHOREF
350
194D
  3
PUCSORTHOVIEW
350
194E
  3
STYLESHEET
350
1943
  3
TSTACKALIGN
350
1940
  3
TSTACKSIZE
350
1941
  3
UCSBASE
350
1958
  3
UCSORGBACK
350
195E
  3
UCSORGBOTTOM
350
195A
  3
UCSORGFRONT
350
195D
  3
UCSORGLEFT
350
195B
  3
UCSORGRIGHT
350
195C
  3
UCSORGTOP
350
1959
  3
UCSORTHOREF
350
1956
  3
UCSORTHOVIEW
350
1957
  3
VERSIONGUID
350
194B
  0
DICTIONARY
  5
22
102
{ACAD_REACTORS
330
C
102
}
330
C
100
AcDbDictionary
  3
DIMASSOC
350
193D
  3
SORTENTS
350
23
  0
XRECORD
  5
1962
102
{ACAD_REACTORS
330
1961
102
}
330
1961
100
AcDbXrecord
340
18
  0
XRECORD
  5
1960
102
{ACAD_REACTORS
330
195F
102
}
330
195F
100
AcDbXrecord
340
15
  0
GROUP
  5
2A
102
{ACAD_REACTORS
330
D
102
}
330
D
100
AcDbGroup
300
BORDER FRAME 10-1-95
 70
     3
 71
     1
  0
GROUP
  5
2D
102
{ACAD_REACTORS
330
D
102
}
330
D
100
AcDbGroup
300

 70
     3
 71
     1
  0
GROUP
  5
251
102
{ACAD_REACTORS
330
D
102
}
330
D
100
AcDbGroup
300

 70
     1
 71
     1
  0
GROUP
  5
494
102
{ACAD_REACTORS
330
D
102
}
330
D
100
AcDbGroup
300
BORDER FRAME 10-1-95
 70
     3
 71
     1
  0
GROUP
  5
495
102
{ACAD_REACTORS
330
D
102
}
330
D
100
AcDbGroup
300

 70
     3
 71
     1
  0
GROUP
  5
7B7
102
{ACAD_REACTORS
330
D
102
}
330
D
100
AcDbGroup
300

 70
     1
 71
     1
  0
GROUP
  5
82D
102
{ACAD_REACTORS
330
D
102
}
330
D
100
AcDbGroup
300
BORDER FRAME 10-1-95
 70
     0
 71
     1
  0
GROUP
  5
9D8
102
{ACAD_REACTORS
330
D
102
}
330
D
100
AcDbGroup
300
BORDER FRAME 10-1-95
 70
     3
 71
     1
  0
GROUP
  5
9D9
102
{ACAD_REACTORS
330
D
102
}
330
D
100
AcDbGroup
300

 70
     1
 71
     1
  0
GROUP
  5
9DA
102
{ACAD_REACTORS
330
D
102
}
330
D
100
AcDbGroup
300

 70
     1
 71
     1
  0
GROUP
  5
9DB
102
{ACAD_REACTORS
330
D
102
}
330
D
100
AcDbGroup
300

 70
     1
 71
     1
  0
GROUP
  5
E8B
102
{ACAD_REACTORS
330
D
102
}
330
D
100
AcDbGroup
300
BORDER FRAME 10-1-95
 70
     0
 71
     1
  0
GROUP
  5
2B
102
{ACAD_REACTORS
330
D
102
}
330
D
100
AcDbGroup
300

 70
     1
 71
     1
  0
GROUP
  5
2C
102
{ACAD_REACTORS
330
D
102
}
330
D
100
AcDbGroup
300

 70
     3
 71
     1
  0
MLINESTYLE
  5
1C
102
{ACAD_REACTORS
330
1B
102
}
330
1B
100
AcDbMlineStyle
  2
STANDARD
 70
     0
  3

 62
   256
 51
90.0
 52
90.0
 71
     2
 49
0.5
 62
   256
  6
BYLAYER
 49
-0.5
 62
   256
  6
BYLAYER
  0
ACDBPLACEHOLDER
  5
1934
102
{ACAD_REACTORS
330
1933
102
}
330
1933
100
AcDbPlaceHolder
280
     0
  0
XRECORD
  5
1949
102
{ACAD_REACTORS
330
193F
102
}
330
193F
100
AcDbXrecord
 90
        0
  0
XRECORD
  5
194A
102
{ACAD_REACTORS
330
193F
102
}
330
193F
100
AcDbXrecord
  1
{3F46EB90-8DB9-11D6-88E6-0090279574E7}
  0
XRECORD
  5
1942
102
{ACAD_REACTORS
330
193F
102
}
330
193F
100
AcDbXrecord
  1

  0
XRECORD
  5
1948
102
{ACAD_REACTORS
330
193F
102
}
330
193F
100
AcDbXrecord
 90
        0
  0
XRECORD
  5
1944
102
{ACAD_REACTORS
330
193F
102
}
330
193F
100
AcDbXrecord
340
1935
  0
XRECORD
  5
1947
102
{ACAD_REACTORS
330
193F
102
}
330
193F
100
AcDbXrecord
 90
    14877
  0
XRECORD
  5
1945
102
{ACAD_REACTORS
330
193F
102
}
330
193F
100
AcDbXrecord
340
1936
  0
XRECORD
  5
1946
102
{ACAD_REACTORS
330
193F
102
}
330
193F
100
AcDbXrecord
340
1933
  0
XRECORD
  5
194C
102
{ACAD_REACTORS
330
193F
102
}
330
193F
100
AcDbXrecord
 40
0.0
  0
XRECORD
  5
194F
102
{ACAD_REACTORS
330
193F
102
}
330
193F
100
AcDbXrecord
340
0
  0
XRECORD
  5
1955
102
{ACAD_REACTORS
330
193F
102
}
330
193F
100
AcDbXrecord
 10
0.0
 20
0.0
 30
0.0
  0
XRECORD
  5
1951
102
{ACAD_REACTORS
330
193F
102
}
330
193F
100
AcDbXrecord
 10
0.0
 20
0.0
 30
0.0
  0
XRECORD
  5
1954
102
{ACAD_REACTORS
330
193F
102
}
330
193F
100
AcDbXrecord
 10
0.0
 20
0.0
 30
0.0
  0
XRECORD
  5
1952
102
{ACAD_REACTORS
330
193F
102
}
330
193F
100
AcDbXrecord
 10
0.0
 20
0.0
 30
0.0
  0
XRECORD
  5
1953
102
{ACAD_REACTORS
330
193F
102
}
330
193F
100
AcDbXrecord
 10
0.0
 20
0.0
 30
0.0
  0
XRECORD
  5
1950
102
{ACAD_REACTORS
330
193F
102
}
330
193F
100
AcDbXrecord
 10
0.0
 20
0.0
 30
0.0
  0
XRECORD
  5
194D
102
{ACAD_REACTORS
330
193F
102
}
330
193F
100
AcDbXrecord
340
0
  0
XRECORD
  5
194E
102
{ACAD_REACTORS
330
193F
102
}
330
193F
100
AcDbXrecord
 70
     0
  0
XRECORD
  5
1943
102
{ACAD_REACTORS
330
193F
102
}
330
193F
100
AcDbXrecord
  1

  0
XRECORD
  5
1940
102
{ACAD_REACTORS
330
193F
102
}
330
193F
100
AcDbXrecord
 90
        1
  0
XRECORD
  5
1941
102
{ACAD_REACTORS
330
193F
102
}
330
193F
100
AcDbXrecord
 90
       70
  0
XRECORD
  5
1958
102
{ACAD_REACTORS
330
193F
102
}
330
193F
100
AcDbXrecord
340
0
  0
XRECORD
  5
195E
102
{ACAD_REACTORS
330
193F
102
}
330
193F
100
AcDbXrecord
 10
0.0
 20
0.0
 30
0.0
  0
XRECORD
  5
195A
102
{ACAD_REACTORS
330
193F
102
}
330
193F
100
AcDbXrecord
 10
0.0
 20
0.0
 30
0.0
  0
XRECORD
  5
195D
102
{ACAD_REACTORS
330
193F
102
}
330
193F
100
AcDbXrecord
 10
0.0
 20
0.0
 30
0.0
  0
XRECORD
  5
195B
102
{ACAD_REACTORS
330
193F
102
}
330
193F
100
AcDbXrecord
 10
0.0
 20
0.0
 30
0.0
  0
XRECORD
  5
195C
102
{ACAD_REACTORS
330
193F
102
}
330
193F
100
AcDbXrecord
 10
0.0
 20
0.0
 30
0.0
  0
XRECORD
  5
1959
102
{ACAD_REACTORS
330
193F
102
}
330
193F
100
AcDbXrecord
 10
0.0
 20
0.0
 30
0.0
  0
XRECORD
  5
1956
102
{ACAD_REACTORS
330
193F
102
}
330
193F
100
AcDbXrecord
340
0
  0
XRECORD
  5
1957
102
{ACAD_REACTORS
330
193F
102
}
330
193F
100
AcDbXrecord
 70
     0
  0
XRECORD
  5
194B
102
{ACAD_REACTORS
330
193F
102
}
330
193F
100
AcDbXrecord
  1
{3F46EB92-8DB9-11D6-88E6-0090279574E7}
  0
DICTIONARYVAR
  5
193D
102
{ACAD_REACTORS
330
22
102
}
330
22
100
DictionaryVariables
280
     0
  1
1
  0
DICTIONARYVAR
  5
23
102
{ACAD_REACTORS
330
22
102
}
330
22
100
DictionaryVariables
280
     0
  1
97
  0
ENDSEC
  0
EOF
