  0
SECTION
  2
HEADER
  9
$ACADVER
  1
AC1014
  9
$ACADMAINTVER
 70
     9
  9
$DWGCODEPAGE
  3
ANSI_1252
  9
$INSBASE
 10
0.0
 20
0.0
 30
0.0
  9
$EXTMIN
 10
-0.6122331291721865
 20
1.513462657109325
 30
0.0
  9
$EXTMAX
 10
2.872986192574941
 20
3.836900106618635
 30
0.0
  9
$LIMMIN
 10
0.0
 20
0.0
  9
$LIMMAX
 10
12.0
 20
9.0
  9
$ORTHOMODE
 70
     1
  9
$REGENMODE
 70
     1
  9
$FILLMODE
 70
     1
  9
$QTEXTMODE
 70
     0
  9
$MIRRTEXT
 70
     0
  9
$DRAGMODE
 70
     2
  9
$LTSCALE
 40
1.0
  9
$OSMODE
 70
    39
  9
$ATTMODE
 70
     1
  9
$TEXTSIZE
 40
0.125
  9
$TRACEWID
 40
0.05
  9
$TEXTSTYLE
  7
ROMANS
  9
$CLAYER
  8
0
  9
$CELTYPE
  6
BYLAYER
  9
$CECOLOR
 62
   256
  9
$CELTSCALE
 40
1.0
  9
$DELOBJ
 70
     1
  9
$DISPSILH
 70
     1
  9
$DIMSCALE
 40
1.0
  9
$DIMASZ
 40
0.125
  9
$DIMEXO
 40
0.125
  9
$DIMDLI
 40
0.38
  9
$DIMRND
 40
0.0
  9
$DIMDLE
 40
0.0
  9
$DIMEXE
 40
0.125
  9
$DIMTP
 40
0.0
  9
$DIMTM
 40
0.0
  9
$DIMTXT
 40
0.125
  9
$DIMCEN
 40
-0.125
  9
$DIMTSZ
 40
0.0
  9
$DIMTOL
 70
     0
  9
$DIMLIM
 70
     0
  9
$DIMTIH
 70
     1
  9
$DIMTOH
 70
     1
  9
$DIMSE1
 70
     0
  9
$DIMSE2
 70
     0
  9
$DIMTAD
 70
     0
  9
$DIMZIN
 70
     4
  9
$DIMBLK
  1

  9
$DIMASO
 70
     1
  9
$DIMSHO
 70
     1
  9
$DIMPOST
  1

  9
$DIMAPOST
  1

  9
$DIMALT
 70
     0
  9
$DIMALTD
 70
     2
  9
$DIMALTF
 40
25.4
  9
$DIMLFAC
 40
0.5
  9
$DIMTOFL
 70
     0
  9
$DIMTVP
 40
0.0
  9
$DIMTIX
 70
     0
  9
$DIMSOXD
 70
     0
  9
$DIMSAH
 70
     0
  9
$DIMBLK1
  1

  9
$DIMBLK2
  1

  9
$DIMSTYLE
  2
JAB-STD
  9
$DIMCLRD
 70
     0
  9
$DIMCLRE
 70
     0
  9
$DIMCLRT
 70
   256
  9
$DIMTFAC
 40
1.0
  9
$DIMGAP
 40
0.09
  9
$DIMJUST
 70
     0
  9
$DIMSD1
 70
     0
  9
$DIMSD2
 70
     0
  9
$DIMTOLJ
 70
     1
  9
$DIMTZIN
 70
     4
  9
$DIMALTZ
 70
     0
  9
$DIMALTTZ
 70
     0
  9
$DIMFIT
 70
     3
  9
$DIMUPT
 70
     1
  9
$DIMUNIT
 70
     2
  9
$DIMDEC
 70
     3
  9
$DIMTDEC
 70
     3
  9
$DIMALTU
 70
     2
  9
$DIMALTTD
 70
     2
  9
$DIMTXSTY
  7
ROMANS
  9
$DIMAUNIT
 70
     0
  9
$LUNITS
 70
     2
  9
$LUPREC
 70
     4
  9
$SKETCHINC
 40
0.1
  9
$FILLETRAD
 40
1.0
  9
$AUNITS
 70
     0
  9
$AUPREC
 70
     0
  9
$MENU
  1
.
  9
$ELEVATION
 40
0.0
  9
$PELEVATION
 40
0.0
  9
$THICKNESS
 40
0.0
  9
$LIMCHECK
 70
     0
  9
$BLIPMODE
 70
     0
  9
$CHAMFERA
 40
0.5
  9
$CHAMFERB
 40
0.5
  9
$CHAMFERC
 40
1.0
  9
$CHAMFERD
 40
0.0
  9
$SKPOLY
 70
     0
  9
$TDCREATE
 40
2452341.379048692
  9
$TDUPDATE
 40
2452458.321479942
  9
$TDINDWG
 40
0.1568747685
  9
$TDUSRTIMER
 40
0.1568747685
  9
$USRTIMER
 70
     1
  9
$ANGBASE
 50
0.0
  9
$ANGDIR
 70
     0
  9
$PDMODE
 70
     0
  9
$PDSIZE
 40
0.0
  9
$PLINEWID
 40
0.0
  9
$COORDS
 70
     2
  9
$SPLFRAME
 70
     0
  9
$SPLINETYPE
 70
     6
  9
$SPLINESEGS
 70
     8
  9
$ATTDIA
 70
     0
  9
$ATTREQ
 70
     1
  9
$HANDLING
 70
 22529
  9
$HANDSEED
  5
573
  9
$SURFTAB1
 70
     6
  9
$SURFTAB2
 70
     6
  9
$SURFTYPE
 70
     6
  9
$SURFU
 70
     6
  9
$SURFV
 70
     6
  9
$UCSNAME
  2

  9
$UCSORG
 10
0.0
 20
0.0
 30
0.0
  9
$UCSXDIR
 10
1.0
 20
0.0
 30
0.0
  9
$UCSYDIR
 10
0.0
 20
1.0
 30
0.0
  9
$PUCSNAME
  2

  9
$PUCSORG
 10
0.0
 20
0.0
 30
0.0
  9
$PUCSXDIR
 10
1.0
 20
0.0
 30
0.0
  9
$PUCSYDIR
 10
0.0
 20
1.0
 30
0.0
  9
$USERI1
 70
     0
  9
$USERI2
 70
     0
  9
$USERI3
 70
     0
  9
$USERI4
 70
     0
  9
$USERI5
 70
     0
  9
$USERR1
 40
0.0
  9
$USERR2
 40
0.0
  9
$USERR3
 40
0.0
  9
$USERR4
 40
0.0
  9
$USERR5
 40
0.0
  9
$WORLDVIEW
 70
     1
  9
$SHADEDGE
 70
     3
  9
$SHADEDIF
 70
    70
  9
$TILEMODE
 70
     1
  9
$MAXACTVP
 70
    48
  9
$PINSBASE
 10
0.0
 20
0.0
 30
0.0
  9
$PLIMCHECK
 70
     0
  9
$PEXTMIN
 10
1.000000000000000E+20
 20
1.000000000000000E+20
 30
1.000000000000000E+20
  9
$PEXTMAX
 10
-1.000000000000000E+20
 20
-1.000000000000000E+20
 30
-1.000000000000000E+20
  9
$PLIMMIN
 10
0.0
 20
0.0
  9
$PLIMMAX
 10
12.0
 20
9.0
  9
$UNITMODE
 70
     0
  9
$VISRETAIN
 70
     1
  9
$PLINEGEN
 70
     1
  9
$PSLTSCALE
 70
     1
  9
$TREEDEPTH
 70
  3020
  9
$PICKSTYLE
 70
     1
  9
$CMLSTYLE
  2
STANDARD
  9
$CMLJUST
 70
     0
  9
$CMLSCALE
 40
1.0
  9
$PROXYGRAPHICS
 70
     1
  9
$MEASUREMENT
 70
     0
  0
ENDSEC
  0
SECTION
  2
CLASSES
  0
CLASS
  1
LWPOLYLINE
  2
AcDbPolyline
  3
AutoCAD 2000
 90
        0
280
     0
281
     1
  0
CLASS
  1
DICTIONARYVAR
  2
AcDbDictionaryVar
  3
AutoCAD 2000
 90
        0
280
     0
281
     0
  0
CLASS
  1
ACDBDICTIONARYWDFLT
  2
AcDbDictionaryWithDefault
  3
AutoCAD 2000
 90
        0
280
     0
281
     0
  0
CLASS
  1
ACDBPLACEHOLDER
  2
AcDbPlaceHolder
  3
AutoCAD 2000
 90
        0
280
     0
281
     0
  0
CLASS
  1
LAYOUT
  2
AcDbLayout
  3
AutoCAD 2000
 90
        0
280
     0
281
     0
  0
CLASS
  1
LONG_TRANSACTION
  2
AcDbLongTransaction
  3
AutoCAD 2000
 90
        0
280
     0
281
     0
  0
CLASS
  1
LWPOLYLINE
  2
AcDbPolyline
  3
AutoCAD 2000
 90
        0
280
     0
281
     1
  0
CLASS
  1
HATCH
  2
AcDbHatch
  3
AutoCAD 2000
 90
        0
280
     0
281
     1
  0
CLASS
  1
XRECORD
  2
AcDbXrecord
  3
AutoCAD 2000
 90
        0
280
     0
281
     0
  0
ENDSEC
  0
SECTION
  2
TABLES
  0
TABLE
  2
VPORT
  5
8
330
0
100
AcDbSymbolTable
 70
     2
  0
VPORT
  5
54E
330
8
100
AcDbSymbolTableRecord
100
AcDbViewportTableRecord
  2
*ACTIVE
 70
     0
 10
0.0
 20
0.0
 11
1.0
 21
1.0
 12
4.296962638987287
 22
2.67500429388718
 13
0.0
 23
0.0
 14
0.5
 24
0.5
 15
0.5
 25
0.5
 16
0.0
 26
0.0
 36
1.0
 17
0.0
 27
0.0
 37
0.0
 40
2.34468152947062
 41
4.320930232558139
 42
50.0
 43
0.0
 44
0.0
 50
0.0
 51
0.0
 71
     0
 72
  2000
 73
     1
 74
     1
 75
     0
 76
     0
 77
     0
 78
     0
  0
ENDTAB
  0
TABLE
  2
LTYPE
  5
5
330
0
100
AcDbSymbolTable
 70
     1
  0
LTYPE
  5
12
330
5
100
AcDbSymbolTableRecord
100
AcDbLinetypeTableRecord
  2
BYBLOCK
 70
     0
  3

 72
    65
 73
     0
 40
0.0
  0
LTYPE
  5
13
330
5
100
AcDbSymbolTableRecord
100
AcDbLinetypeTableRecord
  2
BYLAYER
 70
     0
  3

 72
    65
 73
     0
 40
0.0
  0
LTYPE
  5
14
330
5
100
AcDbSymbolTableRecord
100
AcDbLinetypeTableRecord
  2
CONTINUOUS
 70
     0
  3
Solid line
 72
    65
 73
     0
 40
0.0
  0
ENDTAB
  0
TABLE
  2
LAYER
  5
2
330
0
100
AcDbSymbolTable
 70
     2
  0
LAYER
  5
E
330
2
100
AcDbSymbolTableRecord
100
AcDbLayerTableRecord
  2
0
 70
     0
 62
     7
  6
CONTINUOUS
  0
LAYER
  5
109
330
2
100
AcDbSymbolTableRecord
100
AcDbLayerTableRecord
  2
TEXT
 70
     0
 62
     3
  6
CONTINUOUS
  0
ENDTAB
  0
TABLE
  2
STYLE
  5
3
330
0
100
AcDbSymbolTable
 70
     3
  0
STYLE
  5
F
330
3
100
AcDbSymbolTableRecord
100
AcDbTextStyleTableRecord
  2
STANDARD
 70
     0
 40
0.0
 41
1.0
 50
0.0
 71
     0
 42
0.25
  3
txt
  4

  0
STYLE
  5
10A
330
3
100
AcDbSymbolTableRecord
100
AcDbTextStyleTableRecord
  2
ROMANS
 70
     0
 40
0.0
 41
1.0
 50
0.0
 71
     0
 42
0.125
  3
romans.shx
  4

  0
STYLE
  5
43D
330
3
100
AcDbSymbolTableRecord
100
AcDbTextStyleTableRecord
  2
ITALICC
 70
     0
 40
0.0
 41
1.0
 50
0.0
 71
     0
 42
0.125
  3
italicc
  4

  0
ENDTAB
  0
TABLE
  2
VIEW
  5
6
330
0
100
AcDbSymbolTable
 70
     0
  0
ENDTAB
  0
TABLE
  2
UCS
  5
7
330
0
100
AcDbSymbolTable
 70
     0
  0
ENDTAB
  0
TABLE
  2
APPID
  5
9
330
0
100
AcDbSymbolTable
 70
     1
  0
APPID
  5
10
330
9
100
AcDbSymbolTableRecord
100
AcDbRegAppTableRecord
  2
ACAD
 70
     0
  0
ENDTAB
  0
TABLE
  2
DIMSTYLE
  5
A
330
0
100
AcDbSymbolTable
 70
     2
  0
DIMSTYLE
105
1D
330
A
100
AcDbSymbolTableRecord
100
AcDbDimStyleTableRecord
  2
STANDARD
 70
     0
  3

  4

  5

  6

  7

 40
1.0
 41
0.18
 42
0.0625
 43
0.38
 44
0.18
 45
0.0
 46
0.0
 47
0.0
 48
0.0
140
0.18
141
0.09
142
0.0
143
25.4
144
1.0
145
0.0
146
1.0
147
0.09
 71
     0
 72
     0
 73
     1
 74
     1
 75
     0
 76
     0
 77
     0
 78
     0
170
     0
171
     2
172
     0
173
     0
174
     0
175
     0
176
     0
177
     0
178
     0
270
     2
271
     4
272
     4
273
     2
274
     2
340
F
275
     0
280
     0
281
     0
282
     0
283
     1
284
     0
285
     0
286
     0
287
     3
288
     0
  0
DIMSTYLE
105
236
330
A
100
AcDbSymbolTableRecord
100
AcDbDimStyleTableRecord
  2
JAB-STD
 70
     0
  3

  4

  5

  6

  7

 40
0.0
 41
0.125
 42
0.125
 43
0.38
 44
0.125
 45
0.0
 46
0.0
 47
0.0
 48
0.0
140
0.125
141
0.0
142
0.0
143
25.4
144
1.0
145
0.0
146
1.0
147
0.09
 71
     0
 72
     0
 73
     1
 74
     1
 75
     0
 76
     0
 77
     0
 78
     4
170
     0
171
     2
172
     0
173
     0
174
     0
175
     0
176
     0
177
     0
178
   256
270
     2
271
     2
272
     0
273
     2
274
     2
340
10A
275
     0
280
     0
281
     0
282
     0
283
     1
284
     4
285
     0
286
     0
287
     1
288
     1
  0
ENDTAB
  0
TABLE
  2
BLOCK_RECORD
  5
1
330
0
100
AcDbSymbolTable
 70
     0
  0
BLOCK_RECORD
  5
18
102
{ACAD_XDICTIONARY
360
571
102
}
330
1
100
AcDbSymbolTableRecord
100
AcDbBlockTableRecord
  2
*MODEL_SPACE
  0
BLOCK_RECORD
  5
15
102
{ACAD_XDICTIONARY
360
56F
102
}
330
1
100
AcDbSymbolTableRecord
100
AcDbBlockTableRecord
  2
*PAPER_SPACE
  0
ENDTAB
  0
ENDSEC
  0
SECTION
  2
BLOCKS
  0
BLOCK
  5
19
330
18
100
AcDbEntity
  8
0
100
AcDbBlockBegin
  2
*MODEL_SPACE
 70
     0
 10
0.0
 20
0.0
 30
0.0
  3
*MODEL_SPACE
  1

  0
ENDBLK
  5
1A
330
18
100
AcDbEntity
  8
0
100
AcDbBlockEnd
  0
BLOCK
  5
16
330
15
100
AcDbEntity
 67
     1
  8
0
100
AcDbBlockBegin
  2
*PAPER_SPACE
 70
     0
 10
0.0
 20
0.0
 30
0.0
  3
*PAPER_SPACE
  1

  0
ENDBLK
  5
17
330
15
100
AcDbEntity
 67
     1
  8
0
100
AcDbBlockEnd
  0
ENDSEC
  0
SECTION
  2
ENTITIES
  0
REGION
  5
350
330
18
100
AcDbEntity
  8
0
100
AcDbModelerGeometry
 70
     1
  1
noi noj n o         
  1
=0;& {n {m {rn {rn |
  1
9@=0;&r3(;r>++-6= {rn {l {rn {o |
  1
3*2/ {k {rn {j {o |
  1
-:9@)+r3(;r>++-6= {rn {rn {n {o {i {h |
  1
-:9@)+r3(;r>++-6= {rn {rn {rn {m {i {h |
  1
,7:33 {g {rn {rn {f {m |
  1
-:961:2:1+ {rn o o o o oqoolllhllhiljkjhjnjh o o k m o |
  1
):-+:'@+:2/3>+: {rn l o n g |
  1
-:9@)+r3(;r>++-6= {rn {rn {rn {j {i {h |
  1
9><: {no {rn {nn {j {rn {nm 90-(>-; ;0*=3: 0*+ |
  1
99><:r3(;r>++-6= {rn {nl {rn {f |
  1
300/ {rn {rn {nk {f |
  1
/3>1:r,*-9><: {rn nqmffhkhmomlghgnkf lqmlgknhgooolnioom o o o n n o o o V V V V |
  1
-:9@)+r3(;r>++-6= {rn {rn {no {f {i {rn |
  1
<0:;8: {nj {ni {nh {rn {ng o {nn {rn |
  1
<0/>-r3(;r>++-6= {rn {rn {rn {nk |
  1
<0:;8: {nf {mo {nk {rn {mn o {nn {rn |
  1
<0:;8: {mm {nk {ml {rn {mk n {nn {rn |
  1
:;8: {mj {mi {mh {nk {mg o |
  1
<0/>-r3(;r>++-6= {rn {rn {rn {ni |
  1
<0:;8: {mf {lo {ni {rn {ln o {nn {rn |
  1
:;8: {lm {mh {ll {ni {lk o |
  1
<0/>-r3(;r>++-6= {rn {rn {rn {nh |
  1
<0:;8: {lj {nh {li {rn {lh o {nn {rn |
  1
:;8: {lg {mi {lf {nh {ko o |
  1
:/>-r3(;r>++-6= {rn {rn {rn {ng |
  1
):-+:' {rn {ng {kn |
  1
):-+:' {rn {ng {km |
  1
,+->687+r<*-): {rn nqogfjolohggmhlhgn lqlkjfmgonfhoijjjh o rmqnokiggnfglknjmgm:ronj n o V V |
  1
<0/>-r3(;r>++-6= {rn {rn {rn {mo |
  1
<0:;8: {kl {kk {mo {rn {kj o {nn {rn |
  1
:;8: {ki {ll {kh {mo {kg o |
  1
:/>-r3(;r>++-6= {rn {rn {rn {mn |
  1
):-+:' {rn {mn {kf |
  1
,+->687+r<*-): {rn nqogfjolohggmhlhhm lqhihfmgonfhoijjjf o n mqngimgjlkogoologk:ronj o V V |
  1
<0/>-r3(;r>++-6= {rn {rn {rn {ml |
  1
<0:;8: {jo {ml {jn {rn {jm o {nn {rn |
  1
:;8: {jl {jk {lf {ml {jj o |
  1
:/>-r3(;r>++-6= {rn {rn {rn {mk |
  1
):-+:' {rn {lh {ji |
  1
,+->687+r<*-): {rn nqogfjolohggmhlhgn lqlkjfmgonfhoijjjh o n mqngimgjlkogoolnln:ronj o V V |
  1
/061+ {rn nqogfjolohggmhlhgn lqlkjfmgonfhoijjjh o |
  1
/061+ {rn nqogfjolohggmhlhhm lqhihfmgonfhoijjjf o |
  1
<0/>-r3(;r>++-6= {rn {rn {rn {lo |
  1
<0:;8: {jh {jg {lo {rn {jf o {nn {rn |
  1
:;8: {io {kh {in {lo {im o |
  1
:/>-r3(;r>++-6= {rn {rn {rn {ln |
  1
):-+:' {rn {ln {il |
  1
:336/,:r<*-): {rn nqkfjhjlohggmhlhhi lqhffnhgonfhoijjil o o o n oqolnmkffffffffffjji o o n V V |
  1
/061+ {rn nqkfjhjlohggmhlhhm lqhihfmgonfhoijjig o |
  1
<0/>-r3(;r>++-6= {rn {rn {rn {li |
  1
<0:;8: {ik {li {ij {rn {ii o {nn {rn |
  1
:;8: {ih {ig {jk {li {if o |
  1
:/>-r3(;r>++-6= {rn {rn {rn {lh |
  1
):-+:' {rn {jm {ho |
  1
:336/,:r<*-): {rn nqkfjhjlohggmhlhhm lqlnkihgonfhoijjii o o o n oqolnmj o o n V V |
  1
/061+ {rn nqkfjhjlohggmhlhhm lqlkjfmgonfhoijjii o |
  1
<0/>-r3(;r>++-6= {rn {rn {rn {kk |
  1
<0:;8: {hn {hm {kk {rn {hl o {nn {rn |
  1
:;8: {hk {in {hj {kk {hi o |
  1
:/>-r3(;r>++-6= {rn {rn {rn {kj |
  1
):-+:' {rn {kj {hh |
  1
:336/,:r<*-): {rn nqkfjhjlohggmhlhhm lqhffnhgonfhoijjjf o o o n oqolnmj o o n V V |
  1
/061+ {rn nqjmhoolohggmhlhhm lqhffnhgonfhoijjjf o |
  1
<0/>-r3(;r>++-6= {rn {rn {rn {jn |
  1
<0:;8: {hg {jn {hf {rn {go o {nn {rn |
  1
:;8: {gn {gm {ig {jn {gl o |
  1
:/>-r3(;r>++-6= {rn {rn {rn {jm |
  1
):-+:' {rn {ii {gk |
  1
:336/,:r<*-): {rn nqkfjhjlohggmhlhhm lqlnkihgonfhoijjii o o o n oqolnmj o o n V V |
  1
/061+ {rn nqjmhoolohggmhlhhm lqlnkihgonfhoijjii o |
  1
<0/>-r3(;r>++-6= {rn {rn {rn {jg |
  1
<0:;8: {gj {hf {jg {rn {gi o {nn {rn |
  1
:;8: {gh {hj {gg {jg {gf o |
  1
:/>-r3(;r>++-6= {rn {rn {rn {jf |
  1
):-+:' {rn {jf {fo |
  1
,+->687+r<*-): {rn nqkfjhjlohggmhlhhm lqglokmgonfhoijjjf o rn o o V V |
  1
/061+ {rn nqkfjhjlohggmhlhhm lqglokmgonfhoijjjf o |
  1
<0/>-r3(;r>++-6= {rn {rn {rn {ij |
  1
<0:;8: {fn {ij {hm {rn {fm o {nn {rn |
  1
:;8: {fl {fk {gm {ij {fj o |
  1
:/>-r3(;r>++-6= {rn {rn {rn {ii |
  1
):-+:' {rn {go {fi |
  1
,+->687+r<*-): {rn nqogfjolohggmhlhhm lqmglkmgonfhoijjii o n o o V V |
  1
/061+ {rn nqkfjhjlohggmhlhhm lqmglkmgonfhoijjii o |
  1
<0/>-r3(;r>++-6= {rn {rn {rn {hm |
  1
:;8: {fh {gg {fg {hm {ff o |
  1
:/>-r3(;r>++-6= {rn {rn {rn {hl |
  1
):-+:' {rn {hl {noo |
  1
,+->687+r<*-): {rn nqomhoolohggmhlhhm lqglokmgonfhoijjjf o o rn o V V |
  1
/061+ {rn nqomhoolohggmhlhhm lqglokmgonfhoijjjf o |
  1
<0/>-r3(;r>++-6= {rn {rn {rn {hf |
  1
:;8: {non {fg {fk {hf {nom o |
  1
:/>-r3(;r>++-6= {rn {rn {rn {go |
  1
):-+:' {rn {fm {nol |
  1
,+->687+r<*-): {rn nqogfjolohggmhlhhm mqlinihgonfhoijjjf o o n o V V |
  1
/061+ {rn nqogfjolohggmhlhhm lqmglkmgonfhoijjii o |
  1
:/>-r3(;r>++-6= {rn {rn {rn {gi |
  1
):-+:' {rn {gi {nok |
  1
:336/,:r<*-): {rn nqojgmjlohggmhlhhm mqlinihgonfhoijjjf o o o n oqolnmj o o n V V |
  1
/061+ {rn nqomhoolohggmhlhhm mqlinihgonfhoijjjf o |
  1
:/>-r3(;r>++-6= {rn {rn {rn {fm |
  1
:336/,:r<*-): {rn nqojgmjlohggmhlhhm mqlinihgonfhoijjjf o o o n oqolnmj o o n V V |
  1
/061+ {rn nqogfjolohggmhlhhm mqlinihgonfhoijjjf o |
  1
/061+ {rn nqojgmjlohggmhlhhi mqllokmgonfhoijjjf o |
  0
TEXT
  5
4C2
330
18
100
AcDbEntity
  8
TEXT
100
AcDbText
 10
0.3777722595787659
 20
1.971481261191907
 30
0.0
 40
0.125
  1
PART #110652
  7
ITALICC
 72
     1
 11
1.130748450054956
 21
1.971481261191907
 31
0.0
100
AcDbText
  0
LINE
  5
4C3
330
18
100
AcDbEntity
  8
TEXT
100
AcDbLine
 10
1.098481949007019
 20
1.727127575172073
 30
0.0
 11
1.175129930299577
 21
1.727127575172073
 31
0.0
  0
LINE
  5
4C4
330
18
100
AcDbEntity
  8
TEXT
100
AcDbLine
 10
1.170650042973076
 20
1.791404269828839
 30
0.0
 11
1.10315032532356
 21
1.791404269828839
 31
0.0
  0
LWPOLYLINE
  5
4C5
330
18
100
AcDbEntity
  8
TEXT
100
AcDbPolyline
 90
        5
 70
     0
 43
0.0001332181640625
 10
-0.5386300935276558
 20
1.668177468071026
 10
-0.5253082771214071
 20
1.668177468071026
 10
-0.5253082771214071
 20
1.704812463188216
 10
-0.4886732820042173
 20
1.704812463188216
 10
-0.4886732820042173
 20
1.718134279594463
  0
LWPOLYLINE
  5
4C6
330
18
100
AcDbEntity
  8
TEXT
100
AcDbPolyline
 90
        3
 70
     0
 43
0.0006660908203125
 10
-0.4986646443089078
 20
1.764760637016341
 10
-0.5852564509495326
 20
1.764760637016341
 10
-0.5852564509495326
 20
1.678168830375715
  0
LWPOLYLINE
  5
4C7
330
18
100
AcDbEntity
  8
TEXT
100
AcDbPolyline
 90
        3
 70
     0
 43
0.0006660908203125
 10
-0.4986646443089078
 20
1.791404269828842
 10
-0.6119000837620301
 20
1.791404269828842
 10
-0.6119000837620301
 20
1.678168830375715
  0
LWPOLYLINE
  5
4C8
330
18
100
AcDbEntity
  8
TEXT
100
AcDbPolyline
 90
        5
 70
     0
 43
0.0001332181640625
 10
-0.4886732820042173
 20
1.598237931938215
 10
-0.4886732820042173
 20
1.611559748344466
 10
-0.5253082771214053
 20
1.611559748344466
 10
-0.5253082771214053
 20
1.648194743461652
 10
-0.5386300935276558
 20
1.648194743461652
  0
LWPOLYLINE
  5
4C9
330
18
100
AcDbEntity
  8
TEXT
100
AcDbPolyline
 90
        3
 70
     0
 43
0.0006660908203125
 10
-0.5852564509495326
 20
1.638203381156967
 10
-0.5852564509495326
 20
1.55161157451634
 10
-0.4986646443089078
 20
1.55161157451634
  0
LWPOLYLINE
  5
4CA
330
18
100
AcDbEntity
  8
TEXT
100
AcDbPolyline
 90
        3
 70
     0
 43
0.0006660908203125
 10
-0.6119000837620301
 20
1.638203381156967
 10
-0.6119000837620301
 20
1.524967941703839
 10
-0.4986646443089078
 20
1.524967941703839
  0
LWPOLYLINE
  5
4CB
330
18
100
AcDbEntity
  8
TEXT
100
AcDbPolyline
 90
        2
 70
     0
 43
0.0001332181640625
 10
-0.5852564509495326
 20
1.638203381156967
 10
-0.5253082771214053
 20
1.648194743461652
  0
LWPOLYLINE
  5
4CC
330
18
100
AcDbEntity
  8
TEXT
100
AcDbPolyline
 90
        2
 70
     0
 43
0.0001332181640625
 10
-0.5386300935276558
 20
1.648194743461652
 10
-0.6119000837620301
 20
1.638203381156967
  0
LWPOLYLINE
  5
4CD
330
18
100
AcDbEntity
  8
TEXT
100
AcDbPolyline
 90
        2
 70
     0
 43
0.0006660908203125
 10
-0.5852564509495326
 20
1.638203381156967
 10
-0.6119000837620301
 20
1.638203381156967
  0
LWPOLYLINE
  5
4CE
330
18
100
AcDbEntity
  8
TEXT
100
AcDbPolyline
 90
        2
 70
     0
 43
0.0001332181640625
 10
-0.5852564509495326
 20
1.55161157451634
 10
-0.5253082771214053
 20
1.611559748344466
  0
LWPOLYLINE
  5
4CF
330
18
100
AcDbEntity
  8
TEXT
100
AcDbPolyline
 90
        2
 70
     0
 43
0.0006660908203125
 10
-0.5852564509495326
 20
1.678168830375715
 10
-0.6119000837620301
 20
1.678168830375715
  0
LWPOLYLINE
  5
4D0
330
18
100
AcDbEntity
  8
TEXT
100
AcDbPolyline
 90
        2
 70
     0
 43
0.0001332181640625
 10
-0.6119000837620301
 20
1.678168830375715
 10
-0.5386300935276558
 20
1.668177468071026
  0
LWPOLYLINE
  5
4D1
330
18
100
AcDbEntity
  8
TEXT
100
AcDbPolyline
 90
        2
 70
     0
 43
0.0001332181640625
 10
-0.5852564509495326
 20
1.678168830375715
 10
-0.5253082771214071
 20
1.668177468071026
  0
LWPOLYLINE
  5
4D2
330
18
100
AcDbEntity
  8
TEXT
100
AcDbPolyline
 90
        2
 70
     0
 43
0.0001332181640625
 10
-0.5852564509495326
 20
1.764760637016341
 10
-0.5253082771214071
 20
1.704812463188216
  0
LWPOLYLINE
  5
4D3
330
18
100
AcDbEntity
  8
TEXT
100
AcDbPolyline
 90
        5
 70
     0
 43
0.0001332181640625
 10
-0.4187337458714065
 20
1.648194743461652
 10
-0.4320555622776552
 20
1.648194743461652
 10
-0.4320555622776552
 20
1.611559748344466
 10
-0.468690557394845
 20
1.611559748344466
 10
-0.468690557394845
 20
1.598237931938215
  0
LWPOLYLINE
  5
4D4
330
18
100
AcDbEntity
  8
TEXT
100
AcDbPolyline
 90
        2
 70
     0
 43
0.0001332181640625
 10
-0.3721073884495314
 20
1.638203381156967
 10
-0.4320555622776552
 20
1.648194743461652
  0
LWPOLYLINE
  5
4D5
330
18
100
AcDbEntity
  8
TEXT
100
AcDbPolyline
 90
        2
 70
     0
 43
0.0001332181640625
 10
-0.3454637556370304
 20
1.638203381156967
 10
-0.4187337458714065
 20
1.648194743461652
  0
LWPOLYLINE
  5
4D6
330
18
100
AcDbEntity
  8
TEXT
100
AcDbPolyline
 90
        3
 70
     0
 43
0.0006660908203125
 10
-0.4586991950901563
 20
1.524967941703839
 10
-0.3454637556370304
 20
1.524967941703839
 10
-0.3454637556370304
 20
1.638203381156967
  0
LWPOLYLINE
  5
4D7
330
18
100
AcDbEntity
  8
TEXT
100
AcDbPolyline
 90
        3
 70
     0
 43
0.0006660908203125
 10
-0.4586991950901563
 20
1.55161157451634
 10
-0.3721073884495314
 20
1.55161157451634
 10
-0.3721073884495314
 20
1.638203381156967
  0
LWPOLYLINE
  5
4D8
330
18
100
AcDbEntity
  8
TEXT
100
AcDbPolyline
 90
        2
 70
     0
 43
0.0001332181640625
 10
-0.3721073884495314
 20
1.55161157451634
 10
-0.4320555622776552
 20
1.611559748344466
  0
LWPOLYLINE
  5
4D9
330
18
100
AcDbEntity
  8
TEXT
100
AcDbPolyline
 90
        2
 70
     0
 43
0.0006660908203125
 10
-0.4586991950901563
 20
1.55161157451634
 10
-0.4586991950901563
 20
1.524967941703839
  0
LWPOLYLINE
  5
4DA
330
18
100
AcDbEntity
  8
TEXT
100
AcDbPolyline
 90
        2
 70
     0
 43
0.0001332181640625
 10
-0.468690557394845
 20
1.598237931938215
 10
-0.4586991950901563
 20
1.524967941703839
  0
LWPOLYLINE
  5
4DB
330
18
100
AcDbEntity
  8
TEXT
100
AcDbPolyline
 90
        2
 70
     0
 43
0.0001332181640625
 10
-0.4586991950901563
 20
1.55161157451634
 10
-0.468690557394845
 20
1.611559748344466
  0
LWPOLYLINE
  5
4DC
330
18
100
AcDbEntity
  8
TEXT
100
AcDbPolyline
 90
        2
 70
     0
 43
0.0001332181640625
 10
-0.4986646443089078
 20
1.524967941703839
 10
-0.4886732820042173
 20
1.598237931938215
  0
LWPOLYLINE
  5
4DD
330
18
100
AcDbEntity
  8
TEXT
100
AcDbPolyline
 90
        2
 70
     0
 43
0.0001332181640625
 10
-0.4986646443089078
 20
1.55161157451634
 10
-0.4886732820042173
 20
1.611559748344466
  0
LWPOLYLINE
  5
4DE
330
18
100
AcDbEntity
  8
TEXT
100
AcDbPolyline
 90
        2
 70
     0
 43
0.0006660908203125
 10
-0.4986646443089078
 20
1.55161157451634
 10
-0.4986646443089078
 20
1.524967941703839
  0
LWPOLYLINE
  5
4DF
330
18
100
AcDbEntity
  8
TEXT
100
AcDbPolyline
 90
        2
 70
     0
 43
0.0006660908203125
 10
-0.3721073884495314
 20
1.638203381156967
 10
-0.3454637556370304
 20
1.638203381156967
  0
LWPOLYLINE
  5
4E0
330
18
100
AcDbEntity
  8
TEXT
100
AcDbPolyline
 90
        2
 70
     0
 43
0.0001332181640625
 10
-0.3721073884495314
 20
1.764760637016341
 10
-0.4320555622776552
 20
1.704812463188216
  0
LWPOLYLINE
  5
4E1
330
18
100
AcDbEntity
  8
TEXT
100
AcDbPolyline
 90
        2
 70
     0
 43
0.0001332181640625
 10
-0.3721073884495314
 20
1.678168830375715
 10
-0.4320555622776552
 20
1.668177468071026
  0
LWPOLYLINE
  5
4E2
330
18
100
AcDbEntity
  8
TEXT
100
AcDbPolyline
 90
        2
 70
     0
 43
0.0001332181640625
 10
-0.4187337458714065
 20
1.668177468071026
 10
-0.3454637556370304
 20
1.678168830375715
  0
LWPOLYLINE
  5
4E3
330
18
100
AcDbEntity
  8
TEXT
100
AcDbPolyline
 90
        3
 70
     0
 43
0.0006660908203125
 10
-0.3721073884495314
 20
1.678168830375715
 10
-0.3721073884495314
 20
1.764760637016341
 10
-0.4586991950901563
 20
1.764760637016341
  0
LWPOLYLINE
  5
4E4
330
18
100
AcDbEntity
  8
TEXT
100
AcDbPolyline
 90
        3
 70
     0
 43
0.0006660908203125
 10
-0.3454637556370304
 20
1.678168830375715
 10
-0.3454637556370304
 20
1.791404269828842
 10
-0.4586991950901563
 20
1.791404269828842
  0
LWPOLYLINE
  5
4E5
330
18
100
AcDbEntity
  8
TEXT
100
AcDbPolyline
 90
        2
 70
     0
 43
0.0001332181640625
 10
-0.4586991950901563
 20
1.791404269828842
 10
-0.468690557394845
 20
1.718134279594463
  0
LWPOLYLINE
  5
4E6
330
18
100
AcDbEntity
  8
TEXT
100
AcDbPolyline
 90
        2
 70
     0
 43
0.0001332181640625
 10
-0.4586991950901563
 20
1.764760637016341
 10
-0.468690557394845
 20
1.704812463188216
  0
LWPOLYLINE
  5
4E7
330
18
100
AcDbEntity
  8
TEXT
100
AcDbPolyline
 90
        2
 70
     0
 43
0.0006660908203125
 10
-0.4586991950901563
 20
1.764760637016341
 10
-0.4586991950901563
 20
1.791404269828842
  0
LWPOLYLINE
  5
4E8
330
18
100
AcDbEntity
  8
TEXT
100
AcDbPolyline
 90
        5
 70
     0
 43
0.0001332181640625
 10
-0.468690557394845
 20
1.718134279594463
 10
-0.468690557394845
 20
1.704812463188216
 10
-0.4320555622776552
 20
1.704812463188216
 10
-0.4320555622776552
 20
1.668177468071026
 10
-0.4187337458714065
 20
1.668177468071026
  0
LWPOLYLINE
  5
4E9
330
18
100
AcDbEntity
  8
TEXT
100
AcDbPolyline
 90
        2
 70
     0
 43
0.0001332181640625
 10
-0.4986646443089078
 20
1.764760637016341
 10
-0.4886732820042173
 20
1.704812463188216
  0
LWPOLYLINE
  5
4EA
330
18
100
AcDbEntity
  8
TEXT
100
AcDbPolyline
 90
        2
 70
     0
 43
0.0001332181640625
 10
-0.4886732820042173
 20
1.718134279594463
 10
-0.4986646443089078
 20
1.791404269828842
  0
LWPOLYLINE
  5
4EB
330
18
100
AcDbEntity
  8
TEXT
100
AcDbPolyline
 90
        2
 70
     0
 43
0.0006660908203125
 10
-0.4986646443089078
 20
1.764760637016341
 10
-0.4986646443089078
 20
1.791404269828842
  0
LWPOLYLINE
  5
4EC
330
18
100
AcDbEntity
  8
TEXT
100
AcDbPolyline
 90
        2
 70
     0
 43
0.0006660908203125
 10
-0.3721073884495314
 20
1.678168830375715
 10
-0.3454637556370304
 20
1.678168830375715
  0
LWPOLYLINE
  5
4ED
330
18
100
AcDbEntity
  8
TEXT
100
AcDbPolyline
 90
        2
 70
     0
 43
0.0
 10
0.3733161651115999
 20
1.576482579055256
 42
0.3318488747599744
 10
0.442435457676913
 20
1.524931236840328
 42
-6.868794160588311
  0
LINE
  5
4EE
330
18
100
AcDbEntity
  8
TEXT
100
AcDbLine
 10
0.4412958841807173
 20
1.859415747567649
 30
0.0
 11
0.3744871716143523
 21
1.859415747567649
 31
0.0
  0
LINE
  5
4EF
330
18
100
AcDbEntity
  8
TEXT
100
AcDbLine
 10
0.0951448039952583
 20
1.791404269828839
 30
0.0
 11
-0.0805869489032532
 21
1.791404269828839
 31
0.0
  0
ARC
  5
4F0
330
18
100
AcDbEntity
  8
TEXT
100
AcDbCircle
 10
-0.0097494825447035
 20
1.608127045200885
 30
0.0
 40
0.0831958083605586
100
AcDbArc
 50
270.0
 51
90.0
  0
LINE
  5
4F1
330
18
100
AcDbEntity
  8
TEXT
100
AcDbLine
 10
-0.075349618789005
 20
1.727127575172073
 30
0.0
 11
0.0915560352399654
 21
1.727127575172073
 31
0.0
  0
LINE
  5
4F2
330
18
100
AcDbEntity
  8
TEXT
100
AcDbLine
 10
-0.0048091086384243
 20
1.593288243173767
 30
0.0
 11
-0.1626744083497584
 21
1.593288243173767
 31
0.0
  0
LINE
  5
4F3
330
18
100
AcDbEntity
  8
TEXT
100
AcDbLine
 10
-0.1626744083497567
 20
1.524931236840328
 30
0.0
 11
-0.009749482544704
 21
1.524931236840328
 31
0.0
  0
ARC
  5
4F4
330
18
100
AcDbEntity
  8
TEXT
100
AcDbCircle
 10
-0.0805869489032527
 20
1.709316810382337
 30
0.0
 40
0.0820874594465043
100
AcDbArc
 50
90.0
 51
270.0
  0
LINE
  5
4F5
330
18
100
AcDbEntity
  8
TEXT
100
AcDbLine
 10
-0.1626744083497584
 20
1.593288243173767
 30
0.0
 11
-0.1626744083497567
 21
1.524931236840328
 31
0.0
  0
LINE
  5
4F6
330
18
100
AcDbEntity
  8
TEXT
100
AcDbLine
 10
-0.0805869489032532
 20
1.627229350935832
 30
0.0
 11
-0.0048091086384243
 21
1.627229350935832
 31
0.0
  0
ARC
  5
4F7
330
18
100
AcDbEntity
  8
TEXT
100
AcDbCircle
 10
-0.0048091086384239
 20
1.610258797054801
 30
0.0
 40
0.0169705538810321
100
AcDbArc
 50
270.0
 51
90.0
  0
LINE
  5
4F8
330
18
100
AcDbEntity
  8
TEXT
100
AcDbLine
 10
-0.009749482544704
 20
1.691322853561445
 30
0.0
 11
-0.075349618789005
 21
1.691322853561445
 31
0.0
  0
ARC
  5
4F9
330
18
100
AcDbEntity
  8
TEXT
100
AcDbCircle
 10
-0.0753496187890046
 20
1.709225214366761
 30
0.0
 40
0.017902360805315
100
AcDbArc
 50
90.0
 51
270.0
  0
LINE
  5
4FA
330
18
100
AcDbEntity
  8
TEXT
100
AcDbLine
 10
0.2856166960151105
 20
1.690532273715718
 30
0.0
 11
0.2269863749831726
 21
1.791404269828839
 31
0.0
  0
LINE
  5
4FB
330
18
100
AcDbEntity
  8
TEXT
100
AcDbLine
 10
0.145442642720071
 20
1.524931236840328
 30
0.0
 11
0.2420828937950654
 21
1.52520187593861
 31
0.0
  0
LWPOLYLINE
  5
4FC
330
18
100
AcDbEntity
  8
TEXT
100
AcDbPolyline
 90
        6
 70
     1
 43
0.0
 10
0.1879664462952211
 20
1.727127575172073
 10
0.1576498520750129
 20
1.727127575172073
 10
0.1576498520750129
 20
1.604016577117179
 42
0.407328721240804
 10
0.1691935032364893
 20
1.592197662440793
 10
0.2298152022812201
 20
1.592197662440793
 10
0.247280542688538
 20
1.625009891484272
  0
LINE
  5
4FD
330
18
100
AcDbEntity
  8
TEXT
100
AcDbLine
 10
0.0915560352399654
 20
1.727127575172073
 30
0.0
 11
0.0915560352399654
 21
1.584723628178378
 31
0.0
  0
ARC
  5
4FE
330
18
100
AcDbEntity
  8
TEXT
100
AcDbCircle
 10
0.1516720532137179
 20
1.584723628178378
 30
0.0
 40
0.0601160179737537
100
AcDbArc
 50
180.0000000000003
 51
264.0521544866073
  0
LINE
  5
4FF
330
18
100
AcDbEntity
  8
TEXT
100
AcDbLine
 10
0.1551874088392653
 20
1.825792187422977
 30
0.0
 11
0.0951448039952583
 21
1.825792187422977
 31
0.0
  0
LINE
  5
500
330
18
100
AcDbEntity
  8
TEXT
100
AcDbLine
 10
0.0951448039952583
 20
1.825792187422977
 30
0.0
 11
0.0951448039952583
 21
1.791404269828839
 31
0.0
  0
LINE
  5
501
330
18
100
AcDbEntity
  8
TEXT
100
AcDbLine
 10
0.1551874088392653
 20
1.791404269828839
 30
0.0
 11
0.1551874088392653
 21
1.825792187422977
 31
0.0
  0
LINE
  5
502
330
18
100
AcDbEntity
  8
TEXT
100
AcDbLine
 10
0.2269863749831726
 20
1.791404269828839
 30
0.0
 11
0.1551874088392653
 21
1.791404269828839
 31
0.0
  0
LINE
  5
503
330
18
100
AcDbEntity
  8
TEXT
100
AcDbLine
 10
0.2760164590181562
 20
1.544889742945341
 30
0.0
 11
0.3733161651116008
 21
1.709239953880609
 31
0.0
  0
LINE
  5
504
330
18
100
AcDbEntity
  8
TEXT
100
AcDbLine
 10
0.3733161651116008
 20
1.709239953880609
 30
0.0
 11
0.3733161651116008
 21
1.576482579055253
 31
0.0
  0
ARC
  5
505
330
18
100
AcDbEntity
  8
TEXT
100
AcDbCircle
 10
0.2419728991059427
 20
1.564478959114024
 30
0.0
 40
0.0392772371940762
100
AcDbArc
 50
270.1604552698595
 51
330.0831797321295
  0
LINE
  5
506
330
18
100
AcDbEntity
  8
TEXT
100
AcDbLine
 10
0.344365258820976
 20
1.791404269828839
 30
0.0
 11
0.2856166960151105
 21
1.690532273715718
 31
0.0
  0
LINE
  5
507
330
18
100
AcDbEntity
  8
TEXT
100
AcDbLine
 10
0.3744871716143523
 20
1.859415747567649
 30
0.0
 11
0.3744871716143523
 21
1.791404269828839
 31
0.0
  0
LINE
  5
508
330
18
100
AcDbEntity
  8
TEXT
100
AcDbLine
 10
0.3744871716143523
 20
1.791404269828839
 30
0.0
 11
0.344365258820976
 21
1.791404269828839
 31
0.0
  0
LWPOLYLINE
  5
509
330
18
100
AcDbEntity
  8
TEXT
100
AcDbPolyline
 90
        4
 70
     0
 43
0.0
 10
0.7265732932345106
 20
1.719573786005963
 10
0.7265732932345106
 20
1.524931236840328
 10
0.7950515765223685
 20
1.524931236840328
 10
0.7950515765223685
 20
1.568422181790766
 42
-1.714843617202739
  0
LWPOLYLINE
  5
50A
330
18
100
AcDbEntity
  8
TEXT
100
AcDbPolyline
 90
        2
 70
     0
 43
0.0
 10
0.7617076437787205
 20
1.791404269828842
 42
-0.3277054968067132
 10
0.7974893344918855
 20
1.763081724059198
 42
6.667889725900311
  0
LWPOLYLINE
  5
50B
330
18
100
AcDbEntity
  8
TEXT
100
AcDbPolyline
 90
        2
 70
     0
 43
0.0
 10
0.5902740711994934
 20
1.727127575172073
 42
-0.4142135623731017
 10
0.5978278603656069
 20
1.719573786005963
 42
-0.9999999999999998
  0
LINE
  5
50C
330
18
100
AcDbEntity
  8
TEXT
100
AcDbLine
 10
0.6076257942495138
 20
1.791404269828839
 30
0.0
 11
0.4736077383183775
 21
1.791404269828839
 31
0.0
  0
LINE
  5
50D
330
18
100
AcDbEntity
  8
TEXT
100
AcDbLine
 10
0.5404387913763467
 20
1.524931236840328
 30
0.0
 11
0.5404387913763467
 21
1.727127575172073
 31
0.0
  0
LINE
  5
50E
330
18
100
AcDbEntity
  8
TEXT
100
AcDbLine
 10
0.4736077383183775
 20
1.791404269828839
 30
0.0
 11
0.4736077383183775
 21
1.590540063096431
 31
0.0
  0
LINE
  5
50F
330
18
100
AcDbEntity
  8
TEXT
100
AcDbLine
 10
0.4412958841807173
 20
1.607319074943327
 30
0.0
 11
0.4412958841807173
 21
1.859415747567649
 31
0.0
  0
LINE
  5
510
330
18
100
AcDbEntity
  8
TEXT
100
AcDbLine
 10
0.4424354576769121
 20
1.524931236840328
 30
0.0
 11
0.5404387913763467
 21
1.524931236840328
 31
0.0
  0
LINE
  5
511
330
18
100
AcDbEntity
  8
TEXT
100
AcDbLine
 10
0.4736077383183775
 20
1.590540063096431
 30
0.0
 11
0.4566141014337762
 21
1.590540063096431
 31
0.0
  0
ARC
  5
512
330
18
100
AcDbEntity
  8
TEXT
100
AcDbCircle
 10
0.4566141014337753
 20
1.605921869339856
 30
0.0
 40
0.0153818062434269
100
AcDbArc
 50
174.7883570302258
 51
270.0
  0
LINE
  5
513
330
18
100
AcDbEntity
  8
TEXT
100
AcDbLine
 10
0.5404387913763467
 20
1.727127575172073
 30
0.0
 11
0.5902740711994943
 21
1.727127575172073
 31
0.0
  0
LINE
  5
514
330
18
100
AcDbEntity
  8
TEXT
100
AcDbLine
 10
0.5978278603656078
 20
1.719573786005963
 30
0.0
 11
0.5978278603656078
 21
1.524931236840328
 31
0.0
  0
LINE
  5
515
330
18
100
AcDbEntity
  8
TEXT
100
AcDbLine
 10
0.6648859071474478
 20
1.524931236840328
 30
0.0
 11
0.6648859071474478
 21
1.727127575172073
 31
0.0
  0
LINE
  5
516
330
18
100
AcDbEntity
  8
TEXT
100
AcDbLine
 10
0.5978278603656078
 20
1.524931236840328
 30
0.0
 11
0.6648859071474478
 21
1.524931236840328
 31
0.0
  0
LWPOLYLINE
  5
517
330
18
100
AcDbEntity
  8
TEXT
100
AcDbPolyline
 90
        3
 70
     0
 43
0.0
 10
0.7617076437787205
 20
1.791404269828842
 10
0.6434074849626761
 20
1.791404269828842
 10
0.6434074849626761
 20
1.764236773067946
 42
-1.960274751411753
  0
LINE
  5
518
330
18
100
AcDbEntity
  8
TEXT
100
AcDbLine
 10
0.6648859071474478
 20
1.727127575172073
 30
0.0
 11
0.719019504068398
 21
1.727127575172073
 31
0.0
  0
LWPOLYLINE
  5
519
330
18
100
AcDbEntity
  8
TEXT
100
AcDbPolyline
 90
        2
 70
     0
 43
0.0
 10
0.6076257942495147
 20
1.791404269828842
 42
-0.3328679258950098
 10
0.6434074849626761
 20
1.764236773067946
 42
6.772930709997214
  0
LWPOLYLINE
  5
51A
330
18
100
AcDbEntity
  8
TEXT
100
AcDbPolyline
 90
        2
 70
     0
 43
0.0
 10
0.7190195040683971
 20
1.727127575172073
 42
-0.4142135623731017
 10
0.7265732932345106
 20
1.719573786005963
 42
-0.9999999999999998
  0
ARC
  5
51B
330
18
100
AcDbEntity
  8
TEXT
100
AcDbCircle
 10
0.9302943039318769
 20
1.749820702707936
 30
0.0
 40
0.0416329381542859
100
AcDbArc
 50
26.56974201007528
 51
87.20939649401342
  0
LWPOLYLINE
  5
51C
330
18
100
AcDbEntity
  8
TEXT
100
AcDbPolyline
 90
        2
 70
     0
 43
0.0
 10
0.838127509390004
 20
1.524931236840328
 10
0.9721449270213806
 20
1.524931236840328
 42
0.9999999999999998
  0
LWPOLYLINE
  5
51D
330
18
100
AcDbEntity
  8
TEXT
100
AcDbPolyline
 90
        4
 70
     1
 43
0.0
 10
0.952022461951488
 20
1.627895214824353
 10
0.8633621432916296
 20
1.627895214824353
 42
0.9999999999999998
 10
0.8633621432916296
 20
1.585496674320492
 10
0.952022461951488
 20
1.585496674320492
 42
1.0
  0
LWPOLYLINE
  5
51E
330
18
100
AcDbEntity
  8
TEXT
100
AcDbPolyline
 90
        2
 70
     0
 43
0.0
 10
0.7950515765223685
 20
1.568422181790766
 42
0.2901071551932823
 10
0.838127509390004
 20
1.524931236840328
 42
5.328517124445801
  0
LINE
  5
51F
330
18
100
AcDbEntity
  8
TEXT
100
AcDbLine
 10
0.9323212437089454
 20
1.791404269828839
 30
0.0
 11
0.7974893344918863
 21
1.791404269828839
 31
0.0
  0
LINE
  5
520
330
18
100
AcDbEntity
  8
TEXT
100
AcDbLine
 10
0.856803430885205
 20
1.689852601709941
 30
0.0
 11
0.9390914206685883
 21
1.689852601709941
 31
0.0
  0
LINE
  5
521
330
18
100
AcDbEntity
  8
TEXT
100
AcDbLine
 10
0.9032903453644669
 20
1.727127575172073
 30
0.0
 11
0.7960840719771776
 21
1.727127575172073
 31
0.0
  0
LINE
  5
522
330
18
100
AcDbEntity
  8
TEXT
100
AcDbLine
 10
0.7974893344918863
 20
1.791404269828839
 30
0.0
 11
0.7974893344918863
 21
1.763081724059195
 31
0.0
  0
ARC
  5
523
330
18
100
AcDbEntity
  8
TEXT
100
AcDbCircle
 10
0.8568034308852041
 20
1.622167020565822
 30
0.0
 40
0.0676855811441166
100
AcDbArc
 50
90.0
 51
153.7768192527749
  0
LINE
  5
524
330
18
100
AcDbEntity
  8
TEXT
100
AcDbLine
 10
0.7960840719771776
 20
1.727127575172073
 30
0.0
 11
0.7960840719771776
 21
1.652075169097867
 31
0.0
  0
LINE
  5
525
330
18
100
AcDbEntity
  8
TEXT
100
AcDbLine
 10
0.9390914206685883
 20
1.689852601709941
 30
0.0
 11
0.9288266602550239
 21
1.711103141282635
 31
0.0
  0
ARC
  5
526
330
18
100
AcDbEntity
  8
TEXT
100
AcDbCircle
 10
0.903290345364466
 20
1.698768200172076
 30
0.0
 40
0.028359375
100
AcDbArc
 50
25.78218179591245
 51
90.0
  0
LINE
  5
527
330
18
100
AcDbEntity
  8
TEXT
100
AcDbLine
 10
1.07357607372436
 20
1.524931236840328
 30
0.0
 11
1.073576073724354
 21
1.702221742271796
 31
0.0
  0
LWPOLYLINE
  5
528
330
18
100
AcDbEntity
  8
TEXT
100
AcDbPolyline
 90
        2
 70
     0
 43
0.0
 10
1.015220859889025
 20
1.524931236840328
 10
1.073576073724359
 20
1.524931236840328
  0
LWPOLYLINE
  5
529
330
18
100
AcDbEntity
  8
TEXT
100
AcDbPolyline
 90
        2
 70
     0
 43
0.0
 10
1.015220859889025
 20
1.568422181790766
 42
-0.2901071551932486
 10
0.9721449270213806
 20
1.524931236840328
 42
-5.328517124445184
  0
LWPOLYLINE
  5
52A
330
18
100
AcDbEntity
  8
TEXT
100
AcDbPolyline
 90
        2
 70
     0
 43
0.0
 10
1.015220859889025
 20
1.568422181790766
 10
1.015220859889025
 20
1.524931236840328
  0
LINE
  5
52B
330
18
100
AcDbEntity
  8
TEXT
100
AcDbLine
 10
1.075178088883487
 20
1.791404269828839
 30
0.0
 11
1.011281182583986
 21
1.791404269828839
 31
0.0
  0
LINE
  5
52C
330
18
100
AcDbEntity
  8
TEXT
100
AcDbLine
 10
1.011281182583986
 20
1.791404269828839
 30
0.0
 11
1.011281182583986
 21
1.686192291275411
 31
0.0
  0
LINE
  5
52D
330
18
100
AcDbEntity
  8
TEXT
100
AcDbLine
 10
1.011281182583986
 20
1.686192291275411
 30
0.0
 11
0.9675304114020848
 21
1.768442567271557
 31
0.0
  0
ARC
  5
52E
330
18
100
AcDbEntity
  8
TEXT
100
AcDbCircle
 10
1.098481949007018
 20
1.702221699889411
 30
0.0
 40
0.0249058752826653
100
AcDbArc
 50
89.99971217465335
 51
179.9999999999985
  0
ARC
  5
52F
330
18
100
AcDbEntity
  8
TEXT
100
AcDbCircle
 10
1.106370905946596
 20
1.760158542546574
 30
0.0
 40
0.0314112657011332
100
AcDbArc
 50
95.88484768694724
 51
173.2388340632136
  0
LINE
  5
530
330
18
100
AcDbEntity
  8
TEXT
100
AcDbLine
 10
1.075178088883487
 20
1.763856619967964
 30
0.0
 11
1.075178088883487
 21
1.791404269828839
 31
0.0
  0
TEXT
  5
531
330
18
100
AcDbEntity
  8
TEXT
100
AcDbText
 10
1.544053608305278
 20
1.617817045485824
 30
0.0
 40
0.0522247191011236
  1
Minneapolis, MN 55432-0008
 41
1.11444212721585
 72
     5
 11
2.872986192574941
 21
1.617817045485824
 31
0.0
100
AcDbText
  0
TEXT
  5
532
330
18
100
AcDbEntity
  8
TEXT
100
AcDbText
 10
1.544053608305278
 20
1.711075472452116
 30
0.0
 40
0.0522247191011236
  1
6536 Main St. N.E. * P.O. Box 32008
 41
0.8388932496075355
 72
     5
 11
2.872986192574941
 21
1.711075472452116
 31
0.0
100
AcDbText
  0
TEXT
  5
533
330
18
100
AcDbEntity
  8
TEXT
100
AcDbText
 10
1.544053608305278
 20
1.804333899418408
 30
0.0
 40
0.0522247191011236
  1
Stylmark  Incorporated
 41
1.221428571428571
 72
     5
 11
2.872986192574941
 21
1.804333899418408
 31
0.0
100
AcDbText
  0
TEXT
  5
534
330
18
100
AcDbEntity
  8
TEXT
100
AcDbText
 10
1.544053608305278
 20
1.524558618519532
 30
0.0
 40
0.0522247191011236
  1
Phone  1-800-328-2495
 41
1.272321428571429
 72
     5
 11
2.872986192574941
 21
1.524558618519532
 31
0.0
100
AcDbText
  0
LINE
  5
535
330
18
100
AcDbEntity
  8
TEXT
100
AcDbLine
 10
1.296497796842262
 20
1.681511026887865
 30
0.0
 11
1.361054912807968
 21
1.791404269828839
 31
0.0
  0
LINE
  5
536
330
18
100
AcDbEntity
  8
TEXT
100
AcDbLine
 10
1.361054912807968
 20
1.791404269828839
 30
0.0
 11
1.286063080078341
 21
1.791404269828839
 31
0.0
  0
LINE
  5
537
330
18
100
AcDbEntity
  8
TEXT
100
AcDbLine
 10
1.315411647829667
 20
1.524931236840328
 30
0.0
 11
1.391990020205873
 21
1.524931236840328
 31
0.0
  0
LINE
  5
538
330
18
100
AcDbEntity
  8
TEXT
100
AcDbLine
 10
1.391990020205873
 20
1.524931236840328
 30
0.0
 11
1.296497796842262
 21
1.681511026887865
 31
0.0
  0
LINE
  5
539
330
18
100
AcDbEntity
  8
TEXT
100
AcDbLine
 10
1.239508114618202
 20
1.524931236840328
 30
0.0
 11
1.239508114618202
 21
1.656510805316508
 31
0.0
  0
LINE
  5
53A
330
18
100
AcDbEntity
  8
TEXT
100
AcDbLine
 10
1.239508114618202
 20
1.656510805316508
 30
0.0
 11
1.315411647829667
 21
1.524931236840328
 31
0.0
  0
LINE
  5
53B
330
18
100
AcDbEntity
  8
TEXT
100
AcDbLine
 10
1.175129930299577
 20
1.727127575172073
 30
0.0
 11
1.175129930299582
 21
1.524931236840328
 31
0.0
  0
LINE
  5
53C
330
18
100
AcDbEntity
  8
TEXT
100
AcDbLine
 10
1.175129930299582
 20
1.524931236840328
 30
0.0
 11
1.239508114618202
 21
1.524931236840328
 31
0.0
  0
LINE
  5
53D
330
18
100
AcDbEntity
  8
TEXT
100
AcDbLine
 10
1.238964921522355
 20
1.856868475596439
 30
0.0
 11
1.170650042973082
 21
1.856868475596439
 31
0.0
  0
LINE
  5
53E
330
18
100
AcDbEntity
  8
TEXT
100
AcDbLine
 10
1.170650042973082
 20
1.856868475596439
 30
0.0
 11
1.170650042973076
 21
1.791404269828839
 31
0.0
  0
LINE
  5
53F
330
18
100
AcDbEntity
  8
TEXT
100
AcDbLine
 10
1.286063080078339
 20
1.791404269828839
 30
0.0
 11
1.238964921522355
 21
1.715538943417301
 31
0.0
  0
LINE
  5
540
330
18
100
AcDbEntity
  8
TEXT
100
AcDbLine
 10
1.238964921522355
 20
1.715538943417301
 30
0.0
 11
1.238964921522355
 21
1.856868475596439
 31
0.0
  0
ENDSEC
  0
SECTION
  2
OBJECTS
  0
DICTIONARY
  5
C
330
0
100
AcDbDictionary
  3
ACAD_GROUP
350
D
  3
ACAD_LAYOUT
350
545
  3
ACAD_MLINESTYLE
350
1B
  3
ACAD_PLOTSETTINGS
350
546
  3
ACAD_PLOTSTYLENAME
350
543
  3
ACDBHEADERROUNDTRIPXREC
350
54F
  3
ACDBVARIABLEDICTIONARY
350
42D
  0
DICTIONARY
  5
571
330
18
100
AcDbDictionary
280
     1
  3
ACAD_LAYOUTSELFREF
360
572
  0
DICTIONARY
  5
56F
330
15
100
AcDbDictionary
280
     1
  3
ACAD_LAYOUTSELFREF
360
570
  0
DICTIONARY
  5
D
102
{ACAD_REACTORS
330
C
102
}
330
C
100
AcDbDictionary
  3
*A1
350
10C
  3
*A2
350
237
  3
*A3
350
238
  3
*A4
350
239
  3
*A5
350
23A
  0
DICTIONARY
  5
545
102
{ACAD_REACTORS
330
C
102
}
330
C
100
AcDbDictionary
  0
DICTIONARY
  5
1B
102
{ACAD_REACTORS
330
C
102
}
330
C
100
AcDbDictionary
  3
STANDARD
350
1C
  0
DICTIONARY
  5
546
102
{ACAD_REACTORS
330
C
102
}
330
C
100
AcDbDictionary
  0
ACDBDICTIONARYWDFLT
  5
543
102
{ACAD_REACTORS
330
C
102
}
330
C
100
AcDbDictionary
281
     1
  3
Normal
350
544
100
AcDbDictionaryWithDefault
340
544
  0
DICTIONARY
  5
54F
102
{ACAD_REACTORS
330
C
102
}
330
C
100
AcDbDictionary
  3
CEPSNTYPE
350
559
  3
FINGERPRINTGUID
350
55A
  3
HYPERLINKBASE
350
552
  3
INSUNITS
350
558
  3
LAYOUTDICT
350
554
  3
LWETCUNION
350
557
  3
PLOTSETDICT
350
555
  3
PLOTSTYLNAMDICT
350
556
  3
PSVPSCALE
350
55C
  3
PUCSBASE
350
55F
  3
PUCSORGBACK
350
565
  3
PUCSORGBOTTOM
350
561
  3
PUCSORGFRONT
350
564
  3
PUCSORGLEFT
350
562
  3
PUCSORGRIGHT
350
563
  3
PUCSORGTOP
350
560
  3
PUCSORTHOREF
350
55D
  3
PUCSORTHOVIEW
350
55E
  3
STYLESHEET
350
553
  3
TSTACKALIGN
350
550
  3
TSTACKSIZE
350
551
  3
UCSBASE
350
568
  3
UCSORGBACK
350
56E
  3
UCSORGBOTTOM
350
56A
  3
UCSORGFRONT
350
56D
  3
UCSORGLEFT
350
56B
  3
UCSORGRIGHT
350
56C
  3
UCSORGTOP
350
569
  3
UCSORTHOREF
350
566
  3
UCSORTHOVIEW
350
567
  3
VERSIONGUID
350
55B
  0
DICTIONARY
  5
42D
102
{ACAD_REACTORS
330
C
102
}
330
C
100
AcDbDictionary
  3
DIMASSOC
350
54D
  3
SORTENTS
350
42E
  0
XRECORD
  5
572
102
{ACAD_REACTORS
330
571
102
}
330
571
100
AcDbXrecord
340
18
  0
XRECORD
  5
570
102
{ACAD_REACTORS
330
56F
102
}
330
56F
100
AcDbXrecord
340
15
  0
GROUP
  5
10C
102
{ACAD_REACTORS
330
D
102
}
330
D
100
AcDbGroup
300
BORDER FRAME 10-1-95
 70
     0
 71
     1
  0
GROUP
  5
237
102
{ACAD_REACTORS
330
D
102
}
330
D
100
AcDbGroup
300
BORDER FRAME 10-1-95
 70
     3
 71
     1
  0
GROUP
  5
238
102
{ACAD_REACTORS
330
D
102
}
330
D
100
AcDbGroup
300

 70
     1
 71
     1
  0
GROUP
  5
239
102
{ACAD_REACTORS
330
D
102
}
330
D
100
AcDbGroup
300

 70
     1
 71
     1
  0
GROUP
  5
23A
102
{ACAD_REACTORS
330
D
102
}
330
D
100
AcDbGroup
300

 70
     1
 71
     1
  0
MLINESTYLE
  5
1C
102
{ACAD_REACTORS
330
1B
102
}
330
1B
100
AcDbMlineStyle
  2
STANDARD
 70
     0
  3

 62
   256
 51
90.0
 52
90.0
 71
     2
 49
0.5
 62
   256
  6
BYLAYER
 49
-0.5
 62
   256
  6
BYLAYER
  0
ACDBPLACEHOLDER
  5
544
102
{ACAD_REACTORS
330
543
102
}
330
543
100
AcDbPlaceHolder
280
     0
  0
XRECORD
  5
559
102
{ACAD_REACTORS
330
54F
102
}
330
54F
100
AcDbXrecord
 90
        0
  0
XRECORD
  5
55A
102
{ACAD_REACTORS
330
54F
102
}
330
54F
100
AcDbXrecord
  1
{396D67D0-8DB9-11D6-88E6-0090279574E7}
  0
XRECORD
  5
552
102
{ACAD_REACTORS
330
54F
102
}
330
54F
100
AcDbXrecord
  1

  0
XRECORD
  5
558
102
{ACAD_REACTORS
330
54F
102
}
330
54F
100
AcDbXrecord
 90
        0
  0
XRECORD
  5
554
102
{ACAD_REACTORS
330
54F
102
}
330
54F
100
AcDbXrecord
340
545
  0
XRECORD
  5
557
102
{ACAD_REACTORS
330
54F
102
}
330
54F
100
AcDbXrecord
 90
    14877
  0
XRECORD
  5
555
102
{ACAD_REACTORS
330
54F
102
}
330
54F
100
AcDbXrecord
340
546
  0
XRECORD
  5
556
102
{ACAD_REACTORS
330
54F
102
}
330
54F
100
AcDbXrecord
340
543
  0
XRECORD
  5
55C
102
{ACAD_REACTORS
330
54F
102
}
330
54F
100
AcDbXrecord
 40
0.0
  0
XRECORD
  5
55F
102
{ACAD_REACTORS
330
54F
102
}
330
54F
100
AcDbXrecord
340
0
  0
XRECORD
  5
565
102
{ACAD_REACTORS
330
54F
102
}
330
54F
100
AcDbXrecord
 10
0.0
 20
0.0
 30
0.0
  0
XRECORD
  5
561
102
{ACAD_REACTORS
330
54F
102
}
330
54F
100
AcDbXrecord
 10
0.0
 20
0.0
 30
0.0
  0
XRECORD
  5
564
102
{ACAD_REACTORS
330
54F
102
}
330
54F
100
AcDbXrecord
 10
0.0
 20
0.0
 30
0.0
  0
XRECORD
  5
562
102
{ACAD_REACTORS
330
54F
102
}
330
54F
100
AcDbXrecord
 10
0.0
 20
0.0
 30
0.0
  0
XRECORD
  5
563
102
{ACAD_REACTORS
330
54F
102
}
330
54F
100
AcDbXrecord
 10
0.0
 20
0.0
 30
0.0
  0
XRECORD
  5
560
102
{ACAD_REACTORS
330
54F
102
}
330
54F
100
AcDbXrecord
 10
0.0
 20
0.0
 30
0.0
  0
XRECORD
  5
55D
102
{ACAD_REACTORS
330
54F
102
}
330
54F
100
AcDbXrecord
340
0
  0
XRECORD
  5
55E
102
{ACAD_REACTORS
330
54F
102
}
330
54F
100
AcDbXrecord
 70
     0
  0
XRECORD
  5
553
102
{ACAD_REACTORS
330
54F
102
}
330
54F
100
AcDbXrecord
  1

  0
XRECORD
  5
550
102
{ACAD_REACTORS
330
54F
102
}
330
54F
100
AcDbXrecord
 90
        1
  0
XRECORD
  5
551
102
{ACAD_REACTORS
330
54F
102
}
330
54F
100
AcDbXrecord
 90
       70
  0
XRECORD
  5
568
102
{ACAD_REACTORS
330
54F
102
}
330
54F
100
AcDbXrecord
340
0
  0
XRECORD
  5
56E
102
{ACAD_REACTORS
330
54F
102
}
330
54F
100
AcDbXrecord
 10
0.0
 20
0.0
 30
0.0
  0
XRECORD
  5
56A
102
{ACAD_REACTORS
330
54F
102
}
330
54F
100
AcDbXrecord
 10
0.0
 20
0.0
 30
0.0
  0
XRECORD
  5
56D
102
{ACAD_REACTORS
330
54F
102
}
330
54F
100
AcDbXrecord
 10
0.0
 20
0.0
 30
0.0
  0
XRECORD
  5
56B
102
{ACAD_REACTORS
330
54F
102
}
330
54F
100
AcDbXrecord
 10
0.0
 20
0.0
 30
0.0
  0
XRECORD
  5
56C
102
{ACAD_REACTORS
330
54F
102
}
330
54F
100
AcDbXrecord
 10
0.0
 20
0.0
 30
0.0
  0
XRECORD
  5
569
102
{ACAD_REACTORS
330
54F
102
}
330
54F
100
AcDbXrecord
 10
0.0
 20
0.0
 30
0.0
  0
XRECORD
  5
566
102
{ACAD_REACTORS
330
54F
102
}
330
54F
100
AcDbXrecord
340
0
  0
XRECORD
  5
567
102
{ACAD_REACTORS
330
54F
102
}
330
54F
100
AcDbXrecord
 70
     0
  0
XRECORD
  5
55B
102
{ACAD_REACTORS
330
54F
102
}
330
54F
100
AcDbXrecord
  1
{396D67D2-8DB9-11D6-88E6-0090279574E7}
  0
DICTIONARYVAR
  5
54D
102
{ACAD_REACTORS
330
42D
102
}
330
42D
100
DictionaryVariables
280
     0
  1
1
  0
DICTIONARYVAR
  5
42E
102
{ACAD_REACTORS
330
42D
102
}
330
42D
100
DictionaryVariables
280
     0
  1
97
  0
ENDSEC
  0
EOF
