  0
SECTION
  2
HEADER
  9
$ACADVER
  1
AC1014
  9
$ACADMAINTVER
 70
     9
  9
$DWGCODEPAGE
  3
ANSI_1252
  9
$INSBASE
 10
9.328921951296251
 20
1.577802408361236
 30
0.0
  9
$EXTMIN
 10
8.766148979966862
 20
3.389714700029398
 30
0.0
  9
$EXTMAX
 10
12.25136830171401
 20
4.632881020215204
 30
0.0
  9
$LIMMIN
 10
0.0
 20
0.0
  9
$LIMMAX
 10
12.0
 20
9.0
  9
$ORTHOMODE
 70
     1
  9
$REGENMODE
 70
     1
  9
$FILLMODE
 70
     1
  9
$QTEXTMODE
 70
     0
  9
$MIRRTEXT
 70
     0
  9
$DRAGMODE
 70
     2
  9
$LTSCALE
 40
1.0
  9
$OSMODE
 70
    39
  9
$ATTMODE
 70
     1
  9
$TEXTSIZE
 40
0.125
  9
$TRACEWID
 40
0.05
  9
$TEXTSTYLE
  7
ROMANS
  9
$CLAYER
  8
0
  9
$CELTYPE
  6
BYLAYER
  9
$CECOLOR
 62
   256
  9
$CELTSCALE
 40
1.0
  9
$DELOBJ
 70
     1
  9
$DISPSILH
 70
     1
  9
$DIMSCALE
 40
1.0
  9
$DIMASZ
 40
0.125
  9
$DIMEXO
 40
0.125
  9
$DIMDLI
 40
0.38
  9
$DIMRND
 40
0.0
  9
$DIMDLE
 40
0.0
  9
$DIMEXE
 40
0.125
  9
$DIMTP
 40
0.0
  9
$DIMTM
 40
0.0
  9
$DIMTXT
 40
0.125
  9
$DIMCEN
 40
-0.125
  9
$DIMTSZ
 40
0.0
  9
$DIMTOL
 70
     0
  9
$DIMLIM
 70
     0
  9
$DIMTIH
 70
     1
  9
$DIMTOH
 70
     1
  9
$DIMSE1
 70
     0
  9
$DIMSE2
 70
     0
  9
$DIMTAD
 70
     0
  9
$DIMZIN
 70
     4
  9
$DIMBLK
  1

  9
$DIMASO
 70
     1
  9
$DIMSHO
 70
     1
  9
$DIMPOST
  1

  9
$DIMAPOST
  1

  9
$DIMALT
 70
     0
  9
$DIMALTD
 70
     2
  9
$DIMALTF
 40
25.4
  9
$DIMLFAC
 40
0.5
  9
$DIMTOFL
 70
     0
  9
$DIMTVP
 40
0.0
  9
$DIMTIX
 70
     0
  9
$DIMSOXD
 70
     0
  9
$DIMSAH
 70
     0
  9
$DIMBLK1
  1

  9
$DIMBLK2
  1

  9
$DIMSTYLE
  2
STANDARD
  9
$DIMCLRD
 70
     0
  9
$DIMCLRE
 70
     0
  9
$DIMCLRT
 70
     0
  9
$DIMTFAC
 40
1.0
  9
$DIMGAP
 40
0.09
  9
$DIMJUST
 70
     0
  9
$DIMSD1
 70
     0
  9
$DIMSD2
 70
     0
  9
$DIMTOLJ
 70
     1
  9
$DIMTZIN
 70
     4
  9
$DIMALTZ
 70
     0
  9
$DIMALTTZ
 70
     0
  9
$DIMFIT
 70
     3
  9
$DIMUPT
 70
     1
  9
$DIMUNIT
 70
     2
  9
$DIMDEC
 70
     3
  9
$DIMTDEC
 70
     3
  9
$DIMALTU
 70
     2
  9
$DIMALTTD
 70
     2
  9
$DIMTXSTY
  7
ROMANS
  9
$DIMAUNIT
 70
     0
  9
$LUNITS
 70
     2
  9
$LUPREC
 70
     4
  9
$SKETCHINC
 40
0.1
  9
$FILLETRAD
 40
0.0
  9
$AUNITS
 70
     0
  9
$AUPREC
 70
     0
  9
$MENU
  1
.
  9
$ELEVATION
 40
0.0
  9
$PELEVATION
 40
0.0
  9
$THICKNESS
 40
0.0
  9
$LIMCHECK
 70
     0
  9
$BLIPMODE
 70
     0
  9
$CHAMFERA
 40
0.5
  9
$CHAMFERB
 40
0.5
  9
$CHAMFERC
 40
1.0
  9
$CHAMFERD
 40
0.0
  9
$SKPOLY
 70
     0
  9
$TDCREATE
 40
2452327.529018657
  9
$TDUPDATE
 40
2452458.321373657
  9
$TDINDWG
 40
0.1859724074
  9
$TDUSRTIMER
 40
0.1859724074
  9
$USRTIMER
 70
     1
  9
$ANGBASE
 50
0.0
  9
$ANGDIR
 70
     0
  9
$PDMODE
 70
     0
  9
$PDSIZE
 40
0.0
  9
$PLINEWID
 40
0.0
  9
$COORDS
 70
     2
  9
$SPLFRAME
 70
     0
  9
$SPLINETYPE
 70
     6
  9
$SPLINESEGS
 70
     8
  9
$ATTDIA
 70
     0
  9
$ATTREQ
 70
     1
  9
$HANDLING
 70
 22529
  9
$HANDSEED
  5
405
  9
$SURFTAB1
 70
     6
  9
$SURFTAB2
 70
     6
  9
$SURFTYPE
 70
     6
  9
$SURFU
 70
     6
  9
$SURFV
 70
     6
  9
$UCSNAME
  2

  9
$UCSORG
 10
0.0
 20
0.0
 30
0.0
  9
$UCSXDIR
 10
1.0
 20
0.0
 30
0.0
  9
$UCSYDIR
 10
0.0
 20
1.0
 30
0.0
  9
$PUCSNAME
  2

  9
$PUCSORG
 10
0.0
 20
0.0
 30
0.0
  9
$PUCSXDIR
 10
1.0
 20
0.0
 30
0.0
  9
$PUCSYDIR
 10
0.0
 20
1.0
 30
0.0
  9
$USERI1
 70
     0
  9
$USERI2
 70
     0
  9
$USERI3
 70
     0
  9
$USERI4
 70
     0
  9
$USERI5
 70
     0
  9
$USERR1
 40
0.0
  9
$USERR2
 40
0.0
  9
$USERR3
 40
0.0
  9
$USERR4
 40
0.0
  9
$USERR5
 40
0.0
  9
$WORLDVIEW
 70
     1
  9
$SHADEDGE
 70
     3
  9
$SHADEDIF
 70
    70
  9
$TILEMODE
 70
     1
  9
$MAXACTVP
 70
    48
  9
$PINSBASE
 10
0.0
 20
0.0
 30
0.0
  9
$PLIMCHECK
 70
     0
  9
$PEXTMIN
 10
1.000000000000000E+20
 20
1.000000000000000E+20
 30
1.000000000000000E+20
  9
$PEXTMAX
 10
-1.000000000000000E+20
 20
-1.000000000000000E+20
 30
-1.000000000000000E+20
  9
$PLIMMIN
 10
0.0
 20
0.0
  9
$PLIMMAX
 10
12.0
 20
9.0
  9
$UNITMODE
 70
     0
  9
$VISRETAIN
 70
     1
  9
$PLINEGEN
 70
     1
  9
$PSLTSCALE
 70
     1
  9
$TREEDEPTH
 70
  3020
  9
$PICKSTYLE
 70
     1
  9
$CMLSTYLE
  2
STANDARD
  9
$CMLJUST
 70
     0
  9
$CMLSCALE
 40
1.0
  9
$PROXYGRAPHICS
 70
     1
  9
$MEASUREMENT
 70
     0
  0
ENDSEC
  0
SECTION
  2
CLASSES
  0
CLASS
  1
DICTIONARYVAR
  2
AcDbDictionaryVar
  3
AutoCAD 2000
 90
        0
280
     0
281
     0
  0
CLASS
  1
LWPOLYLINE
  2
AcDbPolyline
  3
AutoCAD 2000
 90
        0
280
     0
281
     1
  0
CLASS
  1
ACDBDICTIONARYWDFLT
  2
AcDbDictionaryWithDefault
  3
AutoCAD 2000
 90
        0
280
     0
281
     0
  0
CLASS
  1
ACDBPLACEHOLDER
  2
AcDbPlaceHolder
  3
AutoCAD 2000
 90
        0
280
     0
281
     0
  0
CLASS
  1
LAYOUT
  2
AcDbLayout
  3
AutoCAD 2000
 90
        0
280
     0
281
     0
  0
CLASS
  1
LONG_TRANSACTION
  2
AcDbLongTransaction
  3
AutoCAD 2000
 90
        0
280
     0
281
     0
  0
CLASS
  1
LWPOLYLINE
  2
AcDbPolyline
  3
AutoCAD 2000
 90
        0
280
     0
281
     1
  0
CLASS
  1
HATCH
  2
AcDbHatch
  3
AutoCAD 2000
 90
        0
280
     0
281
     1
  0
CLASS
  1
XRECORD
  2
AcDbXrecord
  3
AutoCAD 2000
 90
        0
280
     0
281
     0
  0
CLASS
  1
LONG_TRANSACTION
  2
AcDbLongTransaction
  3
AutoCAD 2000
 90
        0
280
     0
281
     0
  0
CLASS
  1
LWPOLYLINE
  2
AcDbPolyline
  3
AutoCAD 2000
 90
        0
280
     0
281
     1
  0
CLASS
  1
HATCH
  2
AcDbHatch
  3
AutoCAD 2000
 90
        0
280
     0
281
     1
  0
CLASS
  1
XRECORD
  2
AcDbXrecord
  3
AutoCAD 2000
 90
        0
280
     0
281
     0
  0
ENDSEC
  0
SECTION
  2
TABLES
  0
TABLE
  2
VPORT
  5
19
330
0
100
AcDbSymbolTable
 70
     2
  0
VPORT
  5
3E2
330
19
100
AcDbSymbolTableRecord
100
AcDbViewportTableRecord
  2
*ACTIVE
 70
     0
 10
0.0
 20
0.0
 11
1.0
 21
1.0
 12
13.43110873278736
 22
4.011368929084031
 13
0.0
 23
0.0
 14
0.5
 24
0.5
 15
0.5
 25
0.5
 16
0.0
 26
0.0
 36
1.0
 17
0.0
 27
0.0
 37
0.0
 40
2.164188035228473
 41
4.320930232558139
 42
50.0
 43
0.0
 44
0.0
 50
0.0
 51
0.0
 71
     0
 72
  2000
 73
     1
 74
     1
 75
     0
 76
     0
 77
     0
 78
     0
  0
ENDTAB
  0
TABLE
  2
LTYPE
  5
14
330
0
100
AcDbSymbolTable
 70
     1
  0
LTYPE
  5
15
330
14
100
AcDbSymbolTableRecord
100
AcDbLinetypeTableRecord
  2
BYBLOCK
 70
     0
  3

 72
    65
 73
     0
 40
0.0
  0
LTYPE
  5
16
330
14
100
AcDbSymbolTableRecord
100
AcDbLinetypeTableRecord
  2
BYLAYER
 70
     0
  3

 72
    65
 73
     0
 40
0.0
  0
LTYPE
  5
8
330
14
100
AcDbSymbolTableRecord
100
AcDbLinetypeTableRecord
  2
CONTINUOUS
 70
     0
  3
Solid line
 72
    65
 73
     0
 40
0.0
  0
ENDTAB
  0
TABLE
  2
LAYER
  5
10
330
0
100
AcDbSymbolTable
 70
     2
  0
LAYER
  5
4
330
10
100
AcDbSymbolTableRecord
100
AcDbLayerTableRecord
  2
0
 70
     0
 62
     7
  6
CONTINUOUS
  0
LAYER
  5
47
330
10
100
AcDbSymbolTableRecord
100
AcDbLayerTableRecord
  2
TEXT
 70
     0
 62
     3
  6
CONTINUOUS
  0
ENDTAB
  0
TABLE
  2
STYLE
  5
11
330
0
100
AcDbSymbolTable
 70
     3
  0
STYLE
  5
12
330
11
100
AcDbSymbolTableRecord
100
AcDbTextStyleTableRecord
  2
STANDARD
 70
     0
 40
0.0
 41
1.0
 50
0.0
 71
     0
 42
0.2
  3
txt
  4

  0
STYLE
  5
1F
330
11
100
AcDbSymbolTableRecord
100
AcDbTextStyleTableRecord
  2
ROMANS
 70
     0
 40
0.0
 41
1.0
 50
0.0
 71
     0
 42
0.125
  3
romans.shx
  4

  0
STYLE
  5
2D7
330
11
100
AcDbSymbolTableRecord
100
AcDbTextStyleTableRecord
  2
ITALICC
 70
     0
 40
0.0
 41
1.0
 50
0.0
 71
     0
 42
0.125
  3
italicc
  4

  0
ENDTAB
  0
TABLE
  2
VIEW
  5
17
330
0
100
AcDbSymbolTable
 70
     0
  0
ENDTAB
  0
TABLE
  2
UCS
  5
18
330
0
100
AcDbSymbolTable
 70
     0
  0
ENDTAB
  0
TABLE
  2
APPID
  5
1B
330
0
100
AcDbSymbolTable
 70
     1
  0
APPID
  5
1C
330
1B
100
AcDbSymbolTableRecord
100
AcDbRegAppTableRecord
  2
ACAD
 70
     0
  0
ENDTAB
  0
TABLE
  2
DIMSTYLE
  5
1D
330
0
100
AcDbSymbolTable
 70
     1
  0
DIMSTYLE
105
1E
330
1D
100
AcDbSymbolTableRecord
100
AcDbDimStyleTableRecord
  2
STANDARD
 70
     0
  3

  4

  5

  6

  7

 40
1.0
 41
0.125
 42
0.125
 43
0.38
 44
0.125
 45
0.0
 46
0.0
 47
0.0
 48
0.0
140
0.125
141
-0.125
142
0.0
143
25.4
144
0.5
145
0.0
146
1.0
147
0.09
 71
     0
 72
     0
 73
     1
 74
     1
 75
     0
 76
     0
 77
     0
 78
     4
170
     0
171
     2
172
     0
173
     0
174
     0
175
     0
176
     0
177
     0
178
     0
270
     2
271
     3
272
     3
273
     2
274
     2
340
1F
275
     0
280
     0
281
     0
282
     0
283
     1
284
     4
285
     0
286
     0
287
     3
288
     1
  0
ENDTAB
  0
TABLE
  2
BLOCK_RECORD
  5
1
330
0
100
AcDbSymbolTable
 70
     0
  0
BLOCK_RECORD
  5
2
102
{ACAD_XDICTIONARY
360
200
102
}
330
1
100
AcDbSymbolTableRecord
100
AcDbBlockTableRecord
  2
*MODEL_SPACE
  0
BLOCK_RECORD
  5
C
102
{ACAD_XDICTIONARY
360
204
102
}
330
1
100
AcDbSymbolTableRecord
100
AcDbBlockTableRecord
  2
*PAPER_SPACE
  0
ENDTAB
  0
ENDSEC
  0
SECTION
  2
BLOCKS
  0
BLOCK
  5
3
330
2
100
AcDbEntity
  8
0
100
AcDbBlockBegin
  2
*MODEL_SPACE
 70
     0
 10
0.0
 20
0.0
 30
0.0
  3
*MODEL_SPACE
  1

  0
ENDBLK
  5
9
330
2
100
AcDbEntity
  8
0
100
AcDbBlockEnd
  0
BLOCK
  5
D
330
C
100
AcDbEntity
 67
     1
  8
0
100
AcDbBlockBegin
  2
*PAPER_SPACE
 70
     0
 10
0.0
 20
0.0
 30
0.0
  3
*PAPER_SPACE
  1

  0
ENDBLK
  5
E
330
C
100
AcDbEntity
 67
     1
  8
0
100
AcDbBlockEnd
  0
ENDSEC
  0
SECTION
  2
ENTITIES
  0
LWPOLYLINE
  5
4C
330
2
100
AcDbEntity
  8
0
100
AcDbPolyline
 90
       10
 70
   129
 43
0.0
 10
10.40081435340459
 20
4.199742581451896
 10
10.33781435340457
 20
4.308861782328772
 10
10.33781435340457
 20
4.605537270215204
 42
0.9999999999999998
 10
10.28312685340458
 20
4.605537270215204
 10
10.28312685340458
 20
4.132881020215204
 10
10.81437685340458
 20
4.132881020215204
 10
10.81437685340458
 20
4.605537270215204
 42
0.9999999999999998
 10
10.75968935340458
 20
4.605537270215204
 10
10.75968935340458
 20
4.308861782328772
 10
10.69668935340456
 20
4.199742581451896
  0
TEXT
  5
35C
330
2
100
AcDbEntity
  8
TEXT
100
AcDbText
 10
9.756154368717815
 20
3.847733304111979
 30
0.0
 40
0.125
  1
PART #110650
  7
ITALICC
 72
     1
 11
10.509130559194
 21
3.847733304111979
 31
0.0
100
AcDbText
  0
LINE
  5
35D
330
2
100
AcDbEntity
  8
TEXT
100
AcDbLine
 10
10.47686405814607
 20
3.603379618092145
 30
0.0
 11
10.55351203943862
 21
3.603379618092145
 31
0.0
  0
LINE
  5
35E
330
2
100
AcDbEntity
  8
TEXT
100
AcDbLine
 10
10.54903215211212
 20
3.667656312748911
 30
0.0
 11
10.48153243446261
 21
3.667656312748911
 31
0.0
  0
LWPOLYLINE
  5
35F
330
2
100
AcDbEntity
  8
TEXT
100
AcDbPolyline
 90
        5
 70
     0
 43
0.0001332181640625
 10
8.839752015611393
 20
3.544429510991098
 10
8.853073832017642
 20
3.544429510991098
 10
8.853073832017642
 20
3.581064506108288
 10
8.889708827134832
 20
3.581064506108288
 10
8.889708827134832
 20
3.594386322514535
  0
LWPOLYLINE
  5
360
330
2
100
AcDbEntity
  8
TEXT
100
AcDbPolyline
 90
        3
 70
     0
 43
0.0006660908203125
 10
8.879717464830141
 20
3.641012679936413
 10
8.793125658189516
 20
3.641012679936413
 10
8.793125658189516
 20
3.554420873295787
  0
LWPOLYLINE
  5
361
330
2
100
AcDbEntity
  8
TEXT
100
AcDbPolyline
 90
        3
 70
     0
 43
0.0006660908203125
 10
8.879717464830141
 20
3.667656312748914
 10
8.766482025377019
 20
3.667656312748914
 10
8.766482025377019
 20
3.554420873295787
  0
LWPOLYLINE
  5
362
330
2
100
AcDbEntity
  8
TEXT
100
AcDbPolyline
 90
        5
 70
     0
 43
0.0001332181640625
 10
8.889708827134832
 20
3.474489974858287
 10
8.889708827134832
 20
3.487811791264538
 10
8.853073832017644
 20
3.487811791264538
 10
8.853073832017644
 20
3.524446786381724
 10
8.839752015611393
 20
3.524446786381724
  0
LWPOLYLINE
  5
363
330
2
100
AcDbEntity
  8
TEXT
100
AcDbPolyline
 90
        3
 70
     0
 43
0.0006660908203125
 10
8.793125658189516
 20
3.514455424077039
 10
8.793125658189516
 20
3.427863617436412
 10
8.879717464830141
 20
3.427863617436412
  0
LWPOLYLINE
  5
364
330
2
100
AcDbEntity
  8
TEXT
100
AcDbPolyline
 90
        3
 70
     0
 43
0.0006660908203125
 10
8.766482025377019
 20
3.514455424077039
 10
8.766482025377019
 20
3.401219984623911
 10
8.879717464830141
 20
3.401219984623911
  0
LWPOLYLINE
  5
365
330
2
100
AcDbEntity
  8
TEXT
100
AcDbPolyline
 90
        2
 70
     0
 43
0.0001332181640625
 10
8.793125658189516
 20
3.514455424077039
 10
8.853073832017644
 20
3.524446786381724
  0
LWPOLYLINE
  5
366
330
2
100
AcDbEntity
  8
TEXT
100
AcDbPolyline
 90
        2
 70
     0
 43
0.0001332181640625
 10
8.839752015611393
 20
3.524446786381724
 10
8.766482025377019
 20
3.514455424077039
  0
LWPOLYLINE
  5
367
330
2
100
AcDbEntity
  8
TEXT
100
AcDbPolyline
 90
        2
 70
     0
 43
0.0006660908203125
 10
8.793125658189516
 20
3.514455424077039
 10
8.766482025377019
 20
3.514455424077039
  0
LWPOLYLINE
  5
368
330
2
100
AcDbEntity
  8
TEXT
100
AcDbPolyline
 90
        2
 70
     0
 43
0.0001332181640625
 10
8.793125658189516
 20
3.427863617436412
 10
8.853073832017644
 20
3.487811791264538
  0
LWPOLYLINE
  5
369
330
2
100
AcDbEntity
  8
TEXT
100
AcDbPolyline
 90
        2
 70
     0
 43
0.0006660908203125
 10
8.793125658189516
 20
3.554420873295787
 10
8.766482025377019
 20
3.554420873295787
  0
LWPOLYLINE
  5
36A
330
2
100
AcDbEntity
  8
TEXT
100
AcDbPolyline
 90
        2
 70
     0
 43
0.0001332181640625
 10
8.766482025377019
 20
3.554420873295787
 10
8.839752015611393
 20
3.544429510991098
  0
LWPOLYLINE
  5
36B
330
2
100
AcDbEntity
  8
TEXT
100
AcDbPolyline
 90
        2
 70
     0
 43
0.0001332181640625
 10
8.793125658189516
 20
3.554420873295787
 10
8.853073832017642
 20
3.544429510991098
  0
LWPOLYLINE
  5
36C
330
2
100
AcDbEntity
  8
TEXT
100
AcDbPolyline
 90
        2
 70
     0
 43
0.0001332181640625
 10
8.793125658189516
 20
3.641012679936413
 10
8.853073832017642
 20
3.581064506108288
  0
LWPOLYLINE
  5
36D
330
2
100
AcDbEntity
  8
TEXT
100
AcDbPolyline
 90
        5
 70
     0
 43
0.0001332181640625
 10
8.959648363267643
 20
3.524446786381724
 10
8.946326546861394
 20
3.524446786381724
 10
8.946326546861394
 20
3.487811791264538
 10
8.909691551744204
 20
3.487811791264538
 10
8.909691551744204
 20
3.474489974858287
  0
LWPOLYLINE
  5
36E
330
2
100
AcDbEntity
  8
TEXT
100
AcDbPolyline
 90
        2
 70
     0
 43
0.0001332181640625
 10
9.006274720689518
 20
3.514455424077039
 10
8.946326546861394
 20
3.524446786381724
  0
LWPOLYLINE
  5
36F
330
2
100
AcDbEntity
  8
TEXT
100
AcDbPolyline
 90
        2
 70
     0
 43
0.0001332181640625
 10
9.032918353502019
 20
3.514455424077039
 10
8.959648363267643
 20
3.524446786381724
  0
LWPOLYLINE
  5
370
330
2
100
AcDbEntity
  8
TEXT
100
AcDbPolyline
 90
        3
 70
     0
 43
0.0006660908203125
 10
8.919682914048893
 20
3.401219984623911
 10
9.032918353502019
 20
3.401219984623911
 10
9.032918353502019
 20
3.514455424077039
  0
LWPOLYLINE
  5
371
330
2
100
AcDbEntity
  8
TEXT
100
AcDbPolyline
 90
        3
 70
     0
 43
0.0006660908203125
 10
8.919682914048893
 20
3.427863617436412
 10
9.006274720689518
 20
3.427863617436412
 10
9.006274720689518
 20
3.514455424077039
  0
LWPOLYLINE
  5
372
330
2
100
AcDbEntity
  8
TEXT
100
AcDbPolyline
 90
        2
 70
     0
 43
0.0001332181640625
 10
9.006274720689518
 20
3.427863617436412
 10
8.946326546861394
 20
3.487811791264538
  0
LWPOLYLINE
  5
373
330
2
100
AcDbEntity
  8
TEXT
100
AcDbPolyline
 90
        2
 70
     0
 43
0.0006660908203125
 10
8.919682914048893
 20
3.427863617436412
 10
8.919682914048893
 20
3.401219984623911
  0
LWPOLYLINE
  5
374
330
2
100
AcDbEntity
  8
TEXT
100
AcDbPolyline
 90
        2
 70
     0
 43
0.0001332181640625
 10
8.909691551744204
 20
3.474489974858287
 10
8.919682914048893
 20
3.401219984623911
  0
LWPOLYLINE
  5
375
330
2
100
AcDbEntity
  8
TEXT
100
AcDbPolyline
 90
        2
 70
     0
 43
0.0001332181640625
 10
8.919682914048893
 20
3.427863617436412
 10
8.909691551744204
 20
3.487811791264538
  0
LWPOLYLINE
  5
376
330
2
100
AcDbEntity
  8
TEXT
100
AcDbPolyline
 90
        2
 70
     0
 43
0.0001332181640625
 10
8.879717464830141
 20
3.401219984623911
 10
8.889708827134832
 20
3.474489974858287
  0
LWPOLYLINE
  5
377
330
2
100
AcDbEntity
  8
TEXT
100
AcDbPolyline
 90
        2
 70
     0
 43
0.0001332181640625
 10
8.879717464830141
 20
3.427863617436412
 10
8.889708827134832
 20
3.487811791264538
  0
LWPOLYLINE
  5
378
330
2
100
AcDbEntity
  8
TEXT
100
AcDbPolyline
 90
        2
 70
     0
 43
0.0006660908203125
 10
8.879717464830141
 20
3.427863617436412
 10
8.879717464830141
 20
3.401219984623911
  0
LWPOLYLINE
  5
379
330
2
100
AcDbEntity
  8
TEXT
100
AcDbPolyline
 90
        2
 70
     0
 43
0.0006660908203125
 10
9.006274720689518
 20
3.514455424077039
 10
9.032918353502019
 20
3.514455424077039
  0
LWPOLYLINE
  5
37A
330
2
100
AcDbEntity
  8
TEXT
100
AcDbPolyline
 90
        2
 70
     0
 43
0.0001332181640625
 10
9.006274720689518
 20
3.641012679936413
 10
8.946326546861394
 20
3.581064506108288
  0
LWPOLYLINE
  5
37B
330
2
100
AcDbEntity
  8
TEXT
100
AcDbPolyline
 90
        2
 70
     0
 43
0.0001332181640625
 10
9.006274720689518
 20
3.554420873295787
 10
8.946326546861394
 20
3.544429510991098
  0
LWPOLYLINE
  5
37C
330
2
100
AcDbEntity
  8
TEXT
100
AcDbPolyline
 90
        2
 70
     0
 43
0.0001332181640625
 10
8.959648363267643
 20
3.544429510991098
 10
9.032918353502019
 20
3.554420873295787
  0
LWPOLYLINE
  5
37D
330
2
100
AcDbEntity
  8
TEXT
100
AcDbPolyline
 90
        3
 70
     0
 43
0.0006660908203125
 10
9.006274720689518
 20
3.554420873295787
 10
9.006274720689518
 20
3.641012679936413
 10
8.919682914048893
 20
3.641012679936413
  0
LWPOLYLINE
  5
37E
330
2
100
AcDbEntity
  8
TEXT
100
AcDbPolyline
 90
        3
 70
     0
 43
0.0006660908203125
 10
9.032918353502019
 20
3.554420873295787
 10
9.032918353502019
 20
3.667656312748914
 10
8.919682914048893
 20
3.667656312748914
  0
LWPOLYLINE
  5
37F
330
2
100
AcDbEntity
  8
TEXT
100
AcDbPolyline
 90
        2
 70
     0
 43
0.0001332181640625
 10
8.919682914048893
 20
3.667656312748914
 10
8.909691551744204
 20
3.594386322514535
  0
LWPOLYLINE
  5
380
330
2
100
AcDbEntity
  8
TEXT
100
AcDbPolyline
 90
        2
 70
     0
 43
0.0001332181640625
 10
8.919682914048893
 20
3.641012679936413
 10
8.909691551744204
 20
3.581064506108288
  0
LWPOLYLINE
  5
381
330
2
100
AcDbEntity
  8
TEXT
100
AcDbPolyline
 90
        2
 70
     0
 43
0.0006660908203125
 10
8.919682914048893
 20
3.641012679936413
 10
8.919682914048893
 20
3.667656312748914
  0
LWPOLYLINE
  5
382
330
2
100
AcDbEntity
  8
TEXT
100
AcDbPolyline
 90
        5
 70
     0
 43
0.0001332181640625
 10
8.909691551744204
 20
3.594386322514535
 10
8.909691551744204
 20
3.581064506108288
 10
8.946326546861394
 20
3.581064506108288
 10
8.946326546861394
 20
3.544429510991098
 10
8.959648363267643
 20
3.544429510991098
  0
LWPOLYLINE
  5
383
330
2
100
AcDbEntity
  8
TEXT
100
AcDbPolyline
 90
        2
 70
     0
 43
0.0001332181640625
 10
8.879717464830141
 20
3.641012679936413
 10
8.889708827134832
 20
3.581064506108288
  0
LWPOLYLINE
  5
384
330
2
100
AcDbEntity
  8
TEXT
100
AcDbPolyline
 90
        2
 70
     0
 43
0.0001332181640625
 10
8.889708827134832
 20
3.594386322514535
 10
8.879717464830141
 20
3.667656312748914
  0
LWPOLYLINE
  5
385
330
2
100
AcDbEntity
  8
TEXT
100
AcDbPolyline
 90
        2
 70
     0
 43
0.0006660908203125
 10
8.879717464830141
 20
3.641012679936413
 10
8.879717464830141
 20
3.667656312748914
  0
LWPOLYLINE
  5
386
330
2
100
AcDbEntity
  8
TEXT
100
AcDbPolyline
 90
        2
 70
     0
 43
0.0006660908203125
 10
9.006274720689518
 20
3.554420873295787
 10
9.032918353502019
 20
3.554420873295787
  0
LWPOLYLINE
  5
387
330
2
100
AcDbEntity
  8
TEXT
100
AcDbPolyline
 90
        2
 70
     0
 43
0.0
 10
9.751698274250649
 20
3.452734621975328
 42
0.3318488747599744
 10
9.820817566815962
 20
3.4011832797604
 42
-6.868794160588311
  0
LINE
  5
388
330
2
100
AcDbEntity
  8
TEXT
100
AcDbLine
 10
9.819677993319768
 20
3.735667790487721
 30
0.0
 11
9.752869280753401
 21
3.735667790487721
 31
0.0
  0
LINE
  5
389
330
2
100
AcDbEntity
  8
TEXT
100
AcDbLine
 10
9.473526913134307
 20
3.667656312748911
 30
0.0
 11
9.297795160235796
 21
3.667656312748911
 31
0.0
  0
ARC
  5
38A
330
2
100
AcDbEntity
  8
TEXT
100
AcDbCircle
 10
9.368632626594346
 20
3.484379088120957
 30
0.0
 40
0.0831958083605586
100
AcDbArc
 50
270.0
 51
90.0
  0
LINE
  5
38B
330
2
100
AcDbEntity
  8
TEXT
100
AcDbLine
 10
9.303032490350044
 20
3.603379618092145
 30
0.0
 11
9.469938144379014
 21
3.603379618092145
 31
0.0
  0
LINE
  5
38C
330
2
100
AcDbEntity
  8
TEXT
100
AcDbLine
 10
9.373573000500625
 20
3.469540286093839
 30
0.0
 11
9.215707700789291
 21
3.469540286093839
 31
0.0
  0
LINE
  5
38D
330
2
100
AcDbEntity
  8
TEXT
100
AcDbLine
 10
9.215707700789293
 20
3.4011832797604
 30
0.0
 11
9.368632626594346
 21
3.4011832797604
 31
0.0
  0
ARC
  5
38E
330
2
100
AcDbEntity
  8
TEXT
100
AcDbCircle
 10
9.297795160235796
 20
3.585568853302409
 30
0.0
 40
0.0820874594465043
100
AcDbArc
 50
90.0
 51
270.0
  0
LINE
  5
38F
330
2
100
AcDbEntity
  8
TEXT
100
AcDbLine
 10
9.215707700789291
 20
3.469540286093839
 30
0.0
 11
9.215707700789293
 21
3.4011832797604
 31
0.0
  0
LINE
  5
390
330
2
100
AcDbEntity
  8
TEXT
100
AcDbLine
 10
9.297795160235796
 20
3.503481393855904
 30
0.0
 11
9.373573000500625
 21
3.503481393855904
 31
0.0
  0
ARC
  5
391
330
2
100
AcDbEntity
  8
TEXT
100
AcDbCircle
 10
9.373573000500625
 20
3.486510839974873
 30
0.0
 40
0.0169705538810321
100
AcDbArc
 50
270.0
 51
90.0
  0
LINE
  5
392
330
2
100
AcDbEntity
  8
TEXT
100
AcDbLine
 10
9.368632626594346
 20
3.567574896481517
 30
0.0
 11
9.303032490350044
 21
3.567574896481517
 31
0.0
  0
ARC
  5
393
330
2
100
AcDbEntity
  8
TEXT
100
AcDbCircle
 10
9.303032490350044
 20
3.585477257286833
 30
0.0
 40
0.017902360805315
100
AcDbArc
 50
90.0
 51
270.0
  0
LINE
  5
394
330
2
100
AcDbEntity
  8
TEXT
100
AcDbLine
 10
9.663998805154161
 20
3.56678431663579
 30
0.0
 11
9.605368484122223
 21
3.667656312748911
 31
0.0
  0
LINE
  5
395
330
2
100
AcDbEntity
  8
TEXT
100
AcDbLine
 10
9.52382475185912
 20
3.4011832797604
 30
0.0
 11
9.620465002934114
 21
3.401453918858682
 31
0.0
  0
LWPOLYLINE
  5
396
330
2
100
AcDbEntity
  8
TEXT
100
AcDbPolyline
 90
        6
 70
     1
 43
0.0
 10
9.56634855543427
 20
3.603379618092145
 10
9.536031961214062
 20
3.603379618092145
 10
9.536031961214062
 20
3.480268620037251
 42
0.407328721240804
 10
9.547575612375538
 20
3.468449705360865
 10
9.608197311420269
 20
3.468449705360865
 10
9.625662651827587
 20
3.501261934404344
  0
LINE
  5
397
330
2
100
AcDbEntity
  8
TEXT
100
AcDbLine
 10
9.469938144379014
 20
3.603379618092145
 30
0.0
 11
9.469938144379014
 21
3.46097567109845
 31
0.0
  0
ARC
  5
398
330
2
100
AcDbEntity
  8
TEXT
100
AcDbCircle
 10
9.530054162352767
 20
3.46097567109845
 30
0.0
 40
0.0601160179737537
100
AcDbArc
 50
180.0000000000003
 51
264.0521544866073
  0
LINE
  5
399
330
2
100
AcDbEntity
  8
TEXT
100
AcDbLine
 10
9.533569517978314
 20
3.702044230343049
 30
0.0
 11
9.473526913134307
 21
3.702044230343049
 31
0.0
  0
LINE
  5
39A
330
2
100
AcDbEntity
  8
TEXT
100
AcDbLine
 10
9.473526913134307
 20
3.702044230343049
 30
0.0
 11
9.473526913134307
 21
3.667656312748911
 31
0.0
  0
LINE
  5
39B
330
2
100
AcDbEntity
  8
TEXT
100
AcDbLine
 10
9.533569517978314
 20
3.667656312748911
 30
0.0
 11
9.533569517978314
 21
3.702044230343049
 31
0.0
  0
LINE
  5
39C
330
2
100
AcDbEntity
  8
TEXT
100
AcDbLine
 10
9.605368484122223
 20
3.667656312748911
 30
0.0
 11
9.533569517978314
 21
3.667656312748911
 31
0.0
  0
LINE
  5
39D
330
2
100
AcDbEntity
  8
TEXT
100
AcDbLine
 10
9.654398568157205
 20
3.421141785865413
 30
0.0
 11
9.751698274250649
 21
3.585491996800681
 31
0.0
  0
LINE
  5
39E
330
2
100
AcDbEntity
  8
TEXT
100
AcDbLine
 10
9.751698274250649
 20
3.585491996800681
 30
0.0
 11
9.751698274250649
 21
3.452734621975324
 31
0.0
  0
ARC
  5
39F
330
2
100
AcDbEntity
  8
TEXT
100
AcDbCircle
 10
9.620355008244992
 20
3.440731002034095
 30
0.0
 40
0.0392772371940762
100
AcDbArc
 50
270.1604552698595
 51
330.0831797321295
  0
LINE
  5
3A0
330
2
100
AcDbEntity
  8
TEXT
100
AcDbLine
 10
9.722747367960025
 20
3.667656312748911
 30
0.0
 11
9.663998805154161
 21
3.56678431663579
 31
0.0
  0
LINE
  5
3A1
330
2
100
AcDbEntity
  8
TEXT
100
AcDbLine
 10
9.752869280753401
 20
3.735667790487721
 30
0.0
 11
9.752869280753401
 21
3.667656312748911
 31
0.0
  0
LINE
  5
3A2
330
2
100
AcDbEntity
  8
TEXT
100
AcDbLine
 10
9.752869280753401
 20
3.667656312748911
 30
0.0
 11
9.722747367960025
 21
3.667656312748911
 31
0.0
  0
LWPOLYLINE
  5
3A3
330
2
100
AcDbEntity
  8
TEXT
100
AcDbPolyline
 90
        4
 70
     0
 43
0.0
 10
10.10495540237356
 20
3.595825828926035
 10
10.10495540237356
 20
3.4011832797604
 10
10.17343368566141
 20
3.4011832797604
 10
10.17343368566141
 20
3.444674224710838
 42
-1.714843617202739
  0
LWPOLYLINE
  5
3A4
330
2
100
AcDbEntity
  8
TEXT
100
AcDbPolyline
 90
        2
 70
     0
 43
0.0
 10
10.14008975291777
 20
3.667656312748914
 42
-0.3277054968067132
 10
10.17587144363093
 20
3.63933376697927
 42
6.667889725900311
  0
LWPOLYLINE
  5
3A5
330
2
100
AcDbEntity
  8
TEXT
100
AcDbPolyline
 90
        2
 70
     0
 43
0.0
 10
9.968656180338543
 20
3.603379618092145
 42
-0.4142135623731017
 10
9.976209969504656
 20
3.595825828926035
 42
-0.9999999999999998
  0
LINE
  5
3A6
330
2
100
AcDbEntity
  8
TEXT
100
AcDbLine
 10
9.986007903388564
 20
3.667656312748911
 30
0.0
 11
9.851989847457428
 21
3.667656312748911
 31
0.0
  0
LINE
  5
3A7
330
2
100
AcDbEntity
  8
TEXT
100
AcDbLine
 10
9.918820900515395
 20
3.4011832797604
 30
0.0
 11
9.918820900515395
 21
3.603379618092145
 31
0.0
  0
LINE
  5
3A8
330
2
100
AcDbEntity
  8
TEXT
100
AcDbLine
 10
9.851989847457428
 20
3.667656312748911
 30
0.0
 11
9.851989847457428
 21
3.466792106016503
 31
0.0
  0
LINE
  5
3A9
330
2
100
AcDbEntity
  8
TEXT
100
AcDbLine
 10
9.819677993319768
 20
3.483571117863399
 30
0.0
 11
9.819677993319768
 21
3.735667790487721
 31
0.0
  0
LINE
  5
3AA
330
2
100
AcDbEntity
  8
TEXT
100
AcDbLine
 10
9.820817566815961
 20
3.4011832797604
 30
0.0
 11
9.918820900515395
 21
3.4011832797604
 31
0.0
  0
LINE
  5
3AB
330
2
100
AcDbEntity
  8
TEXT
100
AcDbLine
 10
9.851989847457428
 20
3.466792106016503
 30
0.0
 11
9.834996210572825
 21
3.466792106016503
 31
0.0
  0
ARC
  5
3AC
330
2
100
AcDbEntity
  8
TEXT
100
AcDbCircle
 10
9.834996210572825
 20
3.482173912259928
 30
0.0
 40
0.0153818062434269
100
AcDbArc
 50
174.7883570302258
 51
270.0
  0
LINE
  5
3AD
330
2
100
AcDbEntity
  8
TEXT
100
AcDbLine
 10
9.918820900515395
 20
3.603379618092145
 30
0.0
 11
9.968656180338545
 21
3.603379618092145
 31
0.0
  0
LINE
  5
3AE
330
2
100
AcDbEntity
  8
TEXT
100
AcDbLine
 10
9.976209969504658
 20
3.595825828926035
 30
0.0
 11
9.976209969504658
 21
3.4011832797604
 31
0.0
  0
LINE
  5
3AF
330
2
100
AcDbEntity
  8
TEXT
100
AcDbLine
 10
10.04326801628649
 20
3.4011832797604
 30
0.0
 11
10.04326801628649
 21
3.603379618092145
 31
0.0
  0
LINE
  5
3B0
330
2
100
AcDbEntity
  8
TEXT
100
AcDbLine
 10
9.976209969504658
 20
3.4011832797604
 30
0.0
 11
10.04326801628649
 21
3.4011832797604
 31
0.0
  0
LWPOLYLINE
  5
3B1
330
2
100
AcDbEntity
  8
TEXT
100
AcDbPolyline
 90
        3
 70
     0
 43
0.0
 10
10.14008975291777
 20
3.667656312748914
 10
10.02178959410172
 20
3.667656312748914
 10
10.02178959410172
 20
3.640488815988018
 42
-1.960274751411753
  0
LINE
  5
3B2
330
2
100
AcDbEntity
  8
TEXT
100
AcDbLine
 10
10.04326801628649
 20
3.603379618092145
 30
0.0
 11
10.09740161320744
 21
3.603379618092145
 31
0.0
  0
LWPOLYLINE
  5
3B3
330
2
100
AcDbEntity
  8
TEXT
100
AcDbPolyline
 90
        2
 70
     0
 43
0.0
 10
9.986007903388564
 20
3.667656312748914
 42
-0.3328679258950098
 10
10.02178959410172
 20
3.640488815988018
 42
6.772930709997214
  0
LWPOLYLINE
  5
3B4
330
2
100
AcDbEntity
  8
TEXT
100
AcDbPolyline
 90
        2
 70
     0
 43
0.0
 10
10.09740161320744
 20
3.603379618092145
 42
-0.4142135623731017
 10
10.10495540237356
 20
3.595825828926035
 42
-0.9999999999999998
  0
ARC
  5
3B5
330
2
100
AcDbEntity
  8
TEXT
100
AcDbCircle
 10
10.30867641307092
 20
3.626072745628008
 30
0.0
 40
0.0416329381542859
100
AcDbArc
 50
26.56974201007528
 51
87.20939649401342
  0
LWPOLYLINE
  5
3B6
330
2
100
AcDbEntity
  8
TEXT
100
AcDbPolyline
 90
        2
 70
     0
 43
0.0
 10
10.21650961852905
 20
3.4011832797604
 10
10.35052703616043
 20
3.4011832797604
 42
0.9999999999999998
  0
LWPOLYLINE
  5
3B7
330
2
100
AcDbEntity
  8
TEXT
100
AcDbPolyline
 90
        4
 70
     1
 43
0.0
 10
10.33040457109053
 20
3.504147257744425
 10
10.24174425243068
 20
3.504147257744425
 42
0.9999999999999998
 10
10.24174425243068
 20
3.461748717240564
 10
10.33040457109053
 20
3.461748717240564
 42
1.0
  0
LWPOLYLINE
  5
3B8
330
2
100
AcDbEntity
  8
TEXT
100
AcDbPolyline
 90
        2
 70
     0
 43
0.0
 10
10.17343368566141
 20
3.444674224710838
 42
0.2901071551932823
 10
10.21650961852905
 20
3.4011832797604
 42
5.328517124445801
  0
LINE
  5
3B9
330
2
100
AcDbEntity
  8
TEXT
100
AcDbLine
 10
10.31070335284799
 20
3.667656312748911
 30
0.0
 11
10.17587144363093
 21
3.667656312748911
 31
0.0
  0
LINE
  5
3BA
330
2
100
AcDbEntity
  8
TEXT
100
AcDbLine
 10
10.23518554002425
 20
3.566104644630013
 30
0.0
 11
10.31747352980763
 21
3.566104644630013
 31
0.0
  0
LINE
  5
3BB
330
2
100
AcDbEntity
  8
TEXT
100
AcDbLine
 10
10.28167245450351
 20
3.603379618092145
 30
0.0
 11
10.17446618111622
 21
3.603379618092145
 31
0.0
  0
LINE
  5
3BC
330
2
100
AcDbEntity
  8
TEXT
100
AcDbLine
 10
10.17587144363093
 20
3.667656312748911
 30
0.0
 11
10.17587144363093
 21
3.639333766979267
 31
0.0
  0
ARC
  5
3BD
330
2
100
AcDbEntity
  8
TEXT
100
AcDbCircle
 10
10.23518554002425
 20
3.498419063485894
 30
0.0
 40
0.0676855811441166
100
AcDbArc
 50
90.0
 51
153.7768192527749
  0
LINE
  5
3BE
330
2
100
AcDbEntity
  8
TEXT
100
AcDbLine
 10
10.17446618111622
 20
3.603379618092145
 30
0.0
 11
10.17446618111622
 21
3.528327212017939
 31
0.0
  0
LINE
  5
3BF
330
2
100
AcDbEntity
  8
TEXT
100
AcDbLine
 10
10.31747352980763
 20
3.566104644630013
 30
0.0
 11
10.30720876939407
 21
3.587355184202707
 31
0.0
  0
ARC
  5
3C0
330
2
100
AcDbEntity
  8
TEXT
100
AcDbCircle
 10
10.28167245450351
 20
3.575020243092148
 30
0.0
 40
0.028359375
100
AcDbArc
 50
25.78218179591245
 51
90.0
  0
LINE
  5
3C1
330
2
100
AcDbEntity
  8
TEXT
100
AcDbLine
 10
10.45195818286341
 20
3.4011832797604
 30
0.0
 11
10.4519581828634
 21
3.578473785191868
 31
0.0
  0
LWPOLYLINE
  5
3C2
330
2
100
AcDbEntity
  8
TEXT
100
AcDbPolyline
 90
        2
 70
     0
 43
0.0
 10
10.39360296902807
 20
3.4011832797604
 10
10.45195818286341
 20
3.4011832797604
  0
LWPOLYLINE
  5
3C3
330
2
100
AcDbEntity
  8
TEXT
100
AcDbPolyline
 90
        2
 70
     0
 43
0.0
 10
10.39360296902807
 20
3.444674224710838
 42
-0.2901071551932486
 10
10.35052703616043
 20
3.4011832797604
 42
-5.328517124445184
  0
LWPOLYLINE
  5
3C4
330
2
100
AcDbEntity
  8
TEXT
100
AcDbPolyline
 90
        2
 70
     0
 43
0.0
 10
10.39360296902807
 20
3.444674224710838
 10
10.39360296902807
 20
3.4011832797604
  0
LINE
  5
3C5
330
2
100
AcDbEntity
  8
TEXT
100
AcDbLine
 10
10.45356019802253
 20
3.667656312748911
 30
0.0
 11
10.38966329172303
 21
3.667656312748911
 31
0.0
  0
LINE
  5
3C6
330
2
100
AcDbEntity
  8
TEXT
100
AcDbLine
 10
10.38966329172303
 20
3.667656312748911
 30
0.0
 11
10.38966329172303
 21
3.562444334195483
 31
0.0
  0
LINE
  5
3C7
330
2
100
AcDbEntity
  8
TEXT
100
AcDbLine
 10
10.38966329172303
 20
3.562444334195483
 30
0.0
 11
10.34591252054113
 21
3.644694610191629
 31
0.0
  0
ARC
  5
3C8
330
2
100
AcDbEntity
  8
TEXT
100
AcDbCircle
 10
10.47686405814606
 20
3.578473742809483
 30
0.0
 40
0.0249058752826653
100
AcDbArc
 50
89.99971217465335
 51
179.9999999999985
  0
ARC
  5
3C9
330
2
100
AcDbEntity
  8
TEXT
100
AcDbCircle
 10
10.48475301508564
 20
3.636410585466646
 30
0.0
 40
0.0314112657011332
100
AcDbArc
 50
95.88484768694724
 51
173.2388340632136
  0
LINE
  5
3CA
330
2
100
AcDbEntity
  8
TEXT
100
AcDbLine
 10
10.45356019802253
 20
3.640108662888036
 30
0.0
 11
10.45356019802253
 21
3.667656312748911
 31
0.0
  0
TEXT
  5
3CB
330
2
100
AcDbEntity
  8
TEXT
100
AcDbText
 10
10.92243571744432
 20
3.494069088405896
 30
0.0
 40
0.0522247191011236
  1
Minneapolis, MN 55432-0008
 41
1.11444212721585
 72
     5
 11
12.25136830171399
 21
3.494069088405896
 31
0.0
100
AcDbText
  0
TEXT
  5
3CC
330
2
100
AcDbEntity
  8
TEXT
100
AcDbText
 10
10.92243571744432
 20
3.587327515372188
 30
0.0
 40
0.0522247191011236
  1
6536 Main St. N.E. * P.O. Box 32008
 41
0.8388932496075355
 72
     5
 11
12.25136830171399
 21
3.587327515372188
 31
0.0
100
AcDbText
  0
TEXT
  5
3CD
330
2
100
AcDbEntity
  8
TEXT
100
AcDbText
 10
10.92243571744432
 20
3.68058594233848
 30
0.0
 40
0.0522247191011236
  1
Stylmark  Incorporated
 41
1.221428571428571
 72
     5
 11
12.25136830171399
 21
3.68058594233848
 31
0.0
100
AcDbText
  0
TEXT
  5
3CE
330
2
100
AcDbEntity
  8
TEXT
100
AcDbText
 10
10.92243571744432
 20
3.400810661439604
 30
0.0
 40
0.0522247191011236
  1
Phone  1-800-328-2495
 41
1.272321428571429
 72
     5
 11
12.25136830171399
 21
3.400810661439604
 31
0.0
100
AcDbText
  0
LINE
  5
3CF
330
2
100
AcDbEntity
  8
TEXT
100
AcDbLine
 10
10.67487990598131
 20
3.557763069807937
 30
0.0
 11
10.73943702194702
 21
3.667656312748911
 31
0.0
  0
LINE
  5
3D0
330
2
100
AcDbEntity
  8
TEXT
100
AcDbLine
 10
10.73943702194702
 20
3.667656312748911
 30
0.0
 11
10.66444518921739
 21
3.667656312748911
 31
0.0
  0
LINE
  5
3D1
330
2
100
AcDbEntity
  8
TEXT
100
AcDbLine
 10
10.69379375696871
 20
3.4011832797604
 30
0.0
 11
10.77037212934492
 21
3.4011832797604
 31
0.0
  0
LINE
  5
3D2
330
2
100
AcDbEntity
  8
TEXT
100
AcDbLine
 10
10.77037212934492
 20
3.4011832797604
 30
0.0
 11
10.67487990598131
 21
3.557763069807937
 31
0.0
  0
LINE
  5
3D3
330
2
100
AcDbEntity
  8
TEXT
100
AcDbLine
 10
10.61789022375725
 20
3.4011832797604
 30
0.0
 11
10.61789022375725
 21
3.53276284823658
 31
0.0
  0
LINE
  5
3D4
330
2
100
AcDbEntity
  8
TEXT
100
AcDbLine
 10
10.61789022375725
 20
3.53276284823658
 30
0.0
 11
10.69379375696871
 21
3.4011832797604
 31
0.0
  0
LINE
  5
3D5
330
2
100
AcDbEntity
  8
TEXT
100
AcDbLine
 10
10.55351203943862
 20
3.603379618092145
 30
0.0
 11
10.55351203943863
 21
3.4011832797604
 31
0.0
  0
LINE
  5
3D6
330
2
100
AcDbEntity
  8
TEXT
100
AcDbLine
 10
10.55351203943863
 20
3.4011832797604
 30
0.0
 11
10.61789022375725
 21
3.4011832797604
 31
0.0
  0
LINE
  5
3D7
330
2
100
AcDbEntity
  8
TEXT
100
AcDbLine
 10
10.6173470306614
 20
3.733120518516511
 30
0.0
 11
10.54903215211213
 21
3.733120518516511
 31
0.0
  0
LINE
  5
3D8
330
2
100
AcDbEntity
  8
TEXT
100
AcDbLine
 10
10.54903215211213
 20
3.733120518516511
 30
0.0
 11
10.54903215211212
 21
3.667656312748911
 31
0.0
  0
LINE
  5
3D9
330
2
100
AcDbEntity
  8
TEXT
100
AcDbLine
 10
10.66444518921738
 20
3.667656312748911
 30
0.0
 11
10.6173470306614
 21
3.591790986337373
 31
0.0
  0
LINE
  5
3DA
330
2
100
AcDbEntity
  8
TEXT
100
AcDbLine
 10
10.6173470306614
 20
3.591790986337373
 30
0.0
 11
10.6173470306614
 21
3.733120518516511
 31
0.0
  0
ENDSEC
  0
SECTION
  2
OBJECTS
  0
DICTIONARY
  5
7
330
0
100
AcDbDictionary
  3
ACAD_GROUP
350
21
  3
ACAD_LAYOUT
350
B
  3
ACAD_MLINESTYLE
350
22
  3
ACAD_PLOTSETTINGS
350
23
  3
ACAD_PLOTSTYLENAME
350
6
  3
ACDBHEADERROUNDTRIPXREC
350
3E3
  3
ACDBVARIABLEDICTIONARY
350
211
  0
DICTIONARY
  5
200
330
2
100
AcDbDictionary
280
     1
  3
ACAD_LAYOUTSELFREF
360
403
  0
DICTIONARY
  5
204
330
C
100
AcDbDictionary
280
     1
  3
ACAD_LAYOUTSELFREF
360
404
  0
DICTIONARY
  5
21
102
{ACAD_REACTORS
330
7
102
}
330
7
100
AcDbDictionary
  0
DICTIONARY
  5
B
102
{ACAD_REACTORS
330
7
102
}
330
7
100
AcDbDictionary
  0
DICTIONARY
  5
22
102
{ACAD_REACTORS
330
7
102
}
330
7
100
AcDbDictionary
  3
STANDARD
350
25
  0
DICTIONARY
  5
23
102
{ACAD_REACTORS
330
7
102
}
330
7
100
AcDbDictionary
  0
ACDBDICTIONARYWDFLT
  5
6
102
{ACAD_REACTORS
330
7
102
}
330
7
100
AcDbDictionary
281
     1
  3
Normal
350
5
100
AcDbDictionaryWithDefault
340
5
  0
DICTIONARY
  5
3E3
102
{ACAD_REACTORS
330
7
102
}
330
7
100
AcDbDictionary
  3
CEPSNTYPE
350
3ED
  3
FINGERPRINTGUID
350
3EE
  3
HYPERLINKBASE
350
3E6
  3
INSUNITS
350
3EC
  3
LAYOUTDICT
350
3E8
  3
LWETCUNION
350
3EB
  3
PLOTSETDICT
350
3E9
  3
PLOTSTYLNAMDICT
350
3EA
  3
PSVPSCALE
350
3F0
  3
PUCSBASE
350
3F3
  3
PUCSORGBACK
350
3F9
  3
PUCSORGBOTTOM
350
3F5
  3
PUCSORGFRONT
350
3F8
  3
PUCSORGLEFT
350
3F6
  3
PUCSORGRIGHT
350
3F7
  3
PUCSORGTOP
350
3F4
  3
PUCSORTHOREF
350
3F1
  3
PUCSORTHOVIEW
350
3F2
  3
STYLESHEET
350
3E7
  3
TSTACKALIGN
350
3E4
  3
TSTACKSIZE
350
3E5
  3
UCSBASE
350
3FC
  3
UCSORGBACK
350
402
  3
UCSORGBOTTOM
350
3FE
  3
UCSORGFRONT
350
401
  3
UCSORGLEFT
350
3FF
  3
UCSORGRIGHT
350
400
  3
UCSORGTOP
350
3FD
  3
UCSORTHOREF
350
3FA
  3
UCSORTHOVIEW
350
3FB
  3
VERSIONGUID
350
3EF
  0
DICTIONARY
  5
211
102
{ACAD_REACTORS
330
7
102
}
330
7
100
AcDbDictionary
  3
DIMASSOC
350
3E1
  3
SORTENTS
350
212
  0
XRECORD
  5
403
102
{ACAD_REACTORS
330
200
102
}
330
200
100
AcDbXrecord
340
2
  0
XRECORD
  5
404
102
{ACAD_REACTORS
330
204
102
}
330
204
100
AcDbXrecord
340
C
  0
MLINESTYLE
  5
25
102
{ACAD_REACTORS
330
22
102
}
330
22
100
AcDbMlineStyle
  2
STANDARD
 70
     0
  3

 62
   256
 51
90.0
 52
90.0
 71
     2
 49
0.5
 62
   256
  6
BYLAYER
 49
-0.5
 62
   256
  6
BYLAYER
  0
ACDBPLACEHOLDER
  5
5
102
{ACAD_REACTORS
330
6
102
}
330
6
100
AcDbPlaceHolder
280
     0
  0
XRECORD
  5
3ED
102
{ACAD_REACTORS
330
3E3
102
}
330
3E3
100
AcDbXrecord
 90
        0
  0
XRECORD
  5
3EE
102
{ACAD_REACTORS
330
3E3
102
}
330
3E3
100
AcDbXrecord
  1
{C7DB72A0-2C92-11D6-883E-0090279574E7}
  0
XRECORD
  5
3E6
102
{ACAD_REACTORS
330
3E3
102
}
330
3E3
100
AcDbXrecord
  1

  0
XRECORD
  5
3EC
102
{ACAD_REACTORS
330
3E3
102
}
330
3E3
100
AcDbXrecord
 90
        0
  0
XRECORD
  5
3E8
102
{ACAD_REACTORS
330
3E3
102
}
330
3E3
100
AcDbXrecord
340
B
  0
XRECORD
  5
3EB
102
{ACAD_REACTORS
330
3E3
102
}
330
3E3
100
AcDbXrecord
 90
    10781
  0
XRECORD
  5
3E9
102
{ACAD_REACTORS
330
3E3
102
}
330
3E3
100
AcDbXrecord
340
23
  0
XRECORD
  5
3EA
102
{ACAD_REACTORS
330
3E3
102
}
330
3E3
100
AcDbXrecord
340
6
  0
XRECORD
  5
3F0
102
{ACAD_REACTORS
330
3E3
102
}
330
3E3
100
AcDbXrecord
 40
0.0
  0
XRECORD
  5
3F3
102
{ACAD_REACTORS
330
3E3
102
}
330
3E3
100
AcDbXrecord
340
0
  0
XRECORD
  5
3F9
102
{ACAD_REACTORS
330
3E3
102
}
330
3E3
100
AcDbXrecord
 10
0.0
 20
0.0
 30
0.0
  0
XRECORD
  5
3F5
102
{ACAD_REACTORS
330
3E3
102
}
330
3E3
100
AcDbXrecord
 10
0.0
 20
0.0
 30
0.0
  0
XRECORD
  5
3F8
102
{ACAD_REACTORS
330
3E3
102
}
330
3E3
100
AcDbXrecord
 10
0.0
 20
0.0
 30
0.0
  0
XRECORD
  5
3F6
102
{ACAD_REACTORS
330
3E3
102
}
330
3E3
100
AcDbXrecord
 10
0.0
 20
0.0
 30
0.0
  0
XRECORD
  5
3F7
102
{ACAD_REACTORS
330
3E3
102
}
330
3E3
100
AcDbXrecord
 10
0.0
 20
0.0
 30
0.0
  0
XRECORD
  5
3F4
102
{ACAD_REACTORS
330
3E3
102
}
330
3E3
100
AcDbXrecord
 10
0.0
 20
0.0
 30
0.0
  0
XRECORD
  5
3F1
102
{ACAD_REACTORS
330
3E3
102
}
330
3E3
100
AcDbXrecord
340
0
  0
XRECORD
  5
3F2
102
{ACAD_REACTORS
330
3E3
102
}
330
3E3
100
AcDbXrecord
 70
     0
  0
XRECORD
  5
3E7
102
{ACAD_REACTORS
330
3E3
102
}
330
3E3
100
AcDbXrecord
  1
Default R14 pen assignments.ctb
  0
XRECORD
  5
3E4
102
{ACAD_REACTORS
330
3E3
102
}
330
3E3
100
AcDbXrecord
 90
        1
  0
XRECORD
  5
3E5
102
{ACAD_REACTORS
330
3E3
102
}
330
3E3
100
AcDbXrecord
 90
       70
  0
XRECORD
  5
3FC
102
{ACAD_REACTORS
330
3E3
102
}
330
3E3
100
AcDbXrecord
340
0
  0
XRECORD
  5
402
102
{ACAD_REACTORS
330
3E3
102
}
330
3E3
100
AcDbXrecord
 10
0.0
 20
0.0
 30
0.0
  0
XRECORD
  5
3FE
102
{ACAD_REACTORS
330
3E3
102
}
330
3E3
100
AcDbXrecord
 10
0.0
 20
0.0
 30
0.0
  0
XRECORD
  5
401
102
{ACAD_REACTORS
330
3E3
102
}
330
3E3
100
AcDbXrecord
 10
0.0
 20
0.0
 30
0.0
  0
XRECORD
  5
3FF
102
{ACAD_REACTORS
330
3E3
102
}
330
3E3
100
AcDbXrecord
 10
0.0
 20
0.0
 30
0.0
  0
XRECORD
  5
400
102
{ACAD_REACTORS
330
3E3
102
}
330
3E3
100
AcDbXrecord
 10
0.0
 20
0.0
 30
0.0
  0
XRECORD
  5
3FD
102
{ACAD_REACTORS
330
3E3
102
}
330
3E3
100
AcDbXrecord
 10
0.0
 20
0.0
 30
0.0
  0
XRECORD
  5
3FA
102
{ACAD_REACTORS
330
3E3
102
}
330
3E3
100
AcDbXrecord
340
0
  0
XRECORD
  5
3FB
102
{ACAD_REACTORS
330
3E3
102
}
330
3E3
100
AcDbXrecord
 70
     0
  0
XRECORD
  5
3EF
102
{ACAD_REACTORS
330
3E3
102
}
330
3E3
100
AcDbXrecord
  1
{34314862-8DB9-11D6-88E6-0090279574E7}
  0
DICTIONARYVAR
  5
3E1
102
{ACAD_REACTORS
330
211
102
}
330
211
100
DictionaryVariables
280
     0
  1
1
  0
DICTIONARYVAR
  5
212
102
{ACAD_REACTORS
330
211
102
}
330
211
100
DictionaryVariables
280
     0
  1
97
  0
ENDSEC
  0
EOF
