  0
SECTION
  2
HEADER
  9
$ACADVER
  1
AC1014
  9
$ACADMAINTVER
 70
     9
  9
$DWGCODEPAGE
  3
ANSI_1252
  9
$INSBASE
 10
-1.021304306939583
 20
1.577802408361236
 30
0.0
  9
$EXTMIN
 10
3.770021024128022
 20
3.105753425929745
 30
0.0
  9
$EXTMAX
 10
7.255240345875158
 20
5.03104972883252
 30
0.0
  9
$LIMMIN
 10
0.0
 20
0.0
  9
$LIMMAX
 10
12.0
 20
9.0
  9
$ORTHOMODE
 70
     0
  9
$REGENMODE
 70
     1
  9
$FILLMODE
 70
     1
  9
$QTEXTMODE
 70
     0
  9
$MIRRTEXT
 70
     0
  9
$DRAGMODE
 70
     2
  9
$LTSCALE
 40
1.0
  9
$OSMODE
 70
    39
  9
$ATTMODE
 70
     1
  9
$TEXTSIZE
 40
0.125
  9
$TRACEWID
 40
0.05
  9
$TEXTSTYLE
  7
ROMANS
  9
$CLAYER
  8
DIM
  9
$CELTYPE
  6
BYLAYER
  9
$CECOLOR
 62
   256
  9
$CELTSCALE
 40
1.0
  9
$DELOBJ
 70
     1
  9
$DISPSILH
 70
     1
  9
$DIMSCALE
 40
1.0
  9
$DIMASZ
 40
0.125
  9
$DIMEXO
 40
0.125
  9
$DIMDLI
 40
0.38
  9
$DIMRND
 40
0.0
  9
$DIMDLE
 40
0.0
  9
$DIMEXE
 40
0.125
  9
$DIMTP
 40
0.0
  9
$DIMTM
 40
0.0
  9
$DIMTXT
 40
0.125
  9
$DIMCEN
 40
-0.125
  9
$DIMTSZ
 40
0.0
  9
$DIMTOL
 70
     0
  9
$DIMLIM
 70
     0
  9
$DIMTIH
 70
     1
  9
$DIMTOH
 70
     1
  9
$DIMSE1
 70
     0
  9
$DIMSE2
 70
     0
  9
$DIMTAD
 70
     0
  9
$DIMZIN
 70
     4
  9
$DIMBLK
  1

  9
$DIMASO
 70
     1
  9
$DIMSHO
 70
     1
  9
$DIMPOST
  1

  9
$DIMAPOST
  1

  9
$DIMALT
 70
     0
  9
$DIMALTD
 70
     2
  9
$DIMALTF
 40
25.4
  9
$DIMLFAC
 40
0.5
  9
$DIMTOFL
 70
     0
  9
$DIMTVP
 40
0.0
  9
$DIMTIX
 70
     0
  9
$DIMSOXD
 70
     0
  9
$DIMSAH
 70
     0
  9
$DIMBLK1
  1

  9
$DIMBLK2
  1

  9
$DIMSTYLE
  2
STANDARD
  9
$DIMCLRD
 70
     0
  9
$DIMCLRE
 70
     0
  9
$DIMCLRT
 70
     0
  9
$DIMTFAC
 40
1.0
  9
$DIMGAP
 40
0.09
  9
$DIMJUST
 70
     0
  9
$DIMSD1
 70
     0
  9
$DIMSD2
 70
     0
  9
$DIMTOLJ
 70
     1
  9
$DIMTZIN
 70
     4
  9
$DIMALTZ
 70
     0
  9
$DIMALTTZ
 70
     0
  9
$DIMFIT
 70
     3
  9
$DIMUPT
 70
     1
  9
$DIMUNIT
 70
     2
  9
$DIMDEC
 70
     3
  9
$DIMTDEC
 70
     3
  9
$DIMALTU
 70
     2
  9
$DIMALTTD
 70
     2
  9
$DIMTXSTY
  7
ROMANS
  9
$DIMAUNIT
 70
     0
  9
$LUNITS
 70
     2
  9
$LUPREC
 70
     4
  9
$SKETCHINC
 40
0.1
  9
$FILLETRAD
 40
0.0
  9
$AUNITS
 70
     0
  9
$AUPREC
 70
     0
  9
$MENU
  1
.
  9
$ELEVATION
 40
0.0
  9
$PELEVATION
 40
0.0
  9
$THICKNESS
 40
0.0
  9
$LIMCHECK
 70
     0
  9
$BLIPMODE
 70
     0
  9
$CHAMFERA
 40
0.5
  9
$CHAMFERB
 40
0.5
  9
$CHAMFERC
 40
1.0
  9
$CHAMFERD
 40
0.0
  9
$SKPOLY
 70
     0
  9
$TDCREATE
 40
2452327.529018657
  9
$TDUPDATE
 40
2452458.321278379
  9
$TDINDWG
 40
0.1523050000
  9
$TDUSRTIMER
 40
0.1523050000
  9
$USRTIMER
 70
     1
  9
$ANGBASE
 50
0.0
  9
$ANGDIR
 70
     0
  9
$PDMODE
 70
     0
  9
$PDSIZE
 40
0.0
  9
$PLINEWID
 40
0.0
  9
$COORDS
 70
     2
  9
$SPLFRAME
 70
     0
  9
$SPLINETYPE
 70
     6
  9
$SPLINESEGS
 70
     8
  9
$ATTDIA
 70
     0
  9
$ATTREQ
 70
     1
  9
$HANDLING
 70
 22529
  9
$HANDSEED
  5
35F
  9
$SURFTAB1
 70
     6
  9
$SURFTAB2
 70
     6
  9
$SURFTYPE
 70
     6
  9
$SURFU
 70
     6
  9
$SURFV
 70
     6
  9
$UCSNAME
  2

  9
$UCSORG
 10
0.0
 20
0.0
 30
0.0
  9
$UCSXDIR
 10
1.0
 20
0.0
 30
0.0
  9
$UCSYDIR
 10
0.0
 20
1.0
 30
0.0
  9
$PUCSNAME
  2

  9
$PUCSORG
 10
0.0
 20
0.0
 30
0.0
  9
$PUCSXDIR
 10
1.0
 20
0.0
 30
0.0
  9
$PUCSYDIR
 10
0.0
 20
1.0
 30
0.0
  9
$USERI1
 70
     0
  9
$USERI2
 70
     0
  9
$USERI3
 70
     0
  9
$USERI4
 70
     0
  9
$USERI5
 70
     0
  9
$USERR1
 40
0.0
  9
$USERR2
 40
0.0
  9
$USERR3
 40
0.0
  9
$USERR4
 40
0.0
  9
$USERR5
 40
0.0
  9
$WORLDVIEW
 70
     1
  9
$SHADEDGE
 70
     3
  9
$SHADEDIF
 70
    70
  9
$TILEMODE
 70
     1
  9
$MAXACTVP
 70
    48
  9
$PINSBASE
 10
0.0
 20
0.0
 30
0.0
  9
$PLIMCHECK
 70
     0
  9
$PEXTMIN
 10
1.000000000000000E+20
 20
1.000000000000000E+20
 30
1.000000000000000E+20
  9
$PEXTMAX
 10
-1.000000000000000E+20
 20
-1.000000000000000E+20
 30
-1.000000000000000E+20
  9
$PLIMMIN
 10
0.0
 20
0.0
  9
$PLIMMAX
 10
12.0
 20
9.0
  9
$UNITMODE
 70
     0
  9
$VISRETAIN
 70
     1
  9
$PLINEGEN
 70
     1
  9
$PSLTSCALE
 70
     1
  9
$TREEDEPTH
 70
  3020
  9
$PICKSTYLE
 70
     1
  9
$CMLSTYLE
  2
STANDARD
  9
$CMLJUST
 70
     0
  9
$CMLSCALE
 40
1.0
  9
$PROXYGRAPHICS
 70
     1
  9
$MEASUREMENT
 70
     0
  0
ENDSEC
  0
SECTION
  2
CLASSES
  0
CLASS
  1
DICTIONARYVAR
  2
AcDbDictionaryVar
  3
AutoCAD 2000
 90
        0
280
     0
281
     0
  0
CLASS
  1
LWPOLYLINE
  2
AcDbPolyline
  3
AutoCAD 2000
 90
        0
280
     0
281
     1
  0
CLASS
  1
ACDBDICTIONARYWDFLT
  2
AcDbDictionaryWithDefault
  3
AutoCAD 2000
 90
        0
280
     0
281
     0
  0
CLASS
  1
ACDBPLACEHOLDER
  2
AcDbPlaceHolder
  3
AutoCAD 2000
 90
        0
280
     0
281
     0
  0
CLASS
  1
LAYOUT
  2
AcDbLayout
  3
AutoCAD 2000
 90
        0
280
     0
281
     0
  0
CLASS
  1
LONG_TRANSACTION
  2
AcDbLongTransaction
  3
AutoCAD 2000
 90
        0
280
     0
281
     0
  0
CLASS
  1
LWPOLYLINE
  2
AcDbPolyline
  3
AutoCAD 2000
 90
        0
280
     0
281
     1
  0
CLASS
  1
HATCH
  2
AcDbHatch
  3
AutoCAD 2000
 90
        0
280
     0
281
     1
  0
CLASS
  1
XRECORD
  2
AcDbXrecord
  3
AutoCAD 2000
 90
        0
280
     0
281
     0
  0
CLASS
  1
LONG_TRANSACTION
  2
AcDbLongTransaction
  3
AutoCAD 2000
 90
        0
280
     0
281
     0
  0
CLASS
  1
LWPOLYLINE
  2
AcDbPolyline
  3
AutoCAD 2000
 90
        0
280
     0
281
     1
  0
CLASS
  1
HATCH
  2
AcDbHatch
  3
AutoCAD 2000
 90
        0
280
     0
281
     1
  0
CLASS
  1
XRECORD
  2
AcDbXrecord
  3
AutoCAD 2000
 90
        0
280
     0
281
     0
  0
ENDSEC
  0
SECTION
  2
TABLES
  0
TABLE
  2
VPORT
  5
19
330
0
100
AcDbSymbolTable
 70
     2
  0
VPORT
  5
33C
330
19
100
AcDbSymbolTableRecord
100
AcDbViewportTableRecord
  2
*ACTIVE
 70
     0
 10
0.0
 20
0.0
 11
1.0
 21
1.0
 12
8.43531567931234
 22
4.068357740591293
 13
0.0
 23
0.0
 14
0.5
 24
0.5
 15
0.5
 25
0.5
 16
0.0
 26
0.0
 36
1.0
 17
0.0
 27
0.0
 37
0.0
 40
2.164073872797163
 41
4.320930232558139
 42
50.0
 43
0.0
 44
0.0
 50
0.0
 51
0.0
 71
     0
 72
  2000
 73
     1
 74
     1
 75
     0
 76
     0
 77
     0
 78
     0
  0
ENDTAB
  0
TABLE
  2
LTYPE
  5
14
330
0
100
AcDbSymbolTable
 70
     1
  0
LTYPE
  5
15
330
14
100
AcDbSymbolTableRecord
100
AcDbLinetypeTableRecord
  2
BYBLOCK
 70
     0
  3

 72
    65
 73
     0
 40
0.0
  0
LTYPE
  5
16
330
14
100
AcDbSymbolTableRecord
100
AcDbLinetypeTableRecord
  2
BYLAYER
 70
     0
  3

 72
    65
 73
     0
 40
0.0
  0
LTYPE
  5
8
330
14
100
AcDbSymbolTableRecord
100
AcDbLinetypeTableRecord
  2
CONTINUOUS
 70
     0
  3
Solid line
 72
    65
 73
     0
 40
0.0
  0
ENDTAB
  0
TABLE
  2
LAYER
  5
10
330
0
100
AcDbSymbolTable
 70
     3
  0
LAYER
  5
4
330
10
100
AcDbSymbolTableRecord
100
AcDbLayerTableRecord
  2
0
 70
     0
 62
     7
  6
CONTINUOUS
  0
LAYER
  5
3E
330
10
100
AcDbSymbolTableRecord
100
AcDbLayerTableRecord
  2
TEXT
 70
     0
 62
     3
  6
CONTINUOUS
  0
LAYER
  5
24
330
10
100
AcDbSymbolTableRecord
100
AcDbLayerTableRecord
  2
DIM
 70
     0
 62
     4
  6
CONTINUOUS
  0
ENDTAB
  0
TABLE
  2
STYLE
  5
11
330
0
100
AcDbSymbolTable
 70
     3
  0
STYLE
  5
12
330
11
100
AcDbSymbolTableRecord
100
AcDbTextStyleTableRecord
  2
STANDARD
 70
     0
 40
0.0
 41
1.0
 50
0.0
 71
     0
 42
0.2
  3
txt
  4

  0
STYLE
  5
1F
330
11
100
AcDbSymbolTableRecord
100
AcDbTextStyleTableRecord
  2
ROMANS
 70
     0
 40
0.0
 41
1.0
 50
0.0
 71
     0
 42
0.125
  3
romans.shx
  4

  0
STYLE
  5
230
330
11
100
AcDbSymbolTableRecord
100
AcDbTextStyleTableRecord
  2
ITALICC
 70
     0
 40
0.0
 41
1.0
 50
0.0
 71
     0
 42
0.125
  3
italicc
  4

  0
ENDTAB
  0
TABLE
  2
VIEW
  5
17
330
0
100
AcDbSymbolTable
 70
     0
  0
ENDTAB
  0
TABLE
  2
UCS
  5
18
330
0
100
AcDbSymbolTable
 70
     0
  0
ENDTAB
  0
TABLE
  2
APPID
  5
1B
330
0
100
AcDbSymbolTable
 70
     1
  0
APPID
  5
1C
330
1B
100
AcDbSymbolTableRecord
100
AcDbRegAppTableRecord
  2
ACAD
 70
     0
  0
ENDTAB
  0
TABLE
  2
DIMSTYLE
  5
1D
330
0
100
AcDbSymbolTable
 70
     1
  0
DIMSTYLE
105
1E
330
1D
100
AcDbSymbolTableRecord
100
AcDbDimStyleTableRecord
  2
STANDARD
 70
     0
  3

  4

  5

  6

  7

 40
1.0
 41
0.125
 42
0.125
 43
0.38
 44
0.125
 45
0.0
 46
0.0
 47
0.0
 48
0.0
140
0.125
141
-0.125
142
0.0
143
25.4
144
0.5
145
0.0
146
1.0
147
0.09
 71
     0
 72
     0
 73
     1
 74
     1
 75
     0
 76
     0
 77
     0
 78
     4
170
     0
171
     2
172
     0
173
     0
174
     0
175
     0
176
     0
177
     0
178
     0
270
     2
271
     3
272
     3
273
     2
274
     2
340
1F
275
     0
280
     0
281
     0
282
     0
283
     1
284
     4
285
     0
286
     0
287
     3
288
     1
  0
ENDTAB
  0
TABLE
  2
BLOCK_RECORD
  5
1
330
0
100
AcDbSymbolTable
 70
     0
  0
BLOCK_RECORD
  5
2
102
{ACAD_XDICTIONARY
360
206
102
}
330
1
100
AcDbSymbolTableRecord
100
AcDbBlockTableRecord
  2
*MODEL_SPACE
  0
BLOCK_RECORD
  5
C
102
{ACAD_XDICTIONARY
360
20A
102
}
330
1
100
AcDbSymbolTableRecord
100
AcDbBlockTableRecord
  2
*PAPER_SPACE
  0
ENDTAB
  0
ENDSEC
  0
SECTION
  2
BLOCKS
  0
BLOCK
  5
3
330
2
100
AcDbEntity
  8
0
100
AcDbBlockBegin
  2
*MODEL_SPACE
 70
     0
 10
0.0
 20
0.0
 30
0.0
  3
*MODEL_SPACE
  1

  0
ENDBLK
  5
9
330
2
100
AcDbEntity
  8
0
100
AcDbBlockEnd
  0
BLOCK
  5
D
330
C
100
AcDbEntity
 67
     1
  8
0
100
AcDbBlockBegin
  2
*PAPER_SPACE
 70
     0
 10
0.0
 20
0.0
 30
0.0
  3
*PAPER_SPACE
  1

  0
ENDBLK
  5
E
330
C
100
AcDbEntity
 67
     1
  8
0
100
AcDbBlockEnd
  0
ENDSEC
  0
SECTION
  2
ENTITIES
  0
LWPOLYLINE
  5
43
330
2
100
AcDbEntity
  8
0
100
AcDbPolyline
 90
       14
 70
   129
 43
0.0
 10
5.616363216986455
 20
4.48417472883252
 10
5.616363216986455
 20
3.85917472883252
 10
5.741363216986455
 20
3.85917472883252
 10
5.741363216986455
 20
3.92167472883252
 10
5.678863216986455
 20
3.92167472883252
 10
5.678863216986455
 20
4.45292472883252
 10
5.741363216986455
 20
4.45292472883252
 10
5.741363216986455
 20
5.03104972883252
 10
5.272613216986455
 20
5.03104972883252
 42
0.9999999999999998
 10
5.272613216986455
 20
4.968549728832524
 10
5.678863216986455
 20
4.96854972883252
 10
5.678863216986455
 20
4.54667472883252
 10
5.272613216986455
 20
4.54667472883252
 42
0.9999999999999998
 10
5.272613216986455
 20
4.484174728832524
  0
TEXT
  5
2B5
330
2
100
AcDbEntity
  8
TEXT
100
AcDbText
 10
4.760026412878975
 20
3.563772030012326
 30
0.0
 40
0.125
  1
PART #110649
  7
ITALICC
 72
     1
 11
5.513002603355166
 21
3.563772030012326
 31
0.0
100
AcDbText
  0
LINE
  5
2B6
330
2
100
AcDbEntity
  8
TEXT
100
AcDbLine
 10
5.480736102307228
 20
3.319418343992492
 30
0.0
 11
5.557384083599786
 21
3.319418343992492
 31
0.0
  0
LINE
  5
2B7
330
2
100
AcDbEntity
  8
TEXT
100
AcDbLine
 10
5.552904196273286
 20
3.383695038649258
 30
0.0
 11
5.485404478623769
 21
3.383695038649258
 31
0.0
  0
LWPOLYLINE
  5
2B8
330
2
100
AcDbEntity
  8
TEXT
100
AcDbPolyline
 90
        5
 70
     0
 43
0.0001332181640625
 10
3.843624059772553
 20
3.260468236891445
 10
3.856945876178802
 20
3.260468236891445
 10
3.856945876178802
 20
3.297103232008635
 10
3.893580871295992
 20
3.297103232008635
 10
3.893580871295992
 20
3.310425048414882
  0
LWPOLYLINE
  5
2B9
330
2
100
AcDbEntity
  8
TEXT
100
AcDbPolyline
 90
        3
 70
     0
 43
0.0006660908203125
 10
3.883589508991301
 20
3.35705140583676
 10
3.796997702350676
 20
3.35705140583676
 10
3.796997702350676
 20
3.270459599196134
  0
LWPOLYLINE
  5
2BA
330
2
100
AcDbEntity
  8
TEXT
100
AcDbPolyline
 90
        3
 70
     0
 43
0.0006660908203125
 10
3.883589508991301
 20
3.383695038649261
 10
3.770354069538179
 20
3.383695038649261
 10
3.770354069538179
 20
3.270459599196134
  0
LWPOLYLINE
  5
2BB
330
2
100
AcDbEntity
  8
TEXT
100
AcDbPolyline
 90
        5
 70
     0
 43
0.0001332181640625
 10
3.893580871295992
 20
3.190528700758634
 10
3.893580871295992
 20
3.203850517164885
 10
3.856945876178804
 20
3.203850517164885
 10
3.856945876178804
 20
3.240485512282071
 10
3.843624059772553
 20
3.240485512282071
  0
LWPOLYLINE
  5
2BC
330
2
100
AcDbEntity
  8
TEXT
100
AcDbPolyline
 90
        3
 70
     0
 43
0.0006660908203125
 10
3.796997702350676
 20
3.230494149977386
 10
3.796997702350676
 20
3.143902343336759
 10
3.883589508991301
 20
3.143902343336759
  0
LWPOLYLINE
  5
2BD
330
2
100
AcDbEntity
  8
TEXT
100
AcDbPolyline
 90
        3
 70
     0
 43
0.0006660908203125
 10
3.770354069538179
 20
3.230494149977386
 10
3.770354069538179
 20
3.117258710524258
 10
3.883589508991301
 20
3.117258710524258
  0
LWPOLYLINE
  5
2BE
330
2
100
AcDbEntity
  8
TEXT
100
AcDbPolyline
 90
        2
 70
     0
 43
0.0001332181640625
 10
3.796997702350676
 20
3.230494149977386
 10
3.856945876178804
 20
3.240485512282071
  0
LWPOLYLINE
  5
2BF
330
2
100
AcDbEntity
  8
TEXT
100
AcDbPolyline
 90
        2
 70
     0
 43
0.0001332181640625
 10
3.843624059772553
 20
3.240485512282071
 10
3.770354069538179
 20
3.230494149977386
  0
LWPOLYLINE
  5
2C0
330
2
100
AcDbEntity
  8
TEXT
100
AcDbPolyline
 90
        2
 70
     0
 43
0.0006660908203125
 10
3.796997702350676
 20
3.230494149977386
 10
3.770354069538179
 20
3.230494149977386
  0
LWPOLYLINE
  5
2C1
330
2
100
AcDbEntity
  8
TEXT
100
AcDbPolyline
 90
        2
 70
     0
 43
0.0001332181640625
 10
3.796997702350676
 20
3.143902343336759
 10
3.856945876178804
 20
3.203850517164885
  0
LWPOLYLINE
  5
2C2
330
2
100
AcDbEntity
  8
TEXT
100
AcDbPolyline
 90
        2
 70
     0
 43
0.0006660908203125
 10
3.796997702350676
 20
3.270459599196134
 10
3.770354069538179
 20
3.270459599196134
  0
LWPOLYLINE
  5
2C3
330
2
100
AcDbEntity
  8
TEXT
100
AcDbPolyline
 90
        2
 70
     0
 43
0.0001332181640625
 10
3.770354069538179
 20
3.270459599196134
 10
3.843624059772553
 20
3.260468236891445
  0
LWPOLYLINE
  5
2C4
330
2
100
AcDbEntity
  8
TEXT
100
AcDbPolyline
 90
        2
 70
     0
 43
0.0001332181640625
 10
3.796997702350676
 20
3.270459599196134
 10
3.856945876178802
 20
3.260468236891445
  0
LWPOLYLINE
  5
2C5
330
2
100
AcDbEntity
  8
TEXT
100
AcDbPolyline
 90
        2
 70
     0
 43
0.0001332181640625
 10
3.796997702350676
 20
3.35705140583676
 10
3.856945876178802
 20
3.297103232008635
  0
LWPOLYLINE
  5
2C6
330
2
100
AcDbEntity
  8
TEXT
100
AcDbPolyline
 90
        5
 70
     0
 43
0.0001332181640625
 10
3.963520407428802
 20
3.240485512282071
 10
3.950198591022554
 20
3.240485512282071
 10
3.950198591022554
 20
3.203850517164885
 10
3.913563595905364
 20
3.203850517164885
 10
3.913563595905364
 20
3.190528700758634
  0
LWPOLYLINE
  5
2C7
330
2
100
AcDbEntity
  8
TEXT
100
AcDbPolyline
 90
        2
 70
     0
 43
0.0001332181640625
 10
4.010146764850677
 20
3.230494149977386
 10
3.950198591022554
 20
3.240485512282071
  0
LWPOLYLINE
  5
2C8
330
2
100
AcDbEntity
  8
TEXT
100
AcDbPolyline
 90
        2
 70
     0
 43
0.0001332181640625
 10
4.036790397663178
 20
3.230494149977386
 10
3.963520407428802
 20
3.240485512282071
  0
LWPOLYLINE
  5
2C9
330
2
100
AcDbEntity
  8
TEXT
100
AcDbPolyline
 90
        3
 70
     0
 43
0.0006660908203125
 10
3.923554958210053
 20
3.117258710524258
 10
4.036790397663178
 20
3.117258710524258
 10
4.036790397663178
 20
3.230494149977386
  0
LWPOLYLINE
  5
2CA
330
2
100
AcDbEntity
  8
TEXT
100
AcDbPolyline
 90
        3
 70
     0
 43
0.0006660908203125
 10
3.923554958210053
 20
3.143902343336759
 10
4.010146764850677
 20
3.143902343336759
 10
4.010146764850677
 20
3.230494149977386
  0
LWPOLYLINE
  5
2CB
330
2
100
AcDbEntity
  8
TEXT
100
AcDbPolyline
 90
        2
 70
     0
 43
0.0001332181640625
 10
4.010146764850677
 20
3.143902343336759
 10
3.950198591022554
 20
3.203850517164885
  0
LWPOLYLINE
  5
2CC
330
2
100
AcDbEntity
  8
TEXT
100
AcDbPolyline
 90
        2
 70
     0
 43
0.0006660908203125
 10
3.923554958210053
 20
3.143902343336759
 10
3.923554958210053
 20
3.117258710524258
  0
LWPOLYLINE
  5
2CD
330
2
100
AcDbEntity
  8
TEXT
100
AcDbPolyline
 90
        2
 70
     0
 43
0.0001332181640625
 10
3.913563595905364
 20
3.190528700758634
 10
3.923554958210053
 20
3.117258710524258
  0
LWPOLYLINE
  5
2CE
330
2
100
AcDbEntity
  8
TEXT
100
AcDbPolyline
 90
        2
 70
     0
 43
0.0001332181640625
 10
3.923554958210053
 20
3.143902343336759
 10
3.913563595905364
 20
3.203850517164885
  0
LWPOLYLINE
  5
2CF
330
2
100
AcDbEntity
  8
TEXT
100
AcDbPolyline
 90
        2
 70
     0
 43
0.0001332181640625
 10
3.883589508991301
 20
3.117258710524258
 10
3.893580871295992
 20
3.190528700758634
  0
LWPOLYLINE
  5
2D0
330
2
100
AcDbEntity
  8
TEXT
100
AcDbPolyline
 90
        2
 70
     0
 43
0.0001332181640625
 10
3.883589508991301
 20
3.143902343336759
 10
3.893580871295992
 20
3.203850517164885
  0
LWPOLYLINE
  5
2D1
330
2
100
AcDbEntity
  8
TEXT
100
AcDbPolyline
 90
        2
 70
     0
 43
0.0006660908203125
 10
3.883589508991301
 20
3.143902343336759
 10
3.883589508991301
 20
3.117258710524258
  0
LWPOLYLINE
  5
2D2
330
2
100
AcDbEntity
  8
TEXT
100
AcDbPolyline
 90
        2
 70
     0
 43
0.0006660908203125
 10
4.010146764850677
 20
3.230494149977386
 10
4.036790397663178
 20
3.230494149977386
  0
LWPOLYLINE
  5
2D3
330
2
100
AcDbEntity
  8
TEXT
100
AcDbPolyline
 90
        2
 70
     0
 43
0.0001332181640625
 10
4.010146764850677
 20
3.35705140583676
 10
3.950198591022554
 20
3.297103232008635
  0
LWPOLYLINE
  5
2D4
330
2
100
AcDbEntity
  8
TEXT
100
AcDbPolyline
 90
        2
 70
     0
 43
0.0001332181640625
 10
4.010146764850677
 20
3.270459599196134
 10
3.950198591022554
 20
3.260468236891445
  0
LWPOLYLINE
  5
2D5
330
2
100
AcDbEntity
  8
TEXT
100
AcDbPolyline
 90
        2
 70
     0
 43
0.0001332181640625
 10
3.963520407428802
 20
3.260468236891445
 10
4.036790397663178
 20
3.270459599196134
  0
LWPOLYLINE
  5
2D6
330
2
100
AcDbEntity
  8
TEXT
100
AcDbPolyline
 90
        3
 70
     0
 43
0.0006660908203125
 10
4.010146764850677
 20
3.270459599196134
 10
4.010146764850677
 20
3.35705140583676
 10
3.923554958210053
 20
3.35705140583676
  0
LWPOLYLINE
  5
2D7
330
2
100
AcDbEntity
  8
TEXT
100
AcDbPolyline
 90
        3
 70
     0
 43
0.0006660908203125
 10
4.036790397663178
 20
3.270459599196134
 10
4.036790397663178
 20
3.383695038649261
 10
3.923554958210053
 20
3.383695038649261
  0
LWPOLYLINE
  5
2D8
330
2
100
AcDbEntity
  8
TEXT
100
AcDbPolyline
 90
        2
 70
     0
 43
0.0001332181640625
 10
3.923554958210053
 20
3.383695038649261
 10
3.913563595905364
 20
3.310425048414882
  0
LWPOLYLINE
  5
2D9
330
2
100
AcDbEntity
  8
TEXT
100
AcDbPolyline
 90
        2
 70
     0
 43
0.0001332181640625
 10
3.923554958210053
 20
3.35705140583676
 10
3.913563595905364
 20
3.297103232008635
  0
LWPOLYLINE
  5
2DA
330
2
100
AcDbEntity
  8
TEXT
100
AcDbPolyline
 90
        2
 70
     0
 43
0.0006660908203125
 10
3.923554958210053
 20
3.35705140583676
 10
3.923554958210053
 20
3.383695038649261
  0
LWPOLYLINE
  5
2DB
330
2
100
AcDbEntity
  8
TEXT
100
AcDbPolyline
 90
        5
 70
     0
 43
0.0001332181640625
 10
3.913563595905364
 20
3.310425048414882
 10
3.913563595905364
 20
3.297103232008635
 10
3.950198591022554
 20
3.297103232008635
 10
3.950198591022554
 20
3.260468236891445
 10
3.963520407428802
 20
3.260468236891445
  0
LWPOLYLINE
  5
2DC
330
2
100
AcDbEntity
  8
TEXT
100
AcDbPolyline
 90
        2
 70
     0
 43
0.0001332181640625
 10
3.883589508991301
 20
3.35705140583676
 10
3.893580871295992
 20
3.297103232008635
  0
LWPOLYLINE
  5
2DD
330
2
100
AcDbEntity
  8
TEXT
100
AcDbPolyline
 90
        2
 70
     0
 43
0.0001332181640625
 10
3.893580871295992
 20
3.310425048414882
 10
3.883589508991301
 20
3.383695038649261
  0
LWPOLYLINE
  5
2DE
330
2
100
AcDbEntity
  8
TEXT
100
AcDbPolyline
 90
        2
 70
     0
 43
0.0006660908203125
 10
3.883589508991301
 20
3.35705140583676
 10
3.883589508991301
 20
3.383695038649261
  0
LWPOLYLINE
  5
2DF
330
2
100
AcDbEntity
  8
TEXT
100
AcDbPolyline
 90
        2
 70
     0
 43
0.0006660908203125
 10
4.010146764850677
 20
3.270459599196134
 10
4.036790397663178
 20
3.270459599196134
  0
LWPOLYLINE
  5
2E0
330
2
100
AcDbEntity
  8
TEXT
100
AcDbPolyline
 90
        2
 70
     0
 43
0.0
 10
4.755570318411809
 20
3.168773347875675
 42
0.3318488747599744
 10
4.824689610977122
 20
3.117222005660747
 42
-6.868794160588311
  0
LINE
  5
2E1
330
2
100
AcDbEntity
  8
TEXT
100
AcDbLine
 10
4.823550037480926
 20
3.451706516388068
 30
0.0
 11
4.756741324914561
 21
3.451706516388068
 31
0.0
  0
LINE
  5
2E2
330
2
100
AcDbEntity
  8
TEXT
100
AcDbLine
 10
4.477398957295467
 20
3.383695038649258
 30
0.0
 11
4.301667204396956
 21
3.383695038649258
 31
0.0
  0
ARC
  5
2E3
330
2
100
AcDbEntity
  8
TEXT
100
AcDbCircle
 10
4.372504670755505
 20
3.200417814021304
 30
0.0
 40
0.0831958083605586
100
AcDbArc
 50
270.0
 51
90.0
  0
LINE
  5
2E4
330
2
100
AcDbEntity
  8
TEXT
100
AcDbLine
 10
4.306904534511204
 20
3.319418343992492
 30
0.0
 11
4.473810188540174
 21
3.319418343992492
 31
0.0
  0
LINE
  5
2E5
330
2
100
AcDbEntity
  8
TEXT
100
AcDbLine
 10
4.377445044661785
 20
3.185579011994186
 30
0.0
 11
4.219579744950451
 21
3.185579011994186
 31
0.0
  0
LINE
  5
2E6
330
2
100
AcDbEntity
  8
TEXT
100
AcDbLine
 10
4.219579744950452
 20
3.117222005660747
 30
0.0
 11
4.372504670755505
 21
3.117222005660747
 31
0.0
  0
ARC
  5
2E7
330
2
100
AcDbEntity
  8
TEXT
100
AcDbCircle
 10
4.301667204396956
 20
3.301607579202756
 30
0.0
 40
0.0820874594465043
100
AcDbArc
 50
90.0
 51
270.0
  0
LINE
  5
2E8
330
2
100
AcDbEntity
  8
TEXT
100
AcDbLine
 10
4.219579744950451
 20
3.185579011994186
 30
0.0
 11
4.219579744950452
 21
3.117222005660747
 31
0.0
  0
LINE
  5
2E9
330
2
100
AcDbEntity
  8
TEXT
100
AcDbLine
 10
4.301667204396956
 20
3.219520119756251
 30
0.0
 11
4.377445044661785
 21
3.219520119756251
 31
0.0
  0
ARC
  5
2EA
330
2
100
AcDbEntity
  8
TEXT
100
AcDbCircle
 10
4.377445044661785
 20
3.20254956587522
 30
0.0
 40
0.0169705538810321
100
AcDbArc
 50
270.0
 51
90.0
  0
LINE
  5
2EB
330
2
100
AcDbEntity
  8
TEXT
100
AcDbLine
 10
4.372504670755505
 20
3.283613622381865
 30
0.0
 11
4.306904534511204
 21
3.283613622381865
 31
0.0
  0
ARC
  5
2EC
330
2
100
AcDbEntity
  8
TEXT
100
AcDbCircle
 10
4.306904534511204
 20
3.30151598318718
 30
0.0
 40
0.017902360805315
100
AcDbArc
 50
90.0
 51
270.0
  0
LINE
  5
2ED
330
2
100
AcDbEntity
  8
TEXT
100
AcDbLine
 10
4.66787084931532
 20
3.282823042536137
 30
0.0
 11
4.609240528283382
 21
3.383695038649258
 31
0.0
  0
LINE
  5
2EE
330
2
100
AcDbEntity
  8
TEXT
100
AcDbLine
 10
4.52769679602028
 20
3.117222005660747
 30
0.0
 11
4.624337047095274
 21
3.117492644759029
 31
0.0
  0
LWPOLYLINE
  5
2EF
330
2
100
AcDbEntity
  8
TEXT
100
AcDbPolyline
 90
        6
 70
     1
 43
0.0
 10
4.57022059959543
 20
3.319418343992492
 10
4.539904005375221
 20
3.319418343992492
 10
4.539904005375221
 20
3.196307345937598
 42
0.407328721240804
 10
4.551447656536698
 20
3.184488431261212
 10
4.612069355581429
 20
3.184488431261212
 10
4.629534695988747
 20
3.217300660304691
  0
LINE
  5
2F0
330
2
100
AcDbEntity
  8
TEXT
100
AcDbLine
 10
4.473810188540174
 20
3.319418343992492
 30
0.0
 11
4.473810188540174
 21
3.177014396998797
 31
0.0
  0
ARC
  5
2F1
330
2
100
AcDbEntity
  8
TEXT
100
AcDbCircle
 10
4.533926206513926
 20
3.177014396998797
 30
0.0
 40
0.0601160179737537
100
AcDbArc
 50
180.0000000000003
 51
264.0521544866073
  0
LINE
  5
2F2
330
2
100
AcDbEntity
  8
TEXT
100
AcDbLine
 10
4.537441562139474
 20
3.418082956243396
 30
0.0
 11
4.477398957295467
 21
3.418082956243396
 31
0.0
  0
LINE
  5
2F3
330
2
100
AcDbEntity
  8
TEXT
100
AcDbLine
 10
4.477398957295467
 20
3.418082956243396
 30
0.0
 11
4.477398957295467
 21
3.383695038649258
 31
0.0
  0
LINE
  5
2F4
330
2
100
AcDbEntity
  8
TEXT
100
AcDbLine
 10
4.537441562139474
 20
3.383695038649258
 30
0.0
 11
4.537441562139474
 21
3.418082956243396
 31
0.0
  0
LINE
  5
2F5
330
2
100
AcDbEntity
  8
TEXT
100
AcDbLine
 10
4.609240528283382
 20
3.383695038649258
 30
0.0
 11
4.537441562139474
 21
3.383695038649258
 31
0.0
  0
LINE
  5
2F6
330
2
100
AcDbEntity
  8
TEXT
100
AcDbLine
 10
4.658270612318365
 20
3.13718051176576
 30
0.0
 11
4.75557031841181
 21
3.301530722701028
 31
0.0
  0
LINE
  5
2F7
330
2
100
AcDbEntity
  8
TEXT
100
AcDbLine
 10
4.75557031841181
 20
3.301530722701028
 30
0.0
 11
4.75557031841181
 21
3.168773347875672
 31
0.0
  0
ARC
  5
2F8
330
2
100
AcDbEntity
  8
TEXT
100
AcDbCircle
 10
4.624227052406151
 20
3.156769727934443
 30
0.0
 40
0.0392772371940762
100
AcDbArc
 50
270.1604552698595
 51
330.0831797321295
  0
LINE
  5
2F9
330
2
100
AcDbEntity
  8
TEXT
100
AcDbLine
 10
4.726619412121185
 20
3.383695038649258
 30
0.0
 11
4.66787084931532
 21
3.282823042536137
 31
0.0
  0
LINE
  5
2FA
330
2
100
AcDbEntity
  8
TEXT
100
AcDbLine
 10
4.756741324914561
 20
3.451706516388068
 30
0.0
 11
4.756741324914561
 21
3.383695038649258
 31
0.0
  0
LINE
  5
2FB
330
2
100
AcDbEntity
  8
TEXT
100
AcDbLine
 10
4.756741324914561
 20
3.383695038649258
 30
0.0
 11
4.726619412121185
 21
3.383695038649258
 31
0.0
  0
LWPOLYLINE
  5
2FC
330
2
100
AcDbEntity
  8
TEXT
100
AcDbPolyline
 90
        4
 70
     0
 43
0.0
 10
5.10882744653472
 20
3.311864554826382
 10
5.10882744653472
 20
3.117222005660747
 10
5.177305729822577
 20
3.117222005660747
 10
5.177305729822577
 20
3.160712950611185
 42
-1.714843617202739
  0
LWPOLYLINE
  5
2FD
330
2
100
AcDbEntity
  8
TEXT
100
AcDbPolyline
 90
        2
 70
     0
 43
0.0
 10
5.143961797078929
 20
3.383695038649261
 42
-0.3277054968067132
 10
5.179743487792094
 20
3.355372492879618
 42
6.667889725900311
  0
LWPOLYLINE
  5
2FE
330
2
100
AcDbEntity
  8
TEXT
100
AcDbPolyline
 90
        2
 70
     0
 43
0.0
 10
4.972528224499702
 20
3.319418343992492
 42
-0.4142135623731017
 10
4.980082013665816
 20
3.311864554826382
 42
-0.9999999999999998
  0
LINE
  5
2FF
330
2
100
AcDbEntity
  8
TEXT
100
AcDbLine
 10
4.989879947549723
 20
3.383695038649258
 30
0.0
 11
4.855861891618586
 21
3.383695038649258
 31
0.0
  0
LINE
  5
300
330
2
100
AcDbEntity
  8
TEXT
100
AcDbLine
 10
4.922692944676556
 20
3.117222005660747
 30
0.0
 11
4.922692944676556
 21
3.319418343992492
 31
0.0
  0
LINE
  5
301
330
2
100
AcDbEntity
  8
TEXT
100
AcDbLine
 10
4.855861891618586
 20
3.383695038649258
 30
0.0
 11
4.855861891618586
 21
3.18283083191685
 31
0.0
  0
LINE
  5
302
330
2
100
AcDbEntity
  8
TEXT
100
AcDbLine
 10
4.823550037480926
 20
3.199609843763746
 30
0.0
 11
4.823550037480926
 21
3.451706516388068
 31
0.0
  0
LINE
  5
303
330
2
100
AcDbEntity
  8
TEXT
100
AcDbLine
 10
4.824689610977121
 20
3.117222005660747
 30
0.0
 11
4.922692944676556
 21
3.117222005660747
 31
0.0
  0
LINE
  5
304
330
2
100
AcDbEntity
  8
TEXT
100
AcDbLine
 10
4.855861891618586
 20
3.18283083191685
 30
0.0
 11
4.838868254733985
 21
3.18283083191685
 31
0.0
  0
ARC
  5
305
330
2
100
AcDbEntity
  8
TEXT
100
AcDbCircle
 10
4.838868254733984
 20
3.198212638160275
 30
0.0
 40
0.0153818062434269
100
AcDbArc
 50
174.7883570302258
 51
270.0
  0
LINE
  5
306
330
2
100
AcDbEntity
  8
TEXT
100
AcDbLine
 10
4.922692944676556
 20
3.319418343992492
 30
0.0
 11
4.972528224499703
 21
3.319418343992492
 31
0.0
  0
LINE
  5
307
330
2
100
AcDbEntity
  8
TEXT
100
AcDbLine
 10
4.980082013665817
 20
3.311864554826382
 30
0.0
 11
4.980082013665817
 21
3.117222005660747
 31
0.0
  0
LINE
  5
308
330
2
100
AcDbEntity
  8
TEXT
100
AcDbLine
 10
5.047140060447657
 20
3.117222005660747
 30
0.0
 11
5.047140060447657
 21
3.319418343992492
 31
0.0
  0
LINE
  5
309
330
2
100
AcDbEntity
  8
TEXT
100
AcDbLine
 10
4.980082013665817
 20
3.117222005660747
 30
0.0
 11
5.047140060447657
 21
3.117222005660747
 31
0.0
  0
LWPOLYLINE
  5
30A
330
2
100
AcDbEntity
  8
TEXT
100
AcDbPolyline
 90
        3
 70
     0
 43
0.0
 10
5.143961797078929
 20
3.383695038649261
 10
5.025661638262885
 20
3.383695038649261
 10
5.025661638262885
 20
3.356527541888365
 42
-1.960274751411753
  0
LINE
  5
30B
330
2
100
AcDbEntity
  8
TEXT
100
AcDbLine
 10
5.047140060447657
 20
3.319418343992492
 30
0.0
 11
5.101273657368607
 21
3.319418343992492
 31
0.0
  0
LWPOLYLINE
  5
30C
330
2
100
AcDbEntity
  8
TEXT
100
AcDbPolyline
 90
        2
 70
     0
 43
0.0
 10
4.989879947549724
 20
3.383695038649261
 42
-0.3328679258950098
 10
5.025661638262885
 20
3.356527541888365
 42
6.772930709997214
  0
LWPOLYLINE
  5
30D
330
2
100
AcDbEntity
  8
TEXT
100
AcDbPolyline
 90
        2
 70
     0
 43
0.0
 10
5.101273657368606
 20
3.319418343992492
 42
-0.4142135623731017
 10
5.10882744653472
 20
3.311864554826382
 42
-0.9999999999999998
  0
ARC
  5
30E
330
2
100
AcDbEntity
  8
TEXT
100
AcDbCircle
 10
5.312548457232086
 20
3.342111471528355
 30
0.0
 40
0.0416329381542859
100
AcDbArc
 50
26.56974201007528
 51
87.20939649401342
  0
LWPOLYLINE
  5
30F
330
2
100
AcDbEntity
  8
TEXT
100
AcDbPolyline
 90
        2
 70
     0
 43
0.0
 10
5.220381662690213
 20
3.117222005660747
 10
5.35439908032159
 20
3.117222005660747
 42
0.9999999999999998
  0
LWPOLYLINE
  5
310
330
2
100
AcDbEntity
  8
TEXT
100
AcDbPolyline
 90
        4
 70
     1
 43
0.0
 10
5.334276615251697
 20
3.220185983644772
 10
5.245616296591839
 20
3.220185983644772
 42
0.9999999999999998
 10
5.245616296591839
 20
3.177787443140911
 10
5.334276615251697
 20
3.177787443140911
 42
1.0
  0
LWPOLYLINE
  5
311
330
2
100
AcDbEntity
  8
TEXT
100
AcDbPolyline
 90
        2
 70
     0
 43
0.0
 10
5.177305729822577
 20
3.160712950611185
 42
0.2901071551932823
 10
5.220381662690213
 20
3.117222005660747
 42
5.328517124445801
  0
LINE
  5
312
330
2
100
AcDbEntity
  8
TEXT
100
AcDbLine
 10
5.314575397009154
 20
3.383695038649258
 30
0.0
 11
5.179743487792095
 21
3.383695038649258
 31
0.0
  0
LINE
  5
313
330
2
100
AcDbEntity
  8
TEXT
100
AcDbLine
 10
5.239057584185414
 20
3.28214337053036
 30
0.0
 11
5.321345573968797
 21
3.28214337053036
 31
0.0
  0
LINE
  5
314
330
2
100
AcDbEntity
  8
TEXT
100
AcDbLine
 10
5.285544498664676
 20
3.319418343992492
 30
0.0
 11
5.178338225277387
 21
3.319418343992492
 31
0.0
  0
LINE
  5
315
330
2
100
AcDbEntity
  8
TEXT
100
AcDbLine
 10
5.179743487792095
 20
3.383695038649258
 30
0.0
 11
5.179743487792095
 21
3.355372492879614
 31
0.0
  0
ARC
  5
316
330
2
100
AcDbEntity
  8
TEXT
100
AcDbCircle
 10
5.239057584185413
 20
3.214457789386242
 30
0.0
 40
0.0676855811441166
100
AcDbArc
 50
90.0
 51
153.7768192527749
  0
LINE
  5
317
330
2
100
AcDbEntity
  8
TEXT
100
AcDbLine
 10
5.178338225277387
 20
3.319418343992492
 30
0.0
 11
5.178338225277387
 21
3.244365937918286
 31
0.0
  0
LINE
  5
318
330
2
100
AcDbEntity
  8
TEXT
100
AcDbLine
 10
5.321345573968797
 20
3.28214337053036
 30
0.0
 11
5.311080813555233
 21
3.303393910103054
 31
0.0
  0
ARC
  5
319
330
2
100
AcDbEntity
  8
TEXT
100
AcDbCircle
 10
5.285544498664675
 20
3.291058968992495
 30
0.0
 40
0.028359375
100
AcDbArc
 50
25.78218179591245
 51
90.0
  0
LINE
  5
31A
330
2
100
AcDbEntity
  8
TEXT
100
AcDbLine
 10
5.455830227024569
 20
3.117222005660747
 30
0.0
 11
5.455830227024564
 21
3.294512511092215
 31
0.0
  0
LWPOLYLINE
  5
31B
330
2
100
AcDbEntity
  8
TEXT
100
AcDbPolyline
 90
        2
 70
     0
 43
0.0
 10
5.397475013189234
 20
3.117222005660747
 10
5.455830227024568
 20
3.117222005660747
  0
LWPOLYLINE
  5
31C
330
2
100
AcDbEntity
  8
TEXT
100
AcDbPolyline
 90
        2
 70
     0
 43
0.0
 10
5.397475013189234
 20
3.160712950611185
 42
-0.2901071551932486
 10
5.35439908032159
 20
3.117222005660747
 42
-5.328517124445184
  0
LWPOLYLINE
  5
31D
330
2
100
AcDbEntity
  8
TEXT
100
AcDbPolyline
 90
        2
 70
     0
 43
0.0
 10
5.397475013189234
 20
3.160712950611185
 10
5.397475013189234
 20
3.117222005660747
  0
LINE
  5
31E
330
2
100
AcDbEntity
  8
TEXT
100
AcDbLine
 10
5.457432242183696
 20
3.383695038649258
 30
0.0
 11
5.393535335884195
 21
3.383695038649258
 31
0.0
  0
LINE
  5
31F
330
2
100
AcDbEntity
  8
TEXT
100
AcDbLine
 10
5.393535335884195
 20
3.383695038649258
 30
0.0
 11
5.393535335884195
 21
3.278483060095831
 31
0.0
  0
LINE
  5
320
330
2
100
AcDbEntity
  8
TEXT
100
AcDbLine
 10
5.393535335884195
 20
3.278483060095831
 30
0.0
 11
5.349784564702294
 21
3.360733336091976
 31
0.0
  0
ARC
  5
321
330
2
100
AcDbEntity
  8
TEXT
100
AcDbCircle
 10
5.480736102307227
 20
3.29451246870983
 30
0.0
 40
0.0249058752826653
100
AcDbArc
 50
89.99971217465335
 51
179.9999999999985
  0
ARC
  5
322
330
2
100
AcDbEntity
  8
TEXT
100
AcDbCircle
 10
5.488625059246805
 20
3.352449311366993
 30
0.0
 40
0.0314112657011332
100
AcDbArc
 50
95.88484768694724
 51
173.2388340632136
  0
LINE
  5
323
330
2
100
AcDbEntity
  8
TEXT
100
AcDbLine
 10
5.457432242183696
 20
3.356147388788383
 30
0.0
 11
5.457432242183696
 21
3.383695038649258
 31
0.0
  0
TEXT
  5
324
330
2
100
AcDbEntity
  8
TEXT
100
AcDbText
 10
5.926307761605487
 20
3.210107814306243
 30
0.0
 40
0.0522247191011236
  1
Minneapolis, MN 55432-0008
 41
1.11444212721585
 72
     5
 11
7.255240345875151
 21
3.210107814306243
 31
0.0
100
AcDbText
  0
TEXT
  5
325
330
2
100
AcDbEntity
  8
TEXT
100
AcDbText
 10
5.926307761605487
 20
3.303366241272535
 30
0.0
 40
0.0522247191011236
  1
6536 Main St. N.E. * P.O. Box 32008
 41
0.8388932496075355
 72
     5
 11
7.255240345875151
 21
3.303366241272535
 31
0.0
100
AcDbText
  0
TEXT
  5
326
330
2
100
AcDbEntity
  8
TEXT
100
AcDbText
 10
5.926307761605487
 20
3.396624668238827
 30
0.0
 40
0.0522247191011236
  1
Stylmark  Incorporated
 41
1.221428571428571
 72
     5
 11
7.255240345875151
 21
3.396624668238827
 31
0.0
100
AcDbText
  0
TEXT
  5
327
330
2
100
AcDbEntity
  8
TEXT
100
AcDbText
 10
5.926307761605487
 20
3.116849387339951
 30
0.0
 40
0.0522247191011236
  1
Phone  1-800-328-2495
 41
1.272321428571429
 72
     5
 11
7.255240345875151
 21
3.116849387339951
 31
0.0
100
AcDbText
  0
LINE
  5
328
330
2
100
AcDbEntity
  8
TEXT
100
AcDbLine
 10
5.678751950142472
 20
3.273801795708284
 30
0.0
 11
5.743309066108177
 21
3.383695038649258
 31
0.0
  0
LINE
  5
329
330
2
100
AcDbEntity
  8
TEXT
100
AcDbLine
 10
5.743309066108177
 20
3.383695038649258
 30
0.0
 11
5.668317233378551
 21
3.383695038649258
 31
0.0
  0
LINE
  5
32A
330
2
100
AcDbEntity
  8
TEXT
100
AcDbLine
 10
5.697665801129876
 20
3.117222005660747
 30
0.0
 11
5.774244173506082
 21
3.117222005660747
 31
0.0
  0
LINE
  5
32B
330
2
100
AcDbEntity
  8
TEXT
100
AcDbLine
 10
5.774244173506082
 20
3.117222005660747
 30
0.0
 11
5.678751950142472
 21
3.273801795708284
 31
0.0
  0
LINE
  5
32C
330
2
100
AcDbEntity
  8
TEXT
100
AcDbLine
 10
5.621762267918412
 20
3.117222005660747
 30
0.0
 11
5.621762267918412
 21
3.248801574136927
 31
0.0
  0
LINE
  5
32D
330
2
100
AcDbEntity
  8
TEXT
100
AcDbLine
 10
5.621762267918412
 20
3.248801574136927
 30
0.0
 11
5.697665801129876
 21
3.117222005660747
 31
0.0
  0
LINE
  5
32E
330
2
100
AcDbEntity
  8
TEXT
100
AcDbLine
 10
5.557384083599786
 20
3.319418343992492
 30
0.0
 11
5.557384083599791
 21
3.117222005660747
 31
0.0
  0
LINE
  5
32F
330
2
100
AcDbEntity
  8
TEXT
100
AcDbLine
 10
5.557384083599791
 20
3.117222005660747
 30
0.0
 11
5.621762267918412
 21
3.117222005660747
 31
0.0
  0
LINE
  5
330
330
2
100
AcDbEntity
  8
TEXT
100
AcDbLine
 10
5.621219074822564
 20
3.449159244416859
 30
0.0
 11
5.552904196273291
 21
3.449159244416859
 31
0.0
  0
LINE
  5
331
330
2
100
AcDbEntity
  8
TEXT
100
AcDbLine
 10
5.552904196273291
 20
3.449159244416859
 30
0.0
 11
5.552904196273286
 21
3.383695038649258
 31
0.0
  0
LINE
  5
332
330
2
100
AcDbEntity
  8
TEXT
100
AcDbLine
 10
5.668317233378549
 20
3.383695038649258
 30
0.0
 11
5.621219074822564
 21
3.30782971223772
 31
0.0
  0
LINE
  5
333
330
2
100
AcDbEntity
  8
TEXT
100
AcDbLine
 10
5.621219074822564
 20
3.30782971223772
 30
0.0
 11
5.621219074822564
 21
3.449159244416859
 31
0.0
  0
ENDSEC
  0
SECTION
  2
OBJECTS
  0
DICTIONARY
  5
7
330
0
100
AcDbDictionary
  3
ACAD_GROUP
350
21
  3
ACAD_LAYOUT
350
B
  3
ACAD_MLINESTYLE
350
22
  3
ACAD_PLOTSETTINGS
350
23
  3
ACAD_PLOTSTYLENAME
350
6
  3
ACDBHEADERROUNDTRIPXREC
350
33D
  3
ACDBVARIABLEDICTIONARY
350
33A
  0
DICTIONARY
  5
206
330
2
100
AcDbDictionary
280
     1
  3
ACAD_LAYOUTSELFREF
360
35D
  0
DICTIONARY
  5
20A
330
C
100
AcDbDictionary
280
     1
  3
ACAD_LAYOUTSELFREF
360
35E
  0
DICTIONARY
  5
21
102
{ACAD_REACTORS
330
7
102
}
330
7
100
AcDbDictionary
  0
DICTIONARY
  5
B
102
{ACAD_REACTORS
330
7
102
}
330
7
100
AcDbDictionary
  0
DICTIONARY
  5
22
102
{ACAD_REACTORS
330
7
102
}
330
7
100
AcDbDictionary
  3
STANDARD
350
25
  0
DICTIONARY
  5
23
102
{ACAD_REACTORS
330
7
102
}
330
7
100
AcDbDictionary
  0
ACDBDICTIONARYWDFLT
  5
6
102
{ACAD_REACTORS
330
7
102
}
330
7
100
AcDbDictionary
281
     1
  3
Normal
350
5
100
AcDbDictionaryWithDefault
340
5
  0
DICTIONARY
  5
33D
102
{ACAD_REACTORS
330
7
102
}
330
7
100
AcDbDictionary
  3
CEPSNTYPE
350
347
  3
FINGERPRINTGUID
350
348
  3
HYPERLINKBASE
350
340
  3
INSUNITS
350
346
  3
LAYOUTDICT
350
342
  3
LWETCUNION
350
345
  3
PLOTSETDICT
350
343
  3
PLOTSTYLNAMDICT
350
344
  3
PSVPSCALE
350
34A
  3
PUCSBASE
350
34D
  3
PUCSORGBACK
350
353
  3
PUCSORGBOTTOM
350
34F
  3
PUCSORGFRONT
350
352
  3
PUCSORGLEFT
350
350
  3
PUCSORGRIGHT
350
351
  3
PUCSORGTOP
350
34E
  3
PUCSORTHOREF
350
34B
  3
PUCSORTHOVIEW
350
34C
  3
STYLESHEET
350
341
  3
TSTACKALIGN
350
33E
  3
TSTACKSIZE
350
33F
  3
UCSBASE
350
356
  3
UCSORGBACK
350
35C
  3
UCSORGBOTTOM
350
358
  3
UCSORGFRONT
350
35B
  3
UCSORGLEFT
350
359
  3
UCSORGRIGHT
350
35A
  3
UCSORGTOP
350
357
  3
UCSORTHOREF
350
354
  3
UCSORTHOVIEW
350
355
  3
VERSIONGUID
350
349
  0
DICTIONARY
  5
33A
102
{ACAD_REACTORS
330
7
102
}
330
7
100
AcDbDictionary
  3
DIMASSOC
350
33B
  0
XRECORD
  5
35D
102
{ACAD_REACTORS
330
206
102
}
330
206
100
AcDbXrecord
340
2
  0
XRECORD
  5
35E
102
{ACAD_REACTORS
330
20A
102
}
330
20A
100
AcDbXrecord
340
C
  0
MLINESTYLE
  5
25
102
{ACAD_REACTORS
330
22
102
}
330
22
100
AcDbMlineStyle
  2
STANDARD
 70
     0
  3

 62
   256
 51
90.0
 52
90.0
 71
     2
 49
0.5
 62
   256
  6
BYLAYER
 49
-0.5
 62
   256
  6
BYLAYER
  0
ACDBPLACEHOLDER
  5
5
102
{ACAD_REACTORS
330
6
102
}
330
6
100
AcDbPlaceHolder
280
     0
  0
XRECORD
  5
347
102
{ACAD_REACTORS
330
33D
102
}
330
33D
100
AcDbXrecord
 90
        0
  0
XRECORD
  5
348
102
{ACAD_REACTORS
330
33D
102
}
330
33D
100
AcDbXrecord
  1
{C7DB72A0-2C92-11D6-883E-0090279574E7}
  0
XRECORD
  5
340
102
{ACAD_REACTORS
330
33D
102
}
330
33D
100
AcDbXrecord
  1

  0
XRECORD
  5
346
102
{ACAD_REACTORS
330
33D
102
}
330
33D
100
AcDbXrecord
 90
        0
  0
XRECORD
  5
342
102
{ACAD_REACTORS
330
33D
102
}
330
33D
100
AcDbXrecord
340
B
  0
XRECORD
  5
345
102
{ACAD_REACTORS
330
33D
102
}
330
33D
100
AcDbXrecord
 90
    10781
  0
XRECORD
  5
343
102
{ACAD_REACTORS
330
33D
102
}
330
33D
100
AcDbXrecord
340
23
  0
XRECORD
  5
344
102
{ACAD_REACTORS
330
33D
102
}
330
33D
100
AcDbXrecord
340
6
  0
XRECORD
  5
34A
102
{ACAD_REACTORS
330
33D
102
}
330
33D
100
AcDbXrecord
 40
0.0
  0
XRECORD
  5
34D
102
{ACAD_REACTORS
330
33D
102
}
330
33D
100
AcDbXrecord
340
0
  0
XRECORD
  5
353
102
{ACAD_REACTORS
330
33D
102
}
330
33D
100
AcDbXrecord
 10
0.0
 20
0.0
 30
0.0
  0
XRECORD
  5
34F
102
{ACAD_REACTORS
330
33D
102
}
330
33D
100
AcDbXrecord
 10
0.0
 20
0.0
 30
0.0
  0
XRECORD
  5
352
102
{ACAD_REACTORS
330
33D
102
}
330
33D
100
AcDbXrecord
 10
0.0
 20
0.0
 30
0.0
  0
XRECORD
  5
350
102
{ACAD_REACTORS
330
33D
102
}
330
33D
100
AcDbXrecord
 10
0.0
 20
0.0
 30
0.0
  0
XRECORD
  5
351
102
{ACAD_REACTORS
330
33D
102
}
330
33D
100
AcDbXrecord
 10
0.0
 20
0.0
 30
0.0
  0
XRECORD
  5
34E
102
{ACAD_REACTORS
330
33D
102
}
330
33D
100
AcDbXrecord
 10
0.0
 20
0.0
 30
0.0
  0
XRECORD
  5
34B
102
{ACAD_REACTORS
330
33D
102
}
330
33D
100
AcDbXrecord
340
0
  0
XRECORD
  5
34C
102
{ACAD_REACTORS
330
33D
102
}
330
33D
100
AcDbXrecord
 70
     0
  0
XRECORD
  5
341
102
{ACAD_REACTORS
330
33D
102
}
330
33D
100
AcDbXrecord
  1
Default R14 pen assignments.ctb
  0
XRECORD
  5
33E
102
{ACAD_REACTORS
330
33D
102
}
330
33D
100
AcDbXrecord
 90
        1
  0
XRECORD
  5
33F
102
{ACAD_REACTORS
330
33D
102
}
330
33D
100
AcDbXrecord
 90
       70
  0
XRECORD
  5
356
102
{ACAD_REACTORS
330
33D
102
}
330
33D
100
AcDbXrecord
340
0
  0
XRECORD
  5
35C
102
{ACAD_REACTORS
330
33D
102
}
330
33D
100
AcDbXrecord
 10
0.0
 20
0.0
 30
0.0
  0
XRECORD
  5
358
102
{ACAD_REACTORS
330
33D
102
}
330
33D
100
AcDbXrecord
 10
0.0
 20
0.0
 30
0.0
  0
XRECORD
  5
35B
102
{ACAD_REACTORS
330
33D
102
}
330
33D
100
AcDbXrecord
 10
0.0
 20
0.0
 30
0.0
  0
XRECORD
  5
359
102
{ACAD_REACTORS
330
33D
102
}
330
33D
100
AcDbXrecord
 10
0.0
 20
0.0
 30
0.0
  0
XRECORD
  5
35A
102
{ACAD_REACTORS
330
33D
102
}
330
33D
100
AcDbXrecord
 10
0.0
 20
0.0
 30
0.0
  0
XRECORD
  5
357
102
{ACAD_REACTORS
330
33D
102
}
330
33D
100
AcDbXrecord
 10
0.0
 20
0.0
 30
0.0
  0
XRECORD
  5
354
102
{ACAD_REACTORS
330
33D
102
}
330
33D
100
AcDbXrecord
340
0
  0
XRECORD
  5
355
102
{ACAD_REACTORS
330
33D
102
}
330
33D
100
AcDbXrecord
 70
     0
  0
XRECORD
  5
349
102
{ACAD_REACTORS
330
33D
102
}
330
33D
100
AcDbXrecord
  1
{2F4625E2-8DB9-11D6-88E6-0090279574E7}
  0
DICTIONARYVAR
  5
33B
102
{ACAD_REACTORS
330
33A
102
}
330
33A
100
DictionaryVariables
280
     0
  1
1
  0
ENDSEC
  0
EOF
