  0
SECTION
  2
HEADER
  9
$ACADVER
  1
AC1014
  9
$ACADMAINTVER
 70
     9
  9
$DWGCODEPAGE
  3
ANSI_1252
  9
$INSBASE
 10
0.0
 20
0.0
 30
0.0
  9
$EXTMIN
 10
1.816064781397204
 20
4.38533509925017
 30
0.0
  9
$EXTMAX
 10
5.30128410314434
 20
6.154246068470413
 30
0.0
  9
$LIMMIN
 10
0.0
 20
0.0
  9
$LIMMAX
 10
12.0
 20
9.0
  9
$ORTHOMODE
 70
     0
  9
$REGENMODE
 70
     1
  9
$FILLMODE
 70
     1
  9
$QTEXTMODE
 70
     0
  9
$MIRRTEXT
 70
     0
  9
$DRAGMODE
 70
     2
  9
$LTSCALE
 40
1.0
  9
$OSMODE
 70
    39
  9
$ATTMODE
 70
     1
  9
$TEXTSIZE
 40
0.125
  9
$TRACEWID
 40
0.05
  9
$TEXTSTYLE
  7
ROMANS
  9
$CLAYER
  8
DIM
  9
$CELTYPE
  6
BYLAYER
  9
$CECOLOR
 62
   256
  9
$CELTSCALE
 40
1.0
  9
$DELOBJ
 70
     1
  9
$DISPSILH
 70
     1
  9
$DIMSCALE
 40
1.0
  9
$DIMASZ
 40
0.125
  9
$DIMEXO
 40
0.125
  9
$DIMDLI
 40
0.38
  9
$DIMRND
 40
0.0
  9
$DIMDLE
 40
0.0
  9
$DIMEXE
 40
0.125
  9
$DIMTP
 40
0.0
  9
$DIMTM
 40
0.0
  9
$DIMTXT
 40
0.125
  9
$DIMCEN
 40
0.0
  9
$DIMTSZ
 40
0.0
  9
$DIMTOL
 70
     0
  9
$DIMLIM
 70
     0
  9
$DIMTIH
 70
     1
  9
$DIMTOH
 70
     1
  9
$DIMSE1
 70
     0
  9
$DIMSE2
 70
     0
  9
$DIMTAD
 70
     0
  9
$DIMZIN
 70
     4
  9
$DIMBLK
  1

  9
$DIMASO
 70
     1
  9
$DIMSHO
 70
     1
  9
$DIMPOST
  1

  9
$DIMAPOST
  1

  9
$DIMALT
 70
     0
  9
$DIMALTD
 70
     2
  9
$DIMALTF
 40
25.4
  9
$DIMLFAC
 40
1.0
  9
$DIMTOFL
 70
     0
  9
$DIMTVP
 40
0.0
  9
$DIMTIX
 70
     0
  9
$DIMSOXD
 70
     0
  9
$DIMSAH
 70
     0
  9
$DIMBLK1
  1

  9
$DIMBLK2
  1

  9
$DIMSTYLE
  2
STANDARD
  9
$DIMCLRD
 70
     0
  9
$DIMCLRE
 70
     0
  9
$DIMCLRT
 70
   256
  9
$DIMTFAC
 40
1.0
  9
$DIMGAP
 40
0.09
  9
$DIMJUST
 70
     0
  9
$DIMSD1
 70
     0
  9
$DIMSD2
 70
     0
  9
$DIMTOLJ
 70
     1
  9
$DIMTZIN
 70
     4
  9
$DIMALTZ
 70
     0
  9
$DIMALTTZ
 70
     0
  9
$DIMFIT
 70
     3
  9
$DIMUPT
 70
     1
  9
$DIMUNIT
 70
     2
  9
$DIMDEC
 70
     3
  9
$DIMTDEC
 70
     0
  9
$DIMALTU
 70
     2
  9
$DIMALTTD
 70
     2
  9
$DIMTXSTY
  7
ROMANS
  9
$DIMAUNIT
 70
     0
  9
$LUNITS
 70
     2
  9
$LUPREC
 70
     4
  9
$SKETCHINC
 40
0.1
  9
$FILLETRAD
 40
0.0
  9
$AUNITS
 70
     0
  9
$AUPREC
 70
     0
  9
$MENU
  1
.
  9
$ELEVATION
 40
0.0
  9
$PELEVATION
 40
0.0
  9
$THICKNESS
 40
0.0
  9
$LIMCHECK
 70
     0
  9
$BLIPMODE
 70
     0
  9
$CHAMFERA
 40
0.5
  9
$CHAMFERB
 40
0.5
  9
$CHAMFERC
 40
1.0
  9
$CHAMFERD
 40
0.0
  9
$SKPOLY
 70
     0
  9
$TDCREATE
 40
2452319.327882257
  9
$TDUPDATE
 40
2452458.321162592
  9
$TDINDWG
 40
0.0032359028
  9
$TDUSRTIMER
 40
0.0032359028
  9
$USRTIMER
 70
     1
  9
$ANGBASE
 50
0.0
  9
$ANGDIR
 70
     0
  9
$PDMODE
 70
     0
  9
$PDSIZE
 40
0.0
  9
$PLINEWID
 40
0.0
  9
$COORDS
 70
     2
  9
$SPLFRAME
 70
     0
  9
$SPLINETYPE
 70
     6
  9
$SPLINESEGS
 70
     8
  9
$ATTDIA
 70
     0
  9
$ATTREQ
 70
     1
  9
$HANDLING
 70
 22529
  9
$HANDSEED
  5
71A
  9
$SURFTAB1
 70
     6
  9
$SURFTAB2
 70
     6
  9
$SURFTYPE
 70
     6
  9
$SURFU
 70
     6
  9
$SURFV
 70
     6
  9
$UCSNAME
  2

  9
$UCSORG
 10
0.0
 20
0.0
 30
0.0
  9
$UCSXDIR
 10
1.0
 20
0.0
 30
0.0
  9
$UCSYDIR
 10
0.0
 20
1.0
 30
0.0
  9
$PUCSNAME
  2

  9
$PUCSORG
 10
0.0
 20
0.0
 30
0.0
  9
$PUCSXDIR
 10
1.0
 20
0.0
 30
0.0
  9
$PUCSYDIR
 10
0.0
 20
1.0
 30
0.0
  9
$USERI1
 70
     0
  9
$USERI2
 70
     0
  9
$USERI3
 70
     0
  9
$USERI4
 70
     0
  9
$USERI5
 70
     0
  9
$USERR1
 40
0.0
  9
$USERR2
 40
0.0
  9
$USERR3
 40
0.0
  9
$USERR4
 40
0.0
  9
$USERR5
 40
0.0
  9
$WORLDVIEW
 70
     1
  9
$SHADEDGE
 70
     3
  9
$SHADEDIF
 70
    70
  9
$TILEMODE
 70
     1
  9
$MAXACTVP
 70
    48
  9
$PINSBASE
 10
0.0
 20
0.0
 30
0.0
  9
$PLIMCHECK
 70
     0
  9
$PEXTMIN
 10
1.000000000000000E+20
 20
1.000000000000000E+20
 30
1.000000000000000E+20
  9
$PEXTMAX
 10
-1.000000000000000E+20
 20
-1.000000000000000E+20
 30
-1.000000000000000E+20
  9
$PLIMMIN
 10
0.0
 20
0.0
  9
$PLIMMAX
 10
12.0
 20
9.0
  9
$UNITMODE
 70
     0
  9
$VISRETAIN
 70
     1
  9
$PLINEGEN
 70
     1
  9
$PSLTSCALE
 70
     1
  9
$TREEDEPTH
 70
  3020
  9
$PICKSTYLE
 70
     1
  9
$CMLSTYLE
  2
STANDARD
  9
$CMLJUST
 70
     0
  9
$CMLSCALE
 40
1.0
  9
$PROXYGRAPHICS
 70
     1
  9
$MEASUREMENT
 70
     0
  0
ENDSEC
  0
SECTION
  2
CLASSES
  0
CLASS
  1
DICTIONARYVAR
  2
AcDbDictionaryVar
  3
AutoCAD 2000
 90
        0
280
     0
281
     0
  0
CLASS
  1
LWPOLYLINE
  2
AcDbPolyline
  3
AutoCAD 2000
 90
        0
280
     0
281
     1
  0
CLASS
  1
ACDBDICTIONARYWDFLT
  2
AcDbDictionaryWithDefault
  3
AutoCAD 2000
 90
        0
280
     0
281
     0
  0
CLASS
  1
ACDBPLACEHOLDER
  2
AcDbPlaceHolder
  3
AutoCAD 2000
 90
        0
280
     0
281
     0
  0
CLASS
  1
LAYOUT
  2
AcDbLayout
  3
AutoCAD 2000
 90
        0
280
     0
281
     0
  0
CLASS
  1
LONG_TRANSACTION
  2
AcDbLongTransaction
  3
AutoCAD 2000
 90
        0
280
     0
281
     0
  0
CLASS
  1
LWPOLYLINE
  2
AcDbPolyline
  3
AutoCAD 2000
 90
        0
280
     0
281
     1
  0
CLASS
  1
HATCH
  2
AcDbHatch
  3
AutoCAD 2000
 90
        0
280
     0
281
     1
  0
CLASS
  1
XRECORD
  2
AcDbXrecord
  3
AutoCAD 2000
 90
        0
280
     0
281
     0
  0
ENDSEC
  0
SECTION
  2
TABLES
  0
TABLE
  2
VPORT
  5
8
330
0
100
AcDbSymbolTable
 70
     2
  0
VPORT
  5
6F5
330
8
100
AcDbSymbolTableRecord
100
AcDbViewportTableRecord
  2
*ACTIVE
 70
     0
 10
0.0
 20
0.0
 11
1.0
 21
1.0
 12
6.480274077664671
 22
5.269578271517039
 13
0.0
 23
0.0
 14
0.125
 24
0.125
 15
0.5
 25
0.5
 16
0.0
 26
0.0
 36
1.0
 17
0.0
 27
0.0
 37
0.0
 40
2.163375689722906
 41
4.320930232558139
 42
50.0
 43
0.0
 44
0.0
 50
0.0
 51
0.0
 71
     0
 72
  2000
 73
     1
 74
     1
 75
     0
 76
     0
 77
     0
 78
     1
  0
ENDTAB
  0
TABLE
  2
LTYPE
  5
5
330
0
100
AcDbSymbolTable
 70
     1
  0
LTYPE
  5
12
330
5
100
AcDbSymbolTableRecord
100
AcDbLinetypeTableRecord
  2
BYBLOCK
 70
     0
  3

 72
    65
 73
     0
 40
0.0
  0
LTYPE
  5
13
330
5
100
AcDbSymbolTableRecord
100
AcDbLinetypeTableRecord
  2
BYLAYER
 70
     0
  3

 72
    65
 73
     0
 40
0.0
  0
LTYPE
  5
14
330
5
100
AcDbSymbolTableRecord
100
AcDbLinetypeTableRecord
  2
CONTINUOUS
 70
     0
  3
Solid line
 72
    65
 73
     0
 40
0.0
  0
ENDTAB
  0
TABLE
  2
LAYER
  5
2
330
0
100
AcDbSymbolTable
 70
     3
  0
LAYER
  5
E
330
2
100
AcDbSymbolTableRecord
100
AcDbLayerTableRecord
  2
0
 70
     0
 62
     7
  6
CONTINUOUS
  0
LAYER
  5
40
330
2
100
AcDbSymbolTableRecord
100
AcDbLayerTableRecord
  2
TEXT
 70
     0
 62
     3
  6
CONTINUOUS
  0
LAYER
  5
314
330
2
100
AcDbSymbolTableRecord
100
AcDbLayerTableRecord
  2
DIM
 70
     0
 62
     4
  6
CONTINUOUS
  0
ENDTAB
  0
TABLE
  2
STYLE
  5
3
330
0
100
AcDbSymbolTable
 70
     3
  0
STYLE
  5
F
330
3
100
AcDbSymbolTableRecord
100
AcDbTextStyleTableRecord
  2
STANDARD
 70
     0
 40
0.0
 41
1.0
 50
0.0
 71
     0
 42
0.2
  3
txt
  4

  0
STYLE
  5
20
330
3
100
AcDbSymbolTableRecord
100
AcDbTextStyleTableRecord
  2
ROMANS
 70
     0
 40
0.0
 41
1.0
 50
0.0
 71
     0
 42
0.125
  3
romans.shx
  4

  0
STYLE
  5
5E4
330
3
100
AcDbSymbolTableRecord
100
AcDbTextStyleTableRecord
  2
ITALICC
 70
     0
 40
0.0
 41
1.0
 50
0.0
 71
     0
 42
0.125
  3
italicc
  4

  0
ENDTAB
  0
TABLE
  2
VIEW
  5
6
330
0
100
AcDbSymbolTable
 70
     0
  0
ENDTAB
  0
TABLE
  2
UCS
  5
7
330
0
100
AcDbSymbolTable
 70
     0
  0
ENDTAB
  0
TABLE
  2
APPID
  5
9
330
0
100
AcDbSymbolTable
 70
     1
  0
APPID
  5
10
330
9
100
AcDbSymbolTableRecord
100
AcDbRegAppTableRecord
  2
ACAD
 70
     0
  0
ENDTAB
  0
TABLE
  2
DIMSTYLE
  5
A
330
0
100
AcDbSymbolTable
 70
     1
  0
DIMSTYLE
105
1D
330
A
100
AcDbSymbolTableRecord
100
AcDbDimStyleTableRecord
  2
STANDARD
 70
     0
  3

  4

  5

  6

  7

 40
1.0
 41
0.125
 42
0.125
 43
0.38
 44
0.125
 45
0.0
 46
0.0
 47
0.0
 48
0.0
140
0.125
141
-0.125
142
0.0
143
25.4
144
1.0
145
0.0
146
1.0
147
0.09
 71
     0
 72
     0
 73
     1
 74
     1
 75
     0
 76
     0
 77
     0
 78
     4
170
     0
171
     2
172
     0
173
     0
174
     0
175
     0
176
     0
177
     0
178
   256
270
     2
271
     3
272
     3
273
     2
274
     2
340
20
275
     0
280
     0
281
     0
282
     0
283
     1
284
     4
285
     0
286
     0
287
     3
288
     1
  0
ENDTAB
  0
TABLE
  2
BLOCK_RECORD
  5
1
330
0
100
AcDbSymbolTable
 70
     0
  0
BLOCK_RECORD
  5
18
102
{ACAD_XDICTIONARY
360
718
102
}
330
1
100
AcDbSymbolTableRecord
100
AcDbBlockTableRecord
  2
*MODEL_SPACE
  0
BLOCK_RECORD
  5
15
102
{ACAD_XDICTIONARY
360
716
102
}
330
1
100
AcDbSymbolTableRecord
100
AcDbBlockTableRecord
  2
*PAPER_SPACE
  0
ENDTAB
  0
ENDSEC
  0
SECTION
  2
BLOCKS
  0
BLOCK
  5
19
330
18
100
AcDbEntity
  8
0
100
AcDbBlockBegin
  2
*MODEL_SPACE
 70
     0
 10
0.0
 20
0.0
 30
0.0
  3
*MODEL_SPACE
  1

  0
ENDBLK
  5
1A
330
18
100
AcDbEntity
  8
0
100
AcDbBlockEnd
  0
BLOCK
  5
16
330
15
100
AcDbEntity
 67
     1
  8
0
100
AcDbBlockBegin
  2
*PAPER_SPACE
 70
     0
 10
0.0
 20
0.0
 30
0.0
  3
*PAPER_SPACE
  1

  0
ENDBLK
  5
17
330
15
100
AcDbEntity
 67
     1
  8
0
100
AcDbBlockEnd
  0
ENDSEC
  0
SECTION
  2
ENTITIES
  0
LWPOLYLINE
  5
46F
330
18
100
AcDbEntity
  8
0
100
AcDbPolyline
 90
        4
 70
     1
 43
0.0
 10
3.089390664113782
 20
5.154246068470413
 10
4.089390664113782
 20
5.154246068470413
 10
4.089390664113782
 20
6.154246068470413
 10
3.089390664113782
 20
6.154246068470413
  0
TEXT
  5
669
330
18
100
AcDbEntity
  8
TEXT
100
AcDbText
 10
2.806070170148156
 20
4.843353703332752
 30
0.0
 40
0.125
  1
PART #110648
  7
ITALICC
 72
     1
 11
3.559046360624347
 21
4.843353703332752
 31
0.0
100
AcDbText
  0
LINE
  5
66A
330
18
100
AcDbEntity
  8
TEXT
100
AcDbLine
 10
3.52677985957641
 20
4.599000017312918
 30
0.0
 11
3.603427840868968
 21
4.599000017312918
 31
0.0
  0
LINE
  5
66B
330
18
100
AcDbEntity
  8
TEXT
100
AcDbLine
 10
3.598947953542467
 20
4.663276711969683
 30
0.0
 11
3.531448235892951
 21
4.663276711969683
 31
0.0
  0
LWPOLYLINE
  5
66C
330
18
100
AcDbEntity
  8
TEXT
100
AcDbPolyline
 90
        5
 70
     0
 43
0.0001332181640625
 10
1.889667817041735
 20
4.54004991021187
 10
1.902989633447984
 20
4.54004991021187
 10
1.902989633447984
 20
4.57668490532906
 10
1.939624628565173
 20
4.57668490532906
 10
1.939624628565173
 20
4.590006721735307
  0
LWPOLYLINE
  5
66D
330
18
100
AcDbEntity
  8
TEXT
100
AcDbPolyline
 90
        3
 70
     0
 43
0.0006660908203125
 10
1.929633266260483
 20
4.636633079157186
 10
1.843041459619858
 20
4.636633079157186
 10
1.843041459619858
 20
4.550041272516559
  0
LWPOLYLINE
  5
66E
330
18
100
AcDbEntity
  8
TEXT
100
AcDbPolyline
 90
        3
 70
     0
 43
0.0006660908203125
 10
1.929633266260483
 20
4.663276711969687
 10
1.81639782680736
 20
4.663276711969687
 10
1.81639782680736
 20
4.550041272516559
  0
LWPOLYLINE
  5
66F
330
18
100
AcDbEntity
  8
TEXT
100
AcDbPolyline
 90
        5
 70
     0
 43
0.0001332181640625
 10
1.939624628565173
 20
4.47011037407906
 10
1.939624628565173
 20
4.48343219048531
 10
1.902989633447985
 20
4.48343219048531
 10
1.902989633447985
 20
4.520067185602496
 10
1.889667817041735
 20
4.520067185602496
  0
LWPOLYLINE
  5
670
330
18
100
AcDbEntity
  8
TEXT
100
AcDbPolyline
 90
        3
 70
     0
 43
0.0006660908203125
 10
1.843041459619858
 20
4.510075823297811
 10
1.843041459619858
 20
4.423484016657185
 10
1.929633266260483
 20
4.423484016657185
  0
LWPOLYLINE
  5
671
330
18
100
AcDbEntity
  8
TEXT
100
AcDbPolyline
 90
        3
 70
     0
 43
0.0006660908203125
 10
1.81639782680736
 20
4.510075823297811
 10
1.81639782680736
 20
4.396840383844684
 10
1.929633266260483
 20
4.396840383844684
  0
LWPOLYLINE
  5
672
330
18
100
AcDbEntity
  8
TEXT
100
AcDbPolyline
 90
        2
 70
     0
 43
0.0001332181640625
 10
1.843041459619858
 20
4.510075823297811
 10
1.902989633447985
 20
4.520067185602496
  0
LWPOLYLINE
  5
673
330
18
100
AcDbEntity
  8
TEXT
100
AcDbPolyline
 90
        2
 70
     0
 43
0.0001332181640625
 10
1.889667817041735
 20
4.520067185602496
 10
1.81639782680736
 20
4.510075823297811
  0
LWPOLYLINE
  5
674
330
18
100
AcDbEntity
  8
TEXT
100
AcDbPolyline
 90
        2
 70
     0
 43
0.0006660908203125
 10
1.843041459619858
 20
4.510075823297811
 10
1.81639782680736
 20
4.510075823297811
  0
LWPOLYLINE
  5
675
330
18
100
AcDbEntity
  8
TEXT
100
AcDbPolyline
 90
        2
 70
     0
 43
0.0001332181640625
 10
1.843041459619858
 20
4.423484016657185
 10
1.902989633447985
 20
4.48343219048531
  0
LWPOLYLINE
  5
676
330
18
100
AcDbEntity
  8
TEXT
100
AcDbPolyline
 90
        2
 70
     0
 43
0.0006660908203125
 10
1.843041459619858
 20
4.550041272516559
 10
1.81639782680736
 20
4.550041272516559
  0
LWPOLYLINE
  5
677
330
18
100
AcDbEntity
  8
TEXT
100
AcDbPolyline
 90
        2
 70
     0
 43
0.0001332181640625
 10
1.81639782680736
 20
4.550041272516559
 10
1.889667817041735
 20
4.54004991021187
  0
LWPOLYLINE
  5
678
330
18
100
AcDbEntity
  8
TEXT
100
AcDbPolyline
 90
        2
 70
     0
 43
0.0001332181640625
 10
1.843041459619858
 20
4.550041272516559
 10
1.902989633447984
 20
4.54004991021187
  0
LWPOLYLINE
  5
679
330
18
100
AcDbEntity
  8
TEXT
100
AcDbPolyline
 90
        2
 70
     0
 43
0.0001332181640625
 10
1.843041459619858
 20
4.636633079157186
 10
1.902989633447984
 20
4.57668490532906
  0
LWPOLYLINE
  5
67A
330
18
100
AcDbEntity
  8
TEXT
100
AcDbPolyline
 90
        5
 70
     0
 43
0.0001332181640625
 10
2.009564164697984
 20
4.520067185602496
 10
1.996242348291735
 20
4.520067185602496
 10
1.996242348291735
 20
4.48343219048531
 10
1.959607353174546
 20
4.48343219048531
 10
1.959607353174546
 20
4.47011037407906
  0
LWPOLYLINE
  5
67B
330
18
100
AcDbEntity
  8
TEXT
100
AcDbPolyline
 90
        2
 70
     0
 43
0.0001332181640625
 10
2.056190522119859
 20
4.510075823297811
 10
1.996242348291735
 20
4.520067185602496
  0
LWPOLYLINE
  5
67C
330
18
100
AcDbEntity
  8
TEXT
100
AcDbPolyline
 90
        2
 70
     0
 43
0.0001332181640625
 10
2.08283415493236
 20
4.510075823297811
 10
2.009564164697984
 20
4.520067185602496
  0
LWPOLYLINE
  5
67D
330
18
100
AcDbEntity
  8
TEXT
100
AcDbPolyline
 90
        3
 70
     0
 43
0.0006660908203125
 10
1.969598715479234
 20
4.396840383844684
 10
2.08283415493236
 20
4.396840383844684
 10
2.08283415493236
 20
4.510075823297811
  0
LWPOLYLINE
  5
67E
330
18
100
AcDbEntity
  8
TEXT
100
AcDbPolyline
 90
        3
 70
     0
 43
0.0006660908203125
 10
1.969598715479234
 20
4.423484016657185
 10
2.056190522119859
 20
4.423484016657185
 10
2.056190522119859
 20
4.510075823297811
  0
LWPOLYLINE
  5
67F
330
18
100
AcDbEntity
  8
TEXT
100
AcDbPolyline
 90
        2
 70
     0
 43
0.0001332181640625
 10
2.056190522119859
 20
4.423484016657185
 10
1.996242348291735
 20
4.48343219048531
  0
LWPOLYLINE
  5
680
330
18
100
AcDbEntity
  8
TEXT
100
AcDbPolyline
 90
        2
 70
     0
 43
0.0006660908203125
 10
1.969598715479234
 20
4.423484016657185
 10
1.969598715479234
 20
4.396840383844684
  0
LWPOLYLINE
  5
681
330
18
100
AcDbEntity
  8
TEXT
100
AcDbPolyline
 90
        2
 70
     0
 43
0.0001332181640625
 10
1.959607353174546
 20
4.47011037407906
 10
1.969598715479234
 20
4.396840383844684
  0
LWPOLYLINE
  5
682
330
18
100
AcDbEntity
  8
TEXT
100
AcDbPolyline
 90
        2
 70
     0
 43
0.0001332181640625
 10
1.969598715479234
 20
4.423484016657185
 10
1.959607353174546
 20
4.48343219048531
  0
LWPOLYLINE
  5
683
330
18
100
AcDbEntity
  8
TEXT
100
AcDbPolyline
 90
        2
 70
     0
 43
0.0001332181640625
 10
1.929633266260483
 20
4.396840383844684
 10
1.939624628565173
 20
4.47011037407906
  0
LWPOLYLINE
  5
684
330
18
100
AcDbEntity
  8
TEXT
100
AcDbPolyline
 90
        2
 70
     0
 43
0.0001332181640625
 10
1.929633266260483
 20
4.423484016657185
 10
1.939624628565173
 20
4.48343219048531
  0
LWPOLYLINE
  5
685
330
18
100
AcDbEntity
  8
TEXT
100
AcDbPolyline
 90
        2
 70
     0
 43
0.0006660908203125
 10
1.929633266260483
 20
4.423484016657185
 10
1.929633266260483
 20
4.396840383844684
  0
LWPOLYLINE
  5
686
330
18
100
AcDbEntity
  8
TEXT
100
AcDbPolyline
 90
        2
 70
     0
 43
0.0006660908203125
 10
2.056190522119859
 20
4.510075823297811
 10
2.08283415493236
 20
4.510075823297811
  0
LWPOLYLINE
  5
687
330
18
100
AcDbEntity
  8
TEXT
100
AcDbPolyline
 90
        2
 70
     0
 43
0.0001332181640625
 10
2.056190522119859
 20
4.636633079157186
 10
1.996242348291735
 20
4.57668490532906
  0
LWPOLYLINE
  5
688
330
18
100
AcDbEntity
  8
TEXT
100
AcDbPolyline
 90
        2
 70
     0
 43
0.0001332181640625
 10
2.056190522119859
 20
4.550041272516559
 10
1.996242348291735
 20
4.54004991021187
  0
LWPOLYLINE
  5
689
330
18
100
AcDbEntity
  8
TEXT
100
AcDbPolyline
 90
        2
 70
     0
 43
0.0001332181640625
 10
2.009564164697984
 20
4.54004991021187
 10
2.08283415493236
 20
4.550041272516559
  0
LWPOLYLINE
  5
68A
330
18
100
AcDbEntity
  8
TEXT
100
AcDbPolyline
 90
        3
 70
     0
 43
0.0006660908203125
 10
2.056190522119859
 20
4.550041272516559
 10
2.056190522119859
 20
4.636633079157186
 10
1.969598715479234
 20
4.636633079157186
  0
LWPOLYLINE
  5
68B
330
18
100
AcDbEntity
  8
TEXT
100
AcDbPolyline
 90
        3
 70
     0
 43
0.0006660908203125
 10
2.08283415493236
 20
4.550041272516559
 10
2.08283415493236
 20
4.663276711969687
 10
1.969598715479234
 20
4.663276711969687
  0
LWPOLYLINE
  5
68C
330
18
100
AcDbEntity
  8
TEXT
100
AcDbPolyline
 90
        2
 70
     0
 43
0.0001332181640625
 10
1.969598715479234
 20
4.663276711969687
 10
1.959607353174546
 20
4.590006721735307
  0
LWPOLYLINE
  5
68D
330
18
100
AcDbEntity
  8
TEXT
100
AcDbPolyline
 90
        2
 70
     0
 43
0.0001332181640625
 10
1.969598715479234
 20
4.636633079157186
 10
1.959607353174546
 20
4.57668490532906
  0
LWPOLYLINE
  5
68E
330
18
100
AcDbEntity
  8
TEXT
100
AcDbPolyline
 90
        2
 70
     0
 43
0.0006660908203125
 10
1.969598715479234
 20
4.636633079157186
 10
1.969598715479234
 20
4.663276711969687
  0
LWPOLYLINE
  5
68F
330
18
100
AcDbEntity
  8
TEXT
100
AcDbPolyline
 90
        5
 70
     0
 43
0.0001332181640625
 10
1.959607353174546
 20
4.590006721735307
 10
1.959607353174546
 20
4.57668490532906
 10
1.996242348291735
 20
4.57668490532906
 10
1.996242348291735
 20
4.54004991021187
 10
2.009564164697984
 20
4.54004991021187
  0
LWPOLYLINE
  5
690
330
18
100
AcDbEntity
  8
TEXT
100
AcDbPolyline
 90
        2
 70
     0
 43
0.0001332181640625
 10
1.929633266260483
 20
4.636633079157186
 10
1.939624628565173
 20
4.57668490532906
  0
LWPOLYLINE
  5
691
330
18
100
AcDbEntity
  8
TEXT
100
AcDbPolyline
 90
        2
 70
     0
 43
0.0001332181640625
 10
1.939624628565173
 20
4.590006721735307
 10
1.929633266260483
 20
4.663276711969687
  0
LWPOLYLINE
  5
692
330
18
100
AcDbEntity
  8
TEXT
100
AcDbPolyline
 90
        2
 70
     0
 43
0.0006660908203125
 10
1.929633266260483
 20
4.636633079157186
 10
1.929633266260483
 20
4.663276711969687
  0
LWPOLYLINE
  5
693
330
18
100
AcDbEntity
  8
TEXT
100
AcDbPolyline
 90
        2
 70
     0
 43
0.0006660908203125
 10
2.056190522119859
 20
4.550041272516559
 10
2.08283415493236
 20
4.550041272516559
  0
LWPOLYLINE
  5
694
330
18
100
AcDbEntity
  8
TEXT
100
AcDbPolyline
 90
        2
 70
     0
 43
0.0
 10
2.801614075680991
 20
4.448355021196101
 42
0.3318488747599744
 10
2.870733368246304
 20
4.396803678981172
 42
-6.868794160588311
  0
LINE
  5
695
330
18
100
AcDbEntity
  8
TEXT
100
AcDbLine
 10
2.869593794750108
 20
4.731288189708494
 30
0.0
 11
2.802785082183743
 21
4.731288189708494
 31
0.0
  0
LINE
  5
696
330
18
100
AcDbEntity
  8
TEXT
100
AcDbLine
 10
2.523442714564649
 20
4.663276711969683
 30
0.0
 11
2.347710961666138
 21
4.663276711969683
 31
0.0
  0
ARC
  5
697
330
18
100
AcDbEntity
  8
TEXT
100
AcDbCircle
 10
2.418548428024687
 20
4.479999487341729
 30
0.0
 40
0.0831958083605586
100
AcDbArc
 50
270.0
 51
90.0
  0
LINE
  5
698
330
18
100
AcDbEntity
  8
TEXT
100
AcDbLine
 10
2.352948291780386
 20
4.599000017312918
 30
0.0
 11
2.519853945809356
 21
4.599000017312918
 31
0.0
  0
LINE
  5
699
330
18
100
AcDbEntity
  8
TEXT
100
AcDbLine
 10
2.423488801930966
 20
4.465160685314612
 30
0.0
 11
2.265623502219632
 21
4.465160685314612
 31
0.0
  0
LINE
  5
69A
330
18
100
AcDbEntity
  8
TEXT
100
AcDbLine
 10
2.265623502219634
 20
4.396803678981172
 30
0.0
 11
2.418548428024687
 21
4.396803678981172
 31
0.0
  0
ARC
  5
69B
330
18
100
AcDbEntity
  8
TEXT
100
AcDbCircle
 10
2.347710961666138
 20
4.581189252523182
 30
0.0
 40
0.0820874594465043
100
AcDbArc
 50
90.0
 51
270.0
  0
LINE
  5
69C
330
18
100
AcDbEntity
  8
TEXT
100
AcDbLine
 10
2.265623502219632
 20
4.465160685314612
 30
0.0
 11
2.265623502219634
 21
4.396803678981172
 31
0.0
  0
LINE
  5
69D
330
18
100
AcDbEntity
  8
TEXT
100
AcDbLine
 10
2.347710961666138
 20
4.499101793076676
 30
0.0
 11
2.423488801930966
 21
4.499101793076676
 31
0.0
  0
ARC
  5
69E
330
18
100
AcDbEntity
  8
TEXT
100
AcDbCircle
 10
2.423488801930967
 20
4.482131239195646
 30
0.0
 40
0.0169705538810321
100
AcDbArc
 50
270.0
 51
90.0
  0
LINE
  5
69F
330
18
100
AcDbEntity
  8
TEXT
100
AcDbLine
 10
2.418548428024687
 20
4.56319529570229
 30
0.0
 11
2.352948291780386
 21
4.56319529570229
 31
0.0
  0
ARC
  5
6A0
330
18
100
AcDbEntity
  8
TEXT
100
AcDbCircle
 10
2.352948291780386
 20
4.581097656507606
 30
0.0
 40
0.017902360805315
100
AcDbArc
 50
90.0
 51
270.0
  0
LINE
  5
6A1
330
18
100
AcDbEntity
  8
TEXT
100
AcDbLine
 10
2.713914606584501
 20
4.562404715856563
 30
0.0
 11
2.655284285552563
 21
4.663276711969683
 31
0.0
  0
LINE
  5
6A2
330
18
100
AcDbEntity
  8
TEXT
100
AcDbLine
 10
2.573740553289462
 20
4.396803678981172
 30
0.0
 11
2.670380804364456
 21
4.397074318079455
 31
0.0
  0
LWPOLYLINE
  5
6A3
330
18
100
AcDbEntity
  8
TEXT
100
AcDbPolyline
 90
        6
 70
     1
 43
0.0
 10
2.616264356864612
 20
4.599000017312918
 10
2.585947762644404
 20
4.599000017312918
 10
2.585947762644404
 20
4.475889019258024
 42
0.407328721240804
 10
2.59749141380588
 20
4.464070104581637
 10
2.658113112850611
 20
4.464070104581637
 10
2.675578453257929
 20
4.496882333625117
  0
LINE
  5
6A4
330
18
100
AcDbEntity
  8
TEXT
100
AcDbLine
 10
2.519853945809356
 20
4.599000017312918
 30
0.0
 11
2.519853945809356
 21
4.456596070319222
 31
0.0
  0
ARC
  5
6A5
330
18
100
AcDbEntity
  8
TEXT
100
AcDbCircle
 10
2.579969963783109
 20
4.456596070319222
 30
0.0
 40
0.0601160179737537
100
AcDbArc
 50
180.0000000000003
 51
264.0521544866073
  0
LINE
  5
6A6
330
18
100
AcDbEntity
  8
TEXT
100
AcDbLine
 10
2.583485319408656
 20
4.697664629563822
 30
0.0
 11
2.523442714564649
 21
4.697664629563822
 31
0.0
  0
LINE
  5
6A7
330
18
100
AcDbEntity
  8
TEXT
100
AcDbLine
 10
2.523442714564649
 20
4.697664629563822
 30
0.0
 11
2.523442714564649
 21
4.663276711969683
 31
0.0
  0
LINE
  5
6A8
330
18
100
AcDbEntity
  8
TEXT
100
AcDbLine
 10
2.583485319408656
 20
4.663276711969683
 30
0.0
 11
2.583485319408656
 21
4.697664629563822
 31
0.0
  0
LINE
  5
6A9
330
18
100
AcDbEntity
  8
TEXT
100
AcDbLine
 10
2.655284285552563
 20
4.663276711969683
 30
0.0
 11
2.583485319408656
 21
4.663276711969683
 31
0.0
  0
LINE
  5
6AA
330
18
100
AcDbEntity
  8
TEXT
100
AcDbLine
 10
2.704314369587547
 20
4.416762185086185
 30
0.0
 11
2.801614075680991
 21
4.581112396021453
 31
0.0
  0
LINE
  5
6AB
330
18
100
AcDbEntity
  8
TEXT
100
AcDbLine
 10
2.801614075680991
 20
4.581112396021453
 30
0.0
 11
2.801614075680991
 21
4.448355021196097
 31
0.0
  0
ARC
  5
6AC
330
18
100
AcDbEntity
  8
TEXT
100
AcDbCircle
 10
2.670270809675333
 20
4.436351401254868
 30
0.0
 40
0.0392772371940762
100
AcDbArc
 50
270.1604552698595
 51
330.0831797321295
  0
LINE
  5
6AD
330
18
100
AcDbEntity
  8
TEXT
100
AcDbLine
 10
2.772663169390367
 20
4.663276711969683
 30
0.0
 11
2.713914606584501
 21
4.562404715856563
 31
0.0
  0
LINE
  5
6AE
330
18
100
AcDbEntity
  8
TEXT
100
AcDbLine
 10
2.802785082183743
 20
4.731288189708494
 30
0.0
 11
2.802785082183743
 21
4.663276711969683
 31
0.0
  0
LINE
  5
6AF
330
18
100
AcDbEntity
  8
TEXT
100
AcDbLine
 10
2.802785082183743
 20
4.663276711969683
 30
0.0
 11
2.772663169390367
 21
4.663276711969683
 31
0.0
  0
LWPOLYLINE
  5
6B0
330
18
100
AcDbEntity
  8
TEXT
100
AcDbPolyline
 90
        4
 70
     0
 43
0.0
 10
3.154871203803901
 20
4.591446228146808
 10
3.154871203803901
 20
4.396803678981172
 10
3.223349487091759
 20
4.396803678981172
 10
3.223349487091759
 20
4.440294623931611
 42
-1.714843617202739
  0
LWPOLYLINE
  5
6B1
330
18
100
AcDbEntity
  8
TEXT
100
AcDbPolyline
 90
        2
 70
     0
 43
0.0
 10
3.190005554348111
 20
4.663276711969687
 42
-0.3277054968067132
 10
3.225787245061276
 20
4.634954166200043
 42
6.667889725900311
  0
LWPOLYLINE
  5
6B2
330
18
100
AcDbEntity
  8
TEXT
100
AcDbPolyline
 90
        2
 70
     0
 43
0.0
 10
3.018571981768884
 20
4.599000017312918
 42
-0.4142135623731017
 10
3.026125770934998
 20
4.591446228146808
 42
-0.9999999999999998
  0
LINE
  5
6B3
330
18
100
AcDbEntity
  8
TEXT
100
AcDbLine
 10
3.035923704818904
 20
4.663276711969683
 30
0.0
 11
2.901905648887768
 21
4.663276711969683
 31
0.0
  0
LINE
  5
6B4
330
18
100
AcDbEntity
  8
TEXT
100
AcDbLine
 10
2.968736701945737
 20
4.396803678981172
 30
0.0
 11
2.968736701945737
 21
4.599000017312918
 31
0.0
  0
LINE
  5
6B5
330
18
100
AcDbEntity
  8
TEXT
100
AcDbLine
 10
2.901905648887768
 20
4.663276711969683
 30
0.0
 11
2.901905648887768
 21
4.462412505237275
 31
0.0
  0
LINE
  5
6B6
330
18
100
AcDbEntity
  8
TEXT
100
AcDbLine
 10
2.869593794750108
 20
4.479191517084172
 30
0.0
 11
2.869593794750108
 21
4.731288189708494
 31
0.0
  0
LINE
  5
6B7
330
18
100
AcDbEntity
  8
TEXT
100
AcDbLine
 10
2.870733368246303
 20
4.396803678981172
 30
0.0
 11
2.968736701945737
 21
4.396803678981172
 31
0.0
  0
LINE
  5
6B8
330
18
100
AcDbEntity
  8
TEXT
100
AcDbLine
 10
2.901905648887768
 20
4.462412505237275
 30
0.0
 11
2.884912012003167
 21
4.462412505237275
 31
0.0
  0
ARC
  5
6B9
330
18
100
AcDbEntity
  8
TEXT
100
AcDbCircle
 10
2.884912012003166
 20
4.477794311480701
 30
0.0
 40
0.0153818062434269
100
AcDbArc
 50
174.7883570302258
 51
270.0
  0
LINE
  5
6BA
330
18
100
AcDbEntity
  8
TEXT
100
AcDbLine
 10
2.968736701945737
 20
4.599000017312918
 30
0.0
 11
3.018571981768885
 21
4.599000017312918
 31
0.0
  0
LINE
  5
6BB
330
18
100
AcDbEntity
  8
TEXT
100
AcDbLine
 10
3.026125770934998
 20
4.591446228146808
 30
0.0
 11
3.026125770934998
 21
4.396803678981172
 31
0.0
  0
LINE
  5
6BC
330
18
100
AcDbEntity
  8
TEXT
100
AcDbLine
 10
3.093183817716838
 20
4.396803678981172
 30
0.0
 11
3.093183817716838
 21
4.599000017312918
 31
0.0
  0
LINE
  5
6BD
330
18
100
AcDbEntity
  8
TEXT
100
AcDbLine
 10
3.026125770934998
 20
4.396803678981172
 30
0.0
 11
3.093183817716838
 21
4.396803678981172
 31
0.0
  0
LWPOLYLINE
  5
6BE
330
18
100
AcDbEntity
  8
TEXT
100
AcDbPolyline
 90
        3
 70
     0
 43
0.0
 10
3.190005554348111
 20
4.663276711969687
 10
3.071705395532067
 20
4.663276711969687
 10
3.071705395532067
 20
4.636109215208791
 42
-1.960274751411753
  0
LINE
  5
6BF
330
18
100
AcDbEntity
  8
TEXT
100
AcDbLine
 10
3.093183817716838
 20
4.599000017312918
 30
0.0
 11
3.147317414637789
 21
4.599000017312918
 31
0.0
  0
LWPOLYLINE
  5
6C0
330
18
100
AcDbEntity
  8
TEXT
100
AcDbPolyline
 90
        2
 70
     0
 43
0.0
 10
3.035923704818905
 20
4.663276711969687
 42
-0.3328679258950098
 10
3.071705395532067
 20
4.636109215208791
 42
6.772930709997214
  0
LWPOLYLINE
  5
6C1
330
18
100
AcDbEntity
  8
TEXT
100
AcDbPolyline
 90
        2
 70
     0
 43
0.0
 10
3.147317414637788
 20
4.599000017312918
 42
-0.4142135623731017
 10
3.154871203803901
 20
4.591446228146808
 42
-0.9999999999999998
  0
ARC
  5
6C2
330
18
100
AcDbEntity
  8
TEXT
100
AcDbCircle
 10
3.358592214501268
 20
4.621693144848781
 30
0.0
 40
0.0416329381542859
100
AcDbArc
 50
26.56974201007528
 51
87.20939649401342
  0
LWPOLYLINE
  5
6C3
330
18
100
AcDbEntity
  8
TEXT
100
AcDbPolyline
 90
        2
 70
     0
 43
0.0
 10
3.266425419959395
 20
4.396803678981172
 10
3.400442837590771
 20
4.396803678981172
 42
0.9999999999999998
  0
LWPOLYLINE
  5
6C4
330
18
100
AcDbEntity
  8
TEXT
100
AcDbPolyline
 90
        4
 70
     1
 43
0.0
 10
3.380320372520879
 20
4.499767656965198
 10
3.29166005386102
 20
4.499767656965198
 42
0.9999999999999998
 10
3.29166005386102
 20
4.457369116461337
 10
3.380320372520879
 20
4.457369116461337
 42
1.0
  0
LWPOLYLINE
  5
6C5
330
18
100
AcDbEntity
  8
TEXT
100
AcDbPolyline
 90
        2
 70
     0
 43
0.0
 10
3.223349487091759
 20
4.440294623931611
 42
0.2901071551932823
 10
3.266425419959395
 20
4.396803678981172
 42
5.328517124445801
  0
LINE
  5
6C6
330
18
100
AcDbEntity
  8
TEXT
100
AcDbLine
 10
3.360619154278336
 20
4.663276711969683
 30
0.0
 11
3.225787245061277
 21
4.663276711969683
 31
0.0
  0
LINE
  5
6C7
330
18
100
AcDbEntity
  8
TEXT
100
AcDbLine
 10
3.285101341454596
 20
4.561725043850786
 30
0.0
 11
3.367389331237979
 21
4.561725043850786
 31
0.0
  0
LINE
  5
6C8
330
18
100
AcDbEntity
  8
TEXT
100
AcDbLine
 10
3.331588255933858
 20
4.599000017312918
 30
0.0
 11
3.224381982546568
 21
4.599000017312918
 31
0.0
  0
LINE
  5
6C9
330
18
100
AcDbEntity
  8
TEXT
100
AcDbLine
 10
3.225787245061277
 20
4.663276711969683
 30
0.0
 11
3.225787245061277
 21
4.634954166200039
 31
0.0
  0
ARC
  5
6CA
330
18
100
AcDbEntity
  8
TEXT
100
AcDbCircle
 10
3.285101341454595
 20
4.494039462706667
 30
0.0
 40
0.0676855811441166
100
AcDbArc
 50
90.0
 51
153.7768192527749
  0
LINE
  5
6CB
330
18
100
AcDbEntity
  8
TEXT
100
AcDbLine
 10
3.224381982546568
 20
4.599000017312918
 30
0.0
 11
3.224381982546568
 21
4.523947611238711
 31
0.0
  0
LINE
  5
6CC
330
18
100
AcDbEntity
  8
TEXT
100
AcDbLine
 10
3.367389331237979
 20
4.561725043850786
 30
0.0
 11
3.357124570824415
 21
4.58297558342348
 31
0.0
  0
ARC
  5
6CD
330
18
100
AcDbEntity
  8
TEXT
100
AcDbCircle
 10
3.331588255933857
 20
4.570640642312921
 30
0.0
 40
0.028359375
100
AcDbArc
 50
25.78218179591245
 51
90.0
  0
LINE
  5
6CE
330
18
100
AcDbEntity
  8
TEXT
100
AcDbLine
 10
3.501873984293751
 20
4.396803678981172
 30
0.0
 11
3.501873984293745
 21
4.574094184412641
 31
0.0
  0
LWPOLYLINE
  5
6CF
330
18
100
AcDbEntity
  8
TEXT
100
AcDbPolyline
 90
        2
 70
     0
 43
0.0
 10
3.443518770458416
 20
4.396803678981172
 10
3.50187398429375
 20
4.396803678981172
  0
LWPOLYLINE
  5
6D0
330
18
100
AcDbEntity
  8
TEXT
100
AcDbPolyline
 90
        2
 70
     0
 43
0.0
 10
3.443518770458416
 20
4.440294623931611
 42
-0.2901071551932486
 10
3.400442837590771
 20
4.396803678981172
 42
-5.328517124445184
  0
LWPOLYLINE
  5
6D1
330
18
100
AcDbEntity
  8
TEXT
100
AcDbPolyline
 90
        2
 70
     0
 43
0.0
 10
3.443518770458416
 20
4.440294623931611
 10
3.443518770458416
 20
4.396803678981172
  0
LINE
  5
6D2
330
18
100
AcDbEntity
  8
TEXT
100
AcDbLine
 10
3.503475999452878
 20
4.663276711969683
 30
0.0
 11
3.439579093153377
 21
4.663276711969683
 31
0.0
  0
LINE
  5
6D3
330
18
100
AcDbEntity
  8
TEXT
100
AcDbLine
 10
3.439579093153377
 20
4.663276711969683
 30
0.0
 11
3.439579093153377
 21
4.558064733416256
 31
0.0
  0
LINE
  5
6D4
330
18
100
AcDbEntity
  8
TEXT
100
AcDbLine
 10
3.439579093153377
 20
4.558064733416256
 30
0.0
 11
3.395828321971475
 21
4.640315009412401
 31
0.0
  0
ARC
  5
6D5
330
18
100
AcDbEntity
  8
TEXT
100
AcDbCircle
 10
3.526779859576409
 20
4.574094142030255
 30
0.0
 40
0.0249058752826653
100
AcDbArc
 50
89.99971217465335
 51
179.9999999999985
  0
ARC
  5
6D6
330
18
100
AcDbEntity
  8
TEXT
100
AcDbCircle
 10
3.534668816515987
 20
4.632030984687419
 30
0.0
 40
0.0314112657011332
100
AcDbArc
 50
95.88484768694724
 51
173.2388340632136
  0
LINE
  5
6D7
330
18
100
AcDbEntity
  8
TEXT
100
AcDbLine
 10
3.503475999452878
 20
4.635729062108809
 30
0.0
 11
3.503475999452878
 21
4.663276711969683
 31
0.0
  0
TEXT
  5
6D8
330
18
100
AcDbEntity
  8
TEXT
100
AcDbText
 10
3.972351518874669
 20
4.489689487626669
 30
0.0
 40
0.0522247191011236
  1
Minneapolis, MN 55432-0008
 41
1.11444212721585
 72
     5
 11
5.301284103144332
 21
4.489689487626669
 31
0.0
100
AcDbText
  0
TEXT
  5
6D9
330
18
100
AcDbEntity
  8
TEXT
100
AcDbText
 10
3.972351518874669
 20
4.582947914592961
 30
0.0
 40
0.0522247191011236
  1
6536 Main St. N.E. * P.O. Box 32008
 41
0.8388932496075355
 72
     5
 11
5.301284103144332
 21
4.582947914592961
 31
0.0
100
AcDbText
  0
TEXT
  5
6DA
330
18
100
AcDbEntity
  8
TEXT
100
AcDbText
 10
3.972351518874669
 20
4.676206341559253
 30
0.0
 40
0.0522247191011236
  1
Stylmark  Incorporated
 41
1.221428571428571
 72
     5
 11
5.301284103144332
 21
4.676206341559253
 31
0.0
100
AcDbText
  0
TEXT
  5
6DB
330
18
100
AcDbEntity
  8
TEXT
100
AcDbText
 10
3.972351518874669
 20
4.396431060660376
 30
0.0
 40
0.0522247191011236
  1
Phone  1-800-328-2495
 41
1.272321428571429
 72
     5
 11
5.301284103144332
 21
4.396431060660376
 31
0.0
100
AcDbText
  0
LINE
  5
6DC
330
18
100
AcDbEntity
  8
TEXT
100
AcDbLine
 10
3.724795707411653
 20
4.55338346902871
 30
0.0
 11
3.789352823377359
 21
4.663276711969683
 31
0.0
  0
LINE
  5
6DD
330
18
100
AcDbEntity
  8
TEXT
100
AcDbLine
 10
3.789352823377359
 20
4.663276711969683
 30
0.0
 11
3.714360990647732
 21
4.663276711969683
 31
0.0
  0
LINE
  5
6DE
330
18
100
AcDbEntity
  8
TEXT
100
AcDbLine
 10
3.743709558399058
 20
4.396803678981172
 30
0.0
 11
3.820287930775264
 21
4.396803678981172
 31
0.0
  0
LINE
  5
6DF
330
18
100
AcDbEntity
  8
TEXT
100
AcDbLine
 10
3.820287930775264
 20
4.396803678981172
 30
0.0
 11
3.724795707411653
 21
4.55338346902871
 31
0.0
  0
LINE
  5
6E0
330
18
100
AcDbEntity
  8
TEXT
100
AcDbLine
 10
3.667806025187593
 20
4.396803678981172
 30
0.0
 11
3.667806025187593
 21
4.528383247457353
 31
0.0
  0
LINE
  5
6E1
330
18
100
AcDbEntity
  8
TEXT
100
AcDbLine
 10
3.667806025187593
 20
4.528383247457353
 30
0.0
 11
3.743709558399058
 21
4.396803678981172
 31
0.0
  0
LINE
  5
6E2
330
18
100
AcDbEntity
  8
TEXT
100
AcDbLine
 10
3.603427840868968
 20
4.599000017312918
 30
0.0
 11
3.603427840868973
 21
4.396803678981172
 31
0.0
  0
LINE
  5
6E3
330
18
100
AcDbEntity
  8
TEXT
100
AcDbLine
 10
3.603427840868973
 20
4.396803678981172
 30
0.0
 11
3.667806025187593
 21
4.396803678981172
 31
0.0
  0
LINE
  5
6E4
330
18
100
AcDbEntity
  8
TEXT
100
AcDbLine
 10
3.667262832091746
 20
4.728740917737284
 30
0.0
 11
3.598947953542473
 21
4.728740917737284
 31
0.0
  0
LINE
  5
6E5
330
18
100
AcDbEntity
  8
TEXT
100
AcDbLine
 10
3.598947953542473
 20
4.728740917737284
 30
0.0
 11
3.598947953542467
 21
4.663276711969683
 31
0.0
  0
LINE
  5
6E6
330
18
100
AcDbEntity
  8
TEXT
100
AcDbLine
 10
3.714360990647731
 20
4.663276711969683
 30
0.0
 11
3.667262832091746
 21
4.587411385558145
 31
0.0
  0
LINE
  5
6E7
330
18
100
AcDbEntity
  8
TEXT
100
AcDbLine
 10
3.667262832091746
 20
4.587411385558145
 30
0.0
 11
3.667262832091746
 21
4.728740917737284
 31
0.0
  0
VIEWPORT
  5
210
330
15
100
AcDbEntity
 67
     1
  8
0
100
AcDbViewport
 10
7.289473628146176
 20
4.500000003551267
 30
0.0
 40
81.6094485139383
 41
50.37984005734097
 68
     1
 69
     1
1001
ACAD
1000
MVIEW
1002
{
1070
    16
1010
0.0
1020
0.0
1030
0.0
1010
0.0
1020
0.0
1030
1.0
1040
0.0
1040
50.37984005734097
1040
7.289473628146176
1040
4.500000003551267
1040
50.0
1040
0.0
1040
0.0
1070
     0
1070
  2000
1070
     1
1070
     1
1070
     0
1070
     0
1070
     0
1070
     1
1040
0.0
1040
0.0
1040
0.0
1040
0.125
1040
0.125
1040
0.5
1040
0.5
1070
     0
1002
{
1002
}
1002
}
  0
ENDSEC
  0
SECTION
  2
OBJECTS
  0
DICTIONARY
  5
C
330
0
100
AcDbDictionary
  3
ACAD_GROUP
350
D
  3
ACAD_LAYOUT
350
6EC
  3
ACAD_MLINESTYLE
350
1B
  3
ACAD_PLOTSETTINGS
350
6ED
  3
ACAD_PLOTSTYLENAME
350
6EA
  3
ACDBHEADERROUNDTRIPXREC
350
6F6
  3
ACDBVARIABLEDICTIONARY
350
3E
  0
DICTIONARY
  5
718
330
18
100
AcDbDictionary
280
     1
  3
ACAD_LAYOUTSELFREF
360
719
  0
DICTIONARY
  5
716
330
15
100
AcDbDictionary
280
     1
  3
ACAD_LAYOUTSELFREF
360
717
  0
DICTIONARY
  5
D
102
{ACAD_REACTORS
330
C
102
}
330
C
100
AcDbDictionary
  3
*A1
350
52
  3
*A2
350
20B
  3
*A3
350
2F8
  3
*A4
350
431
  3
*A5
350
558
  0
DICTIONARY
  5
6EC
102
{ACAD_REACTORS
330
C
102
}
330
C
100
AcDbDictionary
  0
DICTIONARY
  5
1B
102
{ACAD_REACTORS
330
C
102
}
330
C
100
AcDbDictionary
  3
STANDARD
350
1C
  0
DICTIONARY
  5
6ED
102
{ACAD_REACTORS
330
C
102
}
330
C
100
AcDbDictionary
  0
ACDBDICTIONARYWDFLT
  5
6EA
102
{ACAD_REACTORS
330
C
102
}
330
C
100
AcDbDictionary
281
     1
  3
Normal
350
6EB
100
AcDbDictionaryWithDefault
340
6EB
  0
DICTIONARY
  5
6F6
102
{ACAD_REACTORS
330
C
102
}
330
C
100
AcDbDictionary
  3
CEPSNTYPE
350
700
  3
FINGERPRINTGUID
350
701
  3
HYPERLINKBASE
350
6F9
  3
INSUNITS
350
6FF
  3
LAYOUTDICT
350
6FB
  3
LWETCUNION
350
6FE
  3
PLOTSETDICT
350
6FC
  3
PLOTSTYLNAMDICT
350
6FD
  3
PSVPSCALE
350
703
  3
PUCSBASE
350
706
  3
PUCSORGBACK
350
70C
  3
PUCSORGBOTTOM
350
708
  3
PUCSORGFRONT
350
70B
  3
PUCSORGLEFT
350
709
  3
PUCSORGRIGHT
350
70A
  3
PUCSORGTOP
350
707
  3
PUCSORTHOREF
350
704
  3
PUCSORTHOVIEW
350
705
  3
STYLESHEET
350
6FA
  3
TSTACKALIGN
350
6F7
  3
TSTACKSIZE
350
6F8
  3
UCSBASE
350
70F
  3
UCSORGBACK
350
715
  3
UCSORGBOTTOM
350
711
  3
UCSORGFRONT
350
714
  3
UCSORGLEFT
350
712
  3
UCSORGRIGHT
350
713
  3
UCSORGTOP
350
710
  3
UCSORTHOREF
350
70D
  3
UCSORTHOVIEW
350
70E
  3
VERSIONGUID
350
702
  0
DICTIONARY
  5
3E
102
{ACAD_REACTORS
330
C
102
}
330
C
100
AcDbDictionary
  3
DIMASSOC
350
6F4
  3
SORTENTS
350
3F
  0
XRECORD
  5
719
102
{ACAD_REACTORS
330
718
102
}
330
718
100
AcDbXrecord
340
18
  0
XRECORD
  5
717
102
{ACAD_REACTORS
330
716
102
}
330
716
100
AcDbXrecord
340
15
  0
GROUP
  5
52
102
{ACAD_REACTORS
330
D
102
}
330
D
100
AcDbGroup
300
BORDER FRAME 10-1-95
 70
     3
 71
     1
  0
GROUP
  5
20B
102
{ACAD_REACTORS
330
D
102
}
330
D
100
AcDbGroup
300

 70
     1
 71
     1
  0
GROUP
  5
2F8
102
{ACAD_REACTORS
330
D
102
}
330
D
100
AcDbGroup
300

 70
     1
 71
     1
  0
GROUP
  5
431
102
{ACAD_REACTORS
330
D
102
}
330
D
100
AcDbGroup
300

 70
     1
 71
     1
  0
GROUP
  5
558
102
{ACAD_REACTORS
330
D
102
}
330
D
100
AcDbGroup
300
BORDER FRAME 10-1-95
 70
     0
 71
     1
  0
MLINESTYLE
  5
1C
102
{ACAD_REACTORS
330
1B
102
}
330
1B
100
AcDbMlineStyle
  2
STANDARD
 70
     0
  3

 62
   256
 51
90.0
 52
90.0
 71
     2
 49
0.5
 62
   256
  6
BYLAYER
 49
-0.5
 62
   256
  6
BYLAYER
  0
ACDBPLACEHOLDER
  5
6EB
102
{ACAD_REACTORS
330
6EA
102
}
330
6EA
100
AcDbPlaceHolder
280
     0
  0
XRECORD
  5
700
102
{ACAD_REACTORS
330
6F6
102
}
330
6F6
100
AcDbXrecord
 90
        0
  0
XRECORD
  5
701
102
{ACAD_REACTORS
330
6F6
102
}
330
6F6
100
AcDbXrecord
  1
{295120C0-8DB9-11D6-88E6-0090279574E7}
  0
XRECORD
  5
6F9
102
{ACAD_REACTORS
330
6F6
102
}
330
6F6
100
AcDbXrecord
  1

  0
XRECORD
  5
6FF
102
{ACAD_REACTORS
330
6F6
102
}
330
6F6
100
AcDbXrecord
 90
        0
  0
XRECORD
  5
6FB
102
{ACAD_REACTORS
330
6F6
102
}
330
6F6
100
AcDbXrecord
340
6EC
  0
XRECORD
  5
6FE
102
{ACAD_REACTORS
330
6F6
102
}
330
6F6
100
AcDbXrecord
 90
    14877
  0
XRECORD
  5
6FC
102
{ACAD_REACTORS
330
6F6
102
}
330
6F6
100
AcDbXrecord
340
6ED
  0
XRECORD
  5
6FD
102
{ACAD_REACTORS
330
6F6
102
}
330
6F6
100
AcDbXrecord
340
6EA
  0
XRECORD
  5
703
102
{ACAD_REACTORS
330
6F6
102
}
330
6F6
100
AcDbXrecord
 40
0.0
  0
XRECORD
  5
706
102
{ACAD_REACTORS
330
6F6
102
}
330
6F6
100
AcDbXrecord
340
0
  0
XRECORD
  5
70C
102
{ACAD_REACTORS
330
6F6
102
}
330
6F6
100
AcDbXrecord
 10
0.0
 20
0.0
 30
0.0
  0
XRECORD
  5
708
102
{ACAD_REACTORS
330
6F6
102
}
330
6F6
100
AcDbXrecord
 10
0.0
 20
0.0
 30
0.0
  0
XRECORD
  5
70B
102
{ACAD_REACTORS
330
6F6
102
}
330
6F6
100
AcDbXrecord
 10
0.0
 20
0.0
 30
0.0
  0
XRECORD
  5
709
102
{ACAD_REACTORS
330
6F6
102
}
330
6F6
100
AcDbXrecord
 10
0.0
 20
0.0
 30
0.0
  0
XRECORD
  5
70A
102
{ACAD_REACTORS
330
6F6
102
}
330
6F6
100
AcDbXrecord
 10
0.0
 20
0.0
 30
0.0
  0
XRECORD
  5
707
102
{ACAD_REACTORS
330
6F6
102
}
330
6F6
100
AcDbXrecord
 10
0.0
 20
0.0
 30
0.0
  0
XRECORD
  5
704
102
{ACAD_REACTORS
330
6F6
102
}
330
6F6
100
AcDbXrecord
340
0
  0
XRECORD
  5
705
102
{ACAD_REACTORS
330
6F6
102
}
330
6F6
100
AcDbXrecord
 70
     0
  0
XRECORD
  5
6FA
102
{ACAD_REACTORS
330
6F6
102
}
330
6F6
100
AcDbXrecord
  1

  0
XRECORD
  5
6F7
102
{ACAD_REACTORS
330
6F6
102
}
330
6F6
100
AcDbXrecord
 90
        1
  0
XRECORD
  5
6F8
102
{ACAD_REACTORS
330
6F6
102
}
330
6F6
100
AcDbXrecord
 90
       70
  0
XRECORD
  5
70F
102
{ACAD_REACTORS
330
6F6
102
}
330
6F6
100
AcDbXrecord
340
0
  0
XRECORD
  5
715
102
{ACAD_REACTORS
330
6F6
102
}
330
6F6
100
AcDbXrecord
 10
0.0
 20
0.0
 30
0.0
  0
XRECORD
  5
711
102
{ACAD_REACTORS
330
6F6
102
}
330
6F6
100
AcDbXrecord
 10
0.0
 20
0.0
 30
0.0
  0
XRECORD
  5
714
102
{ACAD_REACTORS
330
6F6
102
}
330
6F6
100
AcDbXrecord
 10
0.0
 20
0.0
 30
0.0
  0
XRECORD
  5
712
102
{ACAD_REACTORS
330
6F6
102
}
330
6F6
100
AcDbXrecord
 10
0.0
 20
0.0
 30
0.0
  0
XRECORD
  5
713
102
{ACAD_REACTORS
330
6F6
102
}
330
6F6
100
AcDbXrecord
 10
0.0
 20
0.0
 30
0.0
  0
XRECORD
  5
710
102
{ACAD_REACTORS
330
6F6
102
}
330
6F6
100
AcDbXrecord
 10
0.0
 20
0.0
 30
0.0
  0
XRECORD
  5
70D
102
{ACAD_REACTORS
330
6F6
102
}
330
6F6
100
AcDbXrecord
340
0
  0
XRECORD
  5
70E
102
{ACAD_REACTORS
330
6F6
102
}
330
6F6
100
AcDbXrecord
 70
     0
  0
XRECORD
  5
702
102
{ACAD_REACTORS
330
6F6
102
}
330
6F6
100
AcDbXrecord
  1
{295120C2-8DB9-11D6-88E6-0090279574E7}
  0
DICTIONARYVAR
  5
6F4
102
{ACAD_REACTORS
330
3E
102
}
330
3E
100
DictionaryVariables
280
     0
  1
1
  0
DICTIONARYVAR
  5
3F
102
{ACAD_REACTORS
330
3E
102
}
330
3E
100
DictionaryVariables
280
     0
  1
97
  0
ENDSEC
  0
EOF
