  0
SECTION
  2
HEADER
  9
$ACADVER
  1
AC1014
  9
$ACADMAINTVER
 70
     9
  9
$DWGCODEPAGE
  3
ANSI_1252
  9
$INSBASE
 10
9.235120529388836
 20
0.0
 30
0.0
  9
$EXTMIN
 10
8.284871894724675
 20
1.64913566614289
 30
0.0
  9
$EXTMAX
 10
11.77009121647182
 20
2.795488792159054
 30
0.0
  9
$LIMMIN
 10
0.0
 20
0.0
  9
$LIMMAX
 10
12.0
 20
9.0
  9
$ORTHOMODE
 70
     1
  9
$REGENMODE
 70
     1
  9
$FILLMODE
 70
     1
  9
$QTEXTMODE
 70
     0
  9
$MIRRTEXT
 70
     0
  9
$DRAGMODE
 70
     2
  9
$LTSCALE
 40
1.0
  9
$OSMODE
 70
    39
  9
$ATTMODE
 70
     1
  9
$TEXTSIZE
 40
0.125
  9
$TRACEWID
 40
0.05
  9
$TEXTSTYLE
  7
ROMANS
  9
$CLAYER
  8
DIM
  9
$CELTYPE
  6
BYLAYER
  9
$CECOLOR
 62
   256
  9
$CELTSCALE
 40
1.0
  9
$DELOBJ
 70
     1
  9
$DISPSILH
 70
     1
  9
$DIMSCALE
 40
1.0
  9
$DIMASZ
 40
0.125
  9
$DIMEXO
 40
0.125
  9
$DIMDLI
 40
0.38
  9
$DIMRND
 40
0.0
  9
$DIMDLE
 40
0.0
  9
$DIMEXE
 40
0.125
  9
$DIMTP
 40
0.0
  9
$DIMTM
 40
0.0
  9
$DIMTXT
 40
0.125
  9
$DIMCEN
 40
-0.125
  9
$DIMTSZ
 40
0.0
  9
$DIMTOL
 70
     0
  9
$DIMLIM
 70
     0
  9
$DIMTIH
 70
     1
  9
$DIMTOH
 70
     1
  9
$DIMSE1
 70
     0
  9
$DIMSE2
 70
     0
  9
$DIMTAD
 70
     0
  9
$DIMZIN
 70
     4
  9
$DIMBLK
  1

  9
$DIMASO
 70
     1
  9
$DIMSHO
 70
     1
  9
$DIMPOST
  1

  9
$DIMAPOST
  1

  9
$DIMALT
 70
     0
  9
$DIMALTD
 70
     2
  9
$DIMALTF
 40
25.4
  9
$DIMLFAC
 40
0.25
  9
$DIMTOFL
 70
     0
  9
$DIMTVP
 40
0.0
  9
$DIMTIX
 70
     0
  9
$DIMSOXD
 70
     0
  9
$DIMSAH
 70
     0
  9
$DIMBLK1
  1

  9
$DIMBLK2
  1

  9
$DIMSTYLE
  2
STANDARD
  9
$DIMCLRD
 70
     0
  9
$DIMCLRE
 70
     0
  9
$DIMCLRT
 70
     0
  9
$DIMTFAC
 40
1.0
  9
$DIMGAP
 40
0.09
  9
$DIMJUST
 70
     0
  9
$DIMSD1
 70
     0
  9
$DIMSD2
 70
     0
  9
$DIMTOLJ
 70
     1
  9
$DIMTZIN
 70
     4
  9
$DIMALTZ
 70
     0
  9
$DIMALTTZ
 70
     0
  9
$DIMFIT
 70
     3
  9
$DIMUPT
 70
     0
  9
$DIMUNIT
 70
     2
  9
$DIMDEC
 70
     3
  9
$DIMTDEC
 70
     3
  9
$DIMALTU
 70
     2
  9
$DIMALTTD
 70
     2
  9
$DIMTXSTY
  7
ROMANS
  9
$DIMAUNIT
 70
     0
  9
$LUNITS
 70
     2
  9
$LUPREC
 70
     4
  9
$SKETCHINC
 40
0.1
  9
$FILLETRAD
 40
0.03
  9
$AUNITS
 70
     0
  9
$AUPREC
 70
     0
  9
$MENU
  1
.
  9
$ELEVATION
 40
0.0
  9
$PELEVATION
 40
0.0
  9
$THICKNESS
 40
0.0
  9
$LIMCHECK
 70
     0
  9
$BLIPMODE
 70
     0
  9
$CHAMFERA
 40
0.5
  9
$CHAMFERB
 40
0.5
  9
$CHAMFERC
 40
1.0
  9
$CHAMFERD
 40
0.0
  9
$SKPOLY
 70
     0
  9
$TDCREATE
 40
2451845.442496006
  9
$TDUPDATE
 40
2452458.320850220
  9
$TDINDWG
 40
0.1011053356
  9
$TDUSRTIMER
 40
0.1011053356
  9
$USRTIMER
 70
     1
  9
$ANGBASE
 50
0.0
  9
$ANGDIR
 70
     0
  9
$PDMODE
 70
     0
  9
$PDSIZE
 40
0.0
  9
$PLINEWID
 40
0.0
  9
$COORDS
 70
     2
  9
$SPLFRAME
 70
     0
  9
$SPLINETYPE
 70
     6
  9
$SPLINESEGS
 70
     8
  9
$ATTDIA
 70
     0
  9
$ATTREQ
 70
     1
  9
$HANDLING
 70
 22529
  9
$HANDSEED
  5
2AA
  9
$SURFTAB1
 70
     6
  9
$SURFTAB2
 70
     6
  9
$SURFTYPE
 70
     6
  9
$SURFU
 70
     6
  9
$SURFV
 70
     6
  9
$UCSNAME
  2

  9
$UCSORG
 10
0.0
 20
0.0
 30
0.0
  9
$UCSXDIR
 10
1.0
 20
0.0
 30
0.0
  9
$UCSYDIR
 10
0.0
 20
1.0
 30
0.0
  9
$PUCSNAME
  2

  9
$PUCSORG
 10
0.0
 20
0.0
 30
0.0
  9
$PUCSXDIR
 10
1.0
 20
0.0
 30
0.0
  9
$PUCSYDIR
 10
0.0
 20
1.0
 30
0.0
  9
$USERI1
 70
     0
  9
$USERI2
 70
     0
  9
$USERI3
 70
     0
  9
$USERI4
 70
     0
  9
$USERI5
 70
     0
  9
$USERR1
 40
0.0
  9
$USERR2
 40
0.0
  9
$USERR3
 40
0.0
  9
$USERR4
 40
0.0
  9
$USERR5
 40
0.0
  9
$WORLDVIEW
 70
     1
  9
$SHADEDGE
 70
     3
  9
$SHADEDIF
 70
    70
  9
$TILEMODE
 70
     1
  9
$MAXACTVP
 70
    48
  9
$PINSBASE
 10
0.0
 20
0.0
 30
0.0
  9
$PLIMCHECK
 70
     0
  9
$PEXTMIN
 10
1.000000000000000E+20
 20
1.000000000000000E+20
 30
1.000000000000000E+20
  9
$PEXTMAX
 10
-1.000000000000000E+20
 20
-1.000000000000000E+20
 30
-1.000000000000000E+20
  9
$PLIMMIN
 10
0.0
 20
0.0
  9
$PLIMMAX
 10
12.0
 20
9.0
  9
$UNITMODE
 70
     0
  9
$VISRETAIN
 70
     1
  9
$PLINEGEN
 70
     1
  9
$PSLTSCALE
 70
     1
  9
$TREEDEPTH
 70
  3020
  9
$PICKSTYLE
 70
     1
  9
$CMLSTYLE
  2
STANDARD
  9
$CMLJUST
 70
     0
  9
$CMLSCALE
 40
1.0
  9
$PROXYGRAPHICS
 70
     1
  9
$MEASUREMENT
 70
     0
  0
ENDSEC
  0
SECTION
  2
CLASSES
  0
CLASS
  1
LWPOLYLINE
  2
AcDbPolyline
  3
AutoCAD 2000
 90
        0
280
     0
281
     1
  0
CLASS
  1
ACDBDICTIONARYWDFLT
  2
AcDbDictionaryWithDefault
  3
AutoCAD 2000
 90
        0
280
     0
281
     0
  0
CLASS
  1
ACDBPLACEHOLDER
  2
AcDbPlaceHolder
  3
AutoCAD 2000
 90
        0
280
     0
281
     0
  0
CLASS
  1
LAYOUT
  2
AcDbLayout
  3
AutoCAD 2000
 90
        0
280
     0
281
     0
  0
CLASS
  1
DICTIONARYVAR
  2
AcDbDictionaryVar
  3
AutoCAD 2000
 90
        0
280
     0
281
     0
  0
CLASS
  1
LONG_TRANSACTION
  2
AcDbLongTransaction
  3
AutoCAD 2000
 90
        0
280
     0
281
     0
  0
CLASS
  1
LWPOLYLINE
  2
AcDbPolyline
  3
AutoCAD 2000
 90
        0
280
     0
281
     1
  0
CLASS
  1
HATCH
  2
AcDbHatch
  3
AutoCAD 2000
 90
        0
280
     0
281
     1
  0
CLASS
  1
XRECORD
  2
AcDbXrecord
  3
AutoCAD 2000
 90
        0
280
     0
281
     0
  0
ENDSEC
  0
SECTION
  2
TABLES
  0
TABLE
  2
VPORT
  5
12
330
0
100
AcDbSymbolTable
 70
     2
  0
VPORT
  5
285
330
12
100
AcDbSymbolTableRecord
100
AcDbViewportTableRecord
  2
*ACTIVE
 70
     0
 10
0.0
 20
0.0
 11
1.0
 21
1.0
 12
12.95053640919398
 22
2.222453023829093
 13
0.0
 23
0.0
 14
0.5
 24
0.5
 15
0.5
 25
0.5
 16
0.0
 26
0.0
 36
1.0
 17
0.0
 27
0.0
 37
0.0
 40
2.164366281979778
 41
4.320930232558139
 42
50.0
 43
0.0
 44
0.0
 50
0.0
 51
0.0
 71
     0
 72
  2000
 73
     1
 74
     1
 75
     0
 76
     0
 77
     0
 78
     0
  0
ENDTAB
  0
TABLE
  2
LTYPE
  5
D
330
0
100
AcDbSymbolTable
 70
     1
  0
LTYPE
  5
E
330
D
100
AcDbSymbolTableRecord
100
AcDbLinetypeTableRecord
  2
BYBLOCK
 70
     0
  3

 72
    65
 73
     0
 40
0.0
  0
LTYPE
  5
F
330
D
100
AcDbSymbolTableRecord
100
AcDbLinetypeTableRecord
  2
BYLAYER
 70
     0
  3

 72
    65
 73
     0
 40
0.0
  0
LTYPE
  5
5
330
D
100
AcDbSymbolTableRecord
100
AcDbLinetypeTableRecord
  2
CONTINUOUS
 70
     0
  3
Solid line
 72
    65
 73
     0
 40
0.0
  0
ENDTAB
  0
TABLE
  2
LAYER
  5
A
330
0
100
AcDbSymbolTable
 70
     3
  0
LAYER
  5
4
330
A
100
AcDbSymbolTableRecord
100
AcDbLayerTableRecord
  2
0
 70
     0
 62
     7
  6
CONTINUOUS
  0
LAYER
  5
22
330
A
100
AcDbSymbolTableRecord
100
AcDbLayerTableRecord
  2
TEXT
 70
     0
 62
     3
  6
CONTINUOUS
  0
LAYER
  5
1B
330
A
100
AcDbSymbolTableRecord
100
AcDbLayerTableRecord
  2
DIM
 70
     0
 62
     4
  6
CONTINUOUS
  0
ENDTAB
  0
TABLE
  2
STYLE
  5
B
330
0
100
AcDbSymbolTable
 70
     3
  0
STYLE
  5
C
330
B
100
AcDbSymbolTableRecord
100
AcDbTextStyleTableRecord
  2
STANDARD
 70
     0
 40
0.0
 41
1.0
 50
0.0
 71
     0
 42
0.2
  3
txt
  4

  0
STYLE
  5
1C
330
B
100
AcDbSymbolTableRecord
100
AcDbTextStyleTableRecord
  2
ROMANS
 70
     0
 40
0.0
 41
1.0
 50
0.0
 71
     0
 42
0.125
  3
romans.shx
  4

  0
STYLE
  5
173
330
B
100
AcDbSymbolTableRecord
100
AcDbTextStyleTableRecord
  2
ITALICC
 70
     0
 40
0.0
 41
1.0
 50
0.0
 71
     0
 42
0.125
  3
italicc
  4

  0
ENDTAB
  0
TABLE
  2
VIEW
  5
10
330
0
100
AcDbSymbolTable
 70
     0
  0
ENDTAB
  0
TABLE
  2
UCS
  5
11
330
0
100
AcDbSymbolTable
 70
     0
  0
ENDTAB
  0
TABLE
  2
APPID
  5
14
330
0
100
AcDbSymbolTable
 70
     1
  0
APPID
  5
15
330
14
100
AcDbSymbolTableRecord
100
AcDbRegAppTableRecord
  2
ACAD
 70
     0
  0
ENDTAB
  0
TABLE
  2
DIMSTYLE
  5
16
330
0
100
AcDbSymbolTable
 70
     1
  0
DIMSTYLE
105
1E
330
16
100
AcDbSymbolTableRecord
100
AcDbDimStyleTableRecord
  2
STANDARD
 70
     0
  3

  4

  5

  6

  7

 40
1.0
 41
0.125
 42
0.125
 43
0.38
 44
0.125
 45
0.0
 46
0.0
 47
0.0
 48
0.0
140
0.125
141
-0.125
142
0.0
143
25.4
144
0.25
145
0.0
146
1.0
147
0.09
 71
     0
 72
     0
 73
     1
 74
     1
 75
     0
 76
     0
 77
     0
 78
     4
170
     0
171
     2
172
     0
173
     0
174
     0
175
     0
176
     0
177
     0
178
     0
270
     2
271
     3
272
     3
273
     2
274
     2
340
1C
275
     0
280
     0
281
     0
282
     0
283
     1
284
     4
285
     0
286
     0
287
     3
288
     0
  0
ENDTAB
  0
TABLE
  2
BLOCK_RECORD
  5
1
330
0
100
AcDbSymbolTable
 70
     0
  0
BLOCK_RECORD
  5
2
102
{ACAD_XDICTIONARY
360
2A6
102
}
330
1
100
AcDbSymbolTableRecord
100
AcDbBlockTableRecord
  2
*MODEL_SPACE
  0
BLOCK_RECORD
  5
7
102
{ACAD_XDICTIONARY
360
2A8
102
}
330
1
100
AcDbSymbolTableRecord
100
AcDbBlockTableRecord
  2
*PAPER_SPACE
  0
ENDTAB
  0
ENDSEC
  0
SECTION
  2
BLOCKS
  0
BLOCK
  5
3
330
2
100
AcDbEntity
  8
0
100
AcDbBlockBegin
  2
*MODEL_SPACE
 70
     0
 10
0.0
 20
0.0
 30
0.0
  3
*MODEL_SPACE
  1

  0
ENDBLK
  5
6
330
2
100
AcDbEntity
  8
0
100
AcDbBlockEnd
  0
BLOCK
  5
8
330
7
100
AcDbEntity
 67
     1
  8
0
100
AcDbBlockBegin
  2
*PAPER_SPACE
 70
     0
 10
0.0
 20
0.0
 30
0.0
  3
*PAPER_SPACE
  1

  0
ENDBLK
  5
9
330
7
100
AcDbEntity
 67
     1
  8
0
100
AcDbBlockEnd
  0
ENDSEC
  0
SECTION
  2
ENTITIES
  0
LWPOLYLINE
  5
BC
330
2
100
AcDbEntity
  8
0
100
AcDbPolyline
 90
       18
 70
   129
 43
0.0
 10
10.27147930742532
 20
2.762988792159053
 10
10.27147930742532
 20
2.490488792159053
 42
0.4142135623730934
 10
10.30147930742532
 20
2.460488792159053
 10
10.33147930742533
 20
2.460488792159053
 42
0.4142135623730951
 10
10.36147930742532
 20
2.490488792159053
 10
10.36147930742532
 20
2.700488792159054
 42
-0.9999999999999998
 10
10.40147930742532
 20
2.700488792159054
 10
10.40147930742532
 20
2.425488792159054
 42
-0.4142135623730961
 10
10.37147930742532
 20
2.395488792159054
 10
9.871479307425328
 20
2.395488792159053
 42
-0.4142135623730943
 10
9.841479307425327
 20
2.425488792159053
 10
9.841479307425327
 20
2.762988792159053
 42
-0.9999999999999998
 10
9.906479307425328
 20
2.762988792159053
 10
9.906479307425327
 20
2.490488792159054
 42
0.4142135623730959
 10
9.936479307425326
 20
2.460488792159054
 10
10.17647930742532
 20
2.460488792159054
 42
0.4142135623730961
 10
10.20647930742532
 20
2.490488792159054
 10
10.20647930742532
 20
2.762988792159053
 42
-0.9999999999999998
  0
TEXT
  5
1F8
330
2
100
AcDbEntity
  8
TEXT
100
AcDbText
 10
9.271901092999437
 20
2.107154270225471
 30
0.0
 40
0.125
  1
PART #110645
  7
ITALICC
 72
     1
 11
10.02785347395181
 21
2.107154270225471
 31
0.0
100
AcDbText
  0
LINE
  5
1F9
330
2
100
AcDbEntity
  8
TEXT
100
AcDbLine
 10
9.995586972903883
 20
1.862800584205637
 30
0.0
 11
10.07223495419643
 21
1.862800584205637
 31
0.0
  0
LINE
  5
1FA
330
2
100
AcDbEntity
  8
TEXT
100
AcDbLine
 10
10.06775506686993
 20
1.927077278862403
 30
0.0
 11
10.00025534922042
 21
1.927077278862403
 31
0.0
  0
LWPOLYLINE
  5
1FB
330
2
100
AcDbEntity
  8
TEXT
100
AcDbPolyline
 90
        5
 70
     0
 43
0.0001332181640625
 10
8.358474930369206
 20
1.80385047710459
 10
8.371796746775455
 20
1.80385047710459
 10
8.371796746775455
 20
1.84048547222178
 10
8.408431741892645
 20
1.84048547222178
 10
8.408431741892645
 20
1.853807288628027
  0
LWPOLYLINE
  5
1FC
330
2
100
AcDbEntity
  8
TEXT
100
AcDbPolyline
 90
        3
 70
     0
 43
0.0006660908203125
 10
8.398440379587954
 20
1.900433646049905
 10
8.311848572947329
 20
1.900433646049905
 10
8.311848572947329
 20
1.813841839409279
  0
LWPOLYLINE
  5
1FD
330
2
100
AcDbEntity
  8
TEXT
100
AcDbPolyline
 90
        3
 70
     0
 43
0.0006660908203125
 10
8.398440379587954
 20
1.927077278862406
 10
8.285204940134832
 20
1.927077278862406
 10
8.285204940134832
 20
1.813841839409279
  0
LWPOLYLINE
  5
1FE
330
2
100
AcDbEntity
  8
TEXT
100
AcDbPolyline
 90
        5
 70
     0
 43
0.0001332181640625
 10
8.408431741892645
 20
1.733910940971779
 10
8.408431741892645
 20
1.747232757378029
 10
8.371796746775457
 20
1.747232757378029
 10
8.371796746775457
 20
1.783867752495216
 10
8.358474930369206
 20
1.783867752495216
  0
LWPOLYLINE
  5
1FF
330
2
100
AcDbEntity
  8
TEXT
100
AcDbPolyline
 90
        3
 70
     0
 43
0.0006660908203125
 10
8.311848572947329
 20
1.773876390190531
 10
8.311848572947329
 20
1.687284583549904
 10
8.398440379587954
 20
1.687284583549904
  0
LWPOLYLINE
  5
200
330
2
100
AcDbEntity
  8
TEXT
100
AcDbPolyline
 90
        3
 70
     0
 43
0.0006660908203125
 10
8.285204940134832
 20
1.773876390190531
 10
8.285204940134832
 20
1.660640950737403
 10
8.398440379587954
 20
1.660640950737403
  0
LWPOLYLINE
  5
201
330
2
100
AcDbEntity
  8
TEXT
100
AcDbPolyline
 90
        2
 70
     0
 43
0.0001332181640625
 10
8.311848572947329
 20
1.773876390190531
 10
8.371796746775457
 20
1.783867752495216
  0
LWPOLYLINE
  5
202
330
2
100
AcDbEntity
  8
TEXT
100
AcDbPolyline
 90
        2
 70
     0
 43
0.0001332181640625
 10
8.358474930369206
 20
1.783867752495216
 10
8.285204940134832
 20
1.773876390190531
  0
LWPOLYLINE
  5
203
330
2
100
AcDbEntity
  8
TEXT
100
AcDbPolyline
 90
        2
 70
     0
 43
0.0006660908203125
 10
8.311848572947329
 20
1.773876390190531
 10
8.285204940134832
 20
1.773876390190531
  0
LWPOLYLINE
  5
204
330
2
100
AcDbEntity
  8
TEXT
100
AcDbPolyline
 90
        2
 70
     0
 43
0.0001332181640625
 10
8.311848572947329
 20
1.687284583549904
 10
8.371796746775457
 20
1.747232757378029
  0
LWPOLYLINE
  5
205
330
2
100
AcDbEntity
  8
TEXT
100
AcDbPolyline
 90
        2
 70
     0
 43
0.0006660908203125
 10
8.311848572947329
 20
1.813841839409279
 10
8.285204940134832
 20
1.813841839409279
  0
LWPOLYLINE
  5
206
330
2
100
AcDbEntity
  8
TEXT
100
AcDbPolyline
 90
        2
 70
     0
 43
0.0001332181640625
 10
8.285204940134832
 20
1.813841839409279
 10
8.358474930369206
 20
1.80385047710459
  0
LWPOLYLINE
  5
207
330
2
100
AcDbEntity
  8
TEXT
100
AcDbPolyline
 90
        2
 70
     0
 43
0.0001332181640625
 10
8.311848572947329
 20
1.813841839409279
 10
8.371796746775455
 20
1.80385047710459
  0
LWPOLYLINE
  5
208
330
2
100
AcDbEntity
  8
TEXT
100
AcDbPolyline
 90
        2
 70
     0
 43
0.0001332181640625
 10
8.311848572947329
 20
1.900433646049905
 10
8.371796746775455
 20
1.84048547222178
  0
LWPOLYLINE
  5
209
330
2
100
AcDbEntity
  8
TEXT
100
AcDbPolyline
 90
        5
 70
     0
 43
0.0001332181640625
 10
8.478371278025456
 20
1.783867752495216
 10
8.465049461619207
 20
1.783867752495216
 10
8.465049461619207
 20
1.747232757378029
 10
8.428414466502017
 20
1.747232757378029
 10
8.428414466502017
 20
1.733910940971779
  0
LWPOLYLINE
  5
20A
330
2
100
AcDbEntity
  8
TEXT
100
AcDbPolyline
 90
        2
 70
     0
 43
0.0001332181640625
 10
8.524997635447331
 20
1.773876390190531
 10
8.465049461619207
 20
1.783867752495216
  0
LWPOLYLINE
  5
20B
330
2
100
AcDbEntity
  8
TEXT
100
AcDbPolyline
 90
        2
 70
     0
 43
0.0001332181640625
 10
8.551641268259832
 20
1.773876390190531
 10
8.478371278025456
 20
1.783867752495216
  0
LWPOLYLINE
  5
20C
330
2
100
AcDbEntity
  8
TEXT
100
AcDbPolyline
 90
        3
 70
     0
 43
0.0006660908203125
 10
8.438405828806706
 20
1.660640950737403
 10
8.551641268259832
 20
1.660640950737403
 10
8.551641268259832
 20
1.773876390190531
  0
LWPOLYLINE
  5
20D
330
2
100
AcDbEntity
  8
TEXT
100
AcDbPolyline
 90
        3
 70
     0
 43
0.0006660908203125
 10
8.438405828806706
 20
1.687284583549904
 10
8.524997635447331
 20
1.687284583549904
 10
8.524997635447331
 20
1.773876390190531
  0
LWPOLYLINE
  5
20E
330
2
100
AcDbEntity
  8
TEXT
100
AcDbPolyline
 90
        2
 70
     0
 43
0.0001332181640625
 10
8.524997635447331
 20
1.687284583549904
 10
8.465049461619207
 20
1.747232757378029
  0
LWPOLYLINE
  5
20F
330
2
100
AcDbEntity
  8
TEXT
100
AcDbPolyline
 90
        2
 70
     0
 43
0.0006660908203125
 10
8.438405828806706
 20
1.687284583549904
 10
8.438405828806706
 20
1.660640950737403
  0
LWPOLYLINE
  5
210
330
2
100
AcDbEntity
  8
TEXT
100
AcDbPolyline
 90
        2
 70
     0
 43
0.0001332181640625
 10
8.428414466502017
 20
1.733910940971779
 10
8.438405828806706
 20
1.660640950737403
  0
LWPOLYLINE
  5
211
330
2
100
AcDbEntity
  8
TEXT
100
AcDbPolyline
 90
        2
 70
     0
 43
0.0001332181640625
 10
8.438405828806706
 20
1.687284583549904
 10
8.428414466502017
 20
1.747232757378029
  0
LWPOLYLINE
  5
212
330
2
100
AcDbEntity
  8
TEXT
100
AcDbPolyline
 90
        2
 70
     0
 43
0.0001332181640625
 10
8.398440379587954
 20
1.660640950737403
 10
8.408431741892645
 20
1.733910940971779
  0
LWPOLYLINE
  5
213
330
2
100
AcDbEntity
  8
TEXT
100
AcDbPolyline
 90
        2
 70
     0
 43
0.0001332181640625
 10
8.398440379587954
 20
1.687284583549904
 10
8.408431741892645
 20
1.747232757378029
  0
LWPOLYLINE
  5
214
330
2
100
AcDbEntity
  8
TEXT
100
AcDbPolyline
 90
        2
 70
     0
 43
0.0006660908203125
 10
8.398440379587954
 20
1.687284583549904
 10
8.398440379587954
 20
1.660640950737403
  0
LWPOLYLINE
  5
215
330
2
100
AcDbEntity
  8
TEXT
100
AcDbPolyline
 90
        2
 70
     0
 43
0.0006660908203125
 10
8.524997635447331
 20
1.773876390190531
 10
8.551641268259832
 20
1.773876390190531
  0
LWPOLYLINE
  5
216
330
2
100
AcDbEntity
  8
TEXT
100
AcDbPolyline
 90
        2
 70
     0
 43
0.0001332181640625
 10
8.524997635447331
 20
1.900433646049905
 10
8.465049461619207
 20
1.84048547222178
  0
LWPOLYLINE
  5
217
330
2
100
AcDbEntity
  8
TEXT
100
AcDbPolyline
 90
        2
 70
     0
 43
0.0001332181640625
 10
8.524997635447331
 20
1.813841839409279
 10
8.465049461619207
 20
1.80385047710459
  0
LWPOLYLINE
  5
218
330
2
100
AcDbEntity
  8
TEXT
100
AcDbPolyline
 90
        2
 70
     0
 43
0.0001332181640625
 10
8.478371278025456
 20
1.80385047710459
 10
8.551641268259832
 20
1.813841839409279
  0
LWPOLYLINE
  5
219
330
2
100
AcDbEntity
  8
TEXT
100
AcDbPolyline
 90
        3
 70
     0
 43
0.0006660908203125
 10
8.524997635447331
 20
1.813841839409279
 10
8.524997635447331
 20
1.900433646049905
 10
8.438405828806706
 20
1.900433646049905
  0
LWPOLYLINE
  5
21A
330
2
100
AcDbEntity
  8
TEXT
100
AcDbPolyline
 90
        3
 70
     0
 43
0.0006660908203125
 10
8.551641268259832
 20
1.813841839409279
 10
8.551641268259832
 20
1.927077278862406
 10
8.438405828806706
 20
1.927077278862406
  0
LWPOLYLINE
  5
21B
330
2
100
AcDbEntity
  8
TEXT
100
AcDbPolyline
 90
        2
 70
     0
 43
0.0001332181640625
 10
8.438405828806706
 20
1.927077278862406
 10
8.428414466502017
 20
1.853807288628027
  0
LWPOLYLINE
  5
21C
330
2
100
AcDbEntity
  8
TEXT
100
AcDbPolyline
 90
        2
 70
     0
 43
0.0001332181640625
 10
8.438405828806706
 20
1.900433646049905
 10
8.428414466502017
 20
1.84048547222178
  0
LWPOLYLINE
  5
21D
330
2
100
AcDbEntity
  8
TEXT
100
AcDbPolyline
 90
        2
 70
     0
 43
0.0006660908203125
 10
8.438405828806706
 20
1.900433646049905
 10
8.438405828806706
 20
1.927077278862406
  0
LWPOLYLINE
  5
21E
330
2
100
AcDbEntity
  8
TEXT
100
AcDbPolyline
 90
        5
 70
     0
 43
0.0001332181640625
 10
8.428414466502017
 20
1.853807288628027
 10
8.428414466502017
 20
1.84048547222178
 10
8.465049461619207
 20
1.84048547222178
 10
8.465049461619207
 20
1.80385047710459
 10
8.478371278025456
 20
1.80385047710459
  0
LWPOLYLINE
  5
21F
330
2
100
AcDbEntity
  8
TEXT
100
AcDbPolyline
 90
        2
 70
     0
 43
0.0001332181640625
 10
8.398440379587954
 20
1.900433646049905
 10
8.408431741892645
 20
1.84048547222178
  0
LWPOLYLINE
  5
220
330
2
100
AcDbEntity
  8
TEXT
100
AcDbPolyline
 90
        2
 70
     0
 43
0.0001332181640625
 10
8.408431741892645
 20
1.853807288628027
 10
8.398440379587954
 20
1.927077278862406
  0
LWPOLYLINE
  5
221
330
2
100
AcDbEntity
  8
TEXT
100
AcDbPolyline
 90
        2
 70
     0
 43
0.0006660908203125
 10
8.398440379587954
 20
1.900433646049905
 10
8.398440379587954
 20
1.927077278862406
  0
LWPOLYLINE
  5
222
330
2
100
AcDbEntity
  8
TEXT
100
AcDbPolyline
 90
        2
 70
     0
 43
0.0006660908203125
 10
8.524997635447331
 20
1.813841839409279
 10
8.551641268259832
 20
1.813841839409279
  0
LWPOLYLINE
  5
223
330
2
100
AcDbEntity
  8
TEXT
100
AcDbPolyline
 90
        2
 70
     0
 43
0.0
 10
9.270421189008462
 20
1.71215558808882
 42
0.3318488747599744
 10
9.339540481573775
 20
1.660604245873892
 42
-6.868794160588311
  0
LINE
  5
224
330
2
100
AcDbEntity
  8
TEXT
100
AcDbLine
 10
9.338400908077581
 20
1.995088756601213
 30
0.0
 11
9.271592195511214
 21
1.995088756601213
 31
0.0
  0
LINE
  5
225
330
2
100
AcDbEntity
  8
TEXT
100
AcDbLine
 10
8.99224982789212
 20
1.927077278862403
 30
0.0
 11
8.816518074993609
 21
1.927077278862403
 31
0.0
  0
ARC
  5
226
330
2
100
AcDbEntity
  8
TEXT
100
AcDbCircle
 10
8.887355541352158
 20
1.743800054234449
 30
0.0
 40
0.0831958083605586
100
AcDbArc
 50
270.0
 51
90.0
  0
LINE
  5
227
330
2
100
AcDbEntity
  8
TEXT
100
AcDbLine
 10
8.821755405107857
 20
1.862800584205637
 30
0.0
 11
8.988661059136827
 21
1.862800584205637
 31
0.0
  0
LINE
  5
228
330
2
100
AcDbEntity
  8
TEXT
100
AcDbLine
 10
8.892295915258438
 20
1.728961252207331
 30
0.0
 11
8.734430615547104
 21
1.728961252207331
 31
0.0
  0
LINE
  5
229
330
2
100
AcDbEntity
  8
TEXT
100
AcDbLine
 10
8.734430615547106
 20
1.660604245873892
 30
0.0
 11
8.887355541352158
 21
1.660604245873892
 31
0.0
  0
ARC
  5
22A
330
2
100
AcDbEntity
  8
TEXT
100
AcDbCircle
 10
8.816518074993609
 20
1.844989819415901
 30
0.0
 40
0.0820874594465043
100
AcDbArc
 50
90.0
 51
270.0
  0
LINE
  5
22B
330
2
100
AcDbEntity
  8
TEXT
100
AcDbLine
 10
8.734430615547104
 20
1.728961252207331
 30
0.0
 11
8.734430615547106
 21
1.660604245873892
 31
0.0
  0
LINE
  5
22C
330
2
100
AcDbEntity
  8
TEXT
100
AcDbLine
 10
8.816518074993609
 20
1.762902359969396
 30
0.0
 11
8.892295915258438
 21
1.762902359969396
 31
0.0
  0
ARC
  5
22D
330
2
100
AcDbEntity
  8
TEXT
100
AcDbCircle
 10
8.892295915258438
 20
1.745931806088365
 30
0.0
 40
0.0169705538810321
100
AcDbArc
 50
270.0
 51
90.0
  0
LINE
  5
22E
330
2
100
AcDbEntity
  8
TEXT
100
AcDbLine
 10
8.887355541352158
 20
1.826995862595009
 30
0.0
 11
8.821755405107857
 21
1.826995862595009
 31
0.0
  0
ARC
  5
22F
330
2
100
AcDbEntity
  8
TEXT
100
AcDbCircle
 10
8.821755405107857
 20
1.844898223400325
 30
0.0
 40
0.017902360805315
100
AcDbArc
 50
90.0
 51
270.0
  0
LINE
  5
230
330
2
100
AcDbEntity
  8
TEXT
100
AcDbLine
 10
9.182721719911974
 20
1.826205282749282
 30
0.0
 11
9.124091398880036
 21
1.927077278862403
 31
0.0
  0
LINE
  5
231
330
2
100
AcDbEntity
  8
TEXT
100
AcDbLine
 10
9.042547666616933
 20
1.660604245873892
 30
0.0
 11
9.139187917691927
 21
1.660874884972174
 31
0.0
  0
LWPOLYLINE
  5
232
330
2
100
AcDbEntity
  8
TEXT
100
AcDbPolyline
 90
        6
 70
     1
 43
0.0
 10
9.085071470192083
 20
1.862800584205637
 10
9.054754875971875
 20
1.862800584205637
 10
9.054754875971875
 20
1.739689586150743
 42
0.407328721240804
 10
9.066298527133351
 20
1.727870671474357
 10
9.126920226178082
 20
1.727870671474357
 10
9.1443855665854
 20
1.760682900517836
  0
LINE
  5
233
330
2
100
AcDbEntity
  8
TEXT
100
AcDbLine
 10
8.988661059136827
 20
1.862800584205637
 30
0.0
 11
8.988661059136827
 21
1.720396637211941
 31
0.0
  0
ARC
  5
234
330
2
100
AcDbEntity
  8
TEXT
100
AcDbCircle
 10
9.04877707711058
 20
1.720396637211941
 30
0.0
 40
0.0601160179737537
100
AcDbArc
 50
180.0000000000003
 51
264.0521544866073
  0
LINE
  5
235
330
2
100
AcDbEntity
  8
TEXT
100
AcDbLine
 10
9.052292432736127
 20
1.961465196456541
 30
0.0
 11
8.99224982789212
 21
1.961465196456541
 31
0.0
  0
LINE
  5
236
330
2
100
AcDbEntity
  8
TEXT
100
AcDbLine
 10
8.99224982789212
 20
1.961465196456541
 30
0.0
 11
8.99224982789212
 21
1.927077278862403
 31
0.0
  0
LINE
  5
237
330
2
100
AcDbEntity
  8
TEXT
100
AcDbLine
 10
9.052292432736127
 20
1.927077278862403
 30
0.0
 11
9.052292432736127
 21
1.961465196456541
 31
0.0
  0
LINE
  5
238
330
2
100
AcDbEntity
  8
TEXT
100
AcDbLine
 10
9.124091398880036
 20
1.927077278862403
 30
0.0
 11
9.052292432736127
 21
1.927077278862403
 31
0.0
  0
LINE
  5
239
330
2
100
AcDbEntity
  8
TEXT
100
AcDbLine
 10
9.173121482915018
 20
1.680562751978905
 30
0.0
 11
9.270421189008462
 21
1.844912962914173
 31
0.0
  0
LINE
  5
23A
330
2
100
AcDbEntity
  8
TEXT
100
AcDbLine
 10
9.270421189008462
 20
1.844912962914173
 30
0.0
 11
9.270421189008462
 21
1.712155588088816
 31
0.0
  0
ARC
  5
23B
330
2
100
AcDbEntity
  8
TEXT
100
AcDbCircle
 10
9.139077923002805
 20
1.700151968147587
 30
0.0
 40
0.0392772371940762
100
AcDbArc
 50
270.1604552698595
 51
330.0831797321295
  0
LINE
  5
23C
330
2
100
AcDbEntity
  8
TEXT
100
AcDbLine
 10
9.241470282717838
 20
1.927077278862403
 30
0.0
 11
9.182721719911974
 21
1.826205282749282
 31
0.0
  0
LINE
  5
23D
330
2
100
AcDbEntity
  8
TEXT
100
AcDbLine
 10
9.271592195511214
 20
1.995088756601213
 30
0.0
 11
9.271592195511214
 21
1.927077278862403
 31
0.0
  0
LINE
  5
23E
330
2
100
AcDbEntity
  8
TEXT
100
AcDbLine
 10
9.271592195511214
 20
1.927077278862403
 30
0.0
 11
9.241470282717838
 21
1.927077278862403
 31
0.0
  0
LWPOLYLINE
  5
23F
330
2
100
AcDbEntity
  8
TEXT
100
AcDbPolyline
 90
        4
 70
     0
 43
0.0
 10
9.623678317131373
 20
1.855246795039527
 10
9.623678317131373
 20
1.660604245873892
 10
9.692156600419231
 20
1.660604245873892
 10
9.692156600419231
 20
1.70409519082433
 42
-1.714843617202739
  0
LWPOLYLINE
  5
240
330
2
100
AcDbEntity
  8
TEXT
100
AcDbPolyline
 90
        2
 70
     0
 43
0.0
 10
9.658812667675583
 20
1.927077278862406
 42
-0.3277054968067132
 10
9.694594358388748
 20
1.898754733092762
 42
6.667889725900311
  0
LWPOLYLINE
  5
241
330
2
100
AcDbEntity
  8
TEXT
100
AcDbPolyline
 90
        2
 70
     0
 43
0.0
 10
9.487379095096356
 20
1.862800584205637
 42
-0.4142135623731017
 10
9.494932884262469
 20
1.855246795039527
 42
-0.9999999999999998
  0
LINE
  5
242
330
2
100
AcDbEntity
  8
TEXT
100
AcDbLine
 10
9.504730818146377
 20
1.927077278862403
 30
0.0
 11
9.370712762215241
 21
1.927077278862403
 31
0.0
  0
LINE
  5
243
330
2
100
AcDbEntity
  8
TEXT
100
AcDbLine
 10
9.437543815273208
 20
1.660604245873892
 30
0.0
 11
9.437543815273208
 21
1.862800584205637
 31
0.0
  0
LINE
  5
244
330
2
100
AcDbEntity
  8
TEXT
100
AcDbLine
 10
9.370712762215241
 20
1.927077278862403
 30
0.0
 11
9.370712762215241
 21
1.726213072129994
 31
0.0
  0
LINE
  5
245
330
2
100
AcDbEntity
  8
TEXT
100
AcDbLine
 10
9.338400908077581
 20
1.742992083976891
 30
0.0
 11
9.338400908077581
 21
1.995088756601213
 31
0.0
  0
LINE
  5
246
330
2
100
AcDbEntity
  8
TEXT
100
AcDbLine
 10
9.339540481573774
 20
1.660604245873892
 30
0.0
 11
9.437543815273208
 21
1.660604245873892
 31
0.0
  0
LINE
  5
247
330
2
100
AcDbEntity
  8
TEXT
100
AcDbLine
 10
9.370712762215241
 20
1.726213072129994
 30
0.0
 11
9.353719125330638
 21
1.726213072129994
 31
0.0
  0
ARC
  5
248
330
2
100
AcDbEntity
  8
TEXT
100
AcDbCircle
 10
9.353719125330638
 20
1.74159487837342
 30
0.0
 40
0.0153818062434269
100
AcDbArc
 50
174.7883570302258
 51
270.0
  0
LINE
  5
249
330
2
100
AcDbEntity
  8
TEXT
100
AcDbLine
 10
9.437543815273208
 20
1.862800584205637
 30
0.0
 11
9.487379095096358
 21
1.862800584205637
 31
0.0
  0
LINE
  5
24A
330
2
100
AcDbEntity
  8
TEXT
100
AcDbLine
 10
9.494932884262471
 20
1.855246795039527
 30
0.0
 11
9.494932884262471
 21
1.660604245873892
 31
0.0
  0
LINE
  5
24B
330
2
100
AcDbEntity
  8
TEXT
100
AcDbLine
 10
9.561990931044309
 20
1.660604245873892
 30
0.0
 11
9.561990931044309
 21
1.862800584205637
 31
0.0
  0
LINE
  5
24C
330
2
100
AcDbEntity
  8
TEXT
100
AcDbLine
 10
9.494932884262471
 20
1.660604245873892
 30
0.0
 11
9.561990931044309
 21
1.660604245873892
 31
0.0
  0
LWPOLYLINE
  5
24D
330
2
100
AcDbEntity
  8
TEXT
100
AcDbPolyline
 90
        3
 70
     0
 43
0.0
 10
9.658812667675583
 20
1.927077278862406
 10
9.540512508859539
 20
1.927077278862406
 10
9.540512508859539
 20
1.89990978210151
 42
-1.960274751411753
  0
LINE
  5
24E
330
2
100
AcDbEntity
  8
TEXT
100
AcDbLine
 10
9.561990931044309
 20
1.862800584205637
 30
0.0
 11
9.616124527965261
 21
1.862800584205637
 31
0.0
  0
LWPOLYLINE
  5
24F
330
2
100
AcDbEntity
  8
TEXT
100
AcDbPolyline
 90
        2
 70
     0
 43
0.0
 10
9.504730818146377
 20
1.927077278862406
 42
-0.3328679258950098
 10
9.540512508859539
 20
1.89990978210151
 42
6.772930709997214
  0
LWPOLYLINE
  5
250
330
2
100
AcDbEntity
  8
TEXT
100
AcDbPolyline
 90
        2
 70
     0
 43
0.0
 10
9.61612452796526
 20
1.862800584205637
 42
-0.4142135623731017
 10
9.623678317131373
 20
1.855246795039527
 42
-0.9999999999999998
  0
ARC
  5
251
330
2
100
AcDbEntity
  8
TEXT
100
AcDbCircle
 10
9.827399327828739
 20
1.8854937117415
 30
0.0
 40
0.0416329381542859
100
AcDbArc
 50
26.56974201007528
 51
87.20939649401342
  0
LWPOLYLINE
  5
252
330
2
100
AcDbEntity
  8
TEXT
100
AcDbPolyline
 90
        2
 70
     0
 43
0.0
 10
9.735232533286866
 20
1.660604245873892
 10
9.869249950918243
 20
1.660604245873892
 42
0.9999999999999998
  0
LWPOLYLINE
  5
253
330
2
100
AcDbEntity
  8
TEXT
100
AcDbPolyline
 90
        4
 70
     1
 43
0.0
 10
9.849127485848351
 20
1.763568223857917
 10
9.760467167188492
 20
1.763568223857917
 42
0.9999999999999998
 10
9.760467167188492
 20
1.721169683354056
 10
9.849127485848351
 20
1.721169683354056
 42
1.0
  0
LWPOLYLINE
  5
254
330
2
100
AcDbEntity
  8
TEXT
100
AcDbPolyline
 90
        2
 70
     0
 43
0.0
 10
9.692156600419231
 20
1.70409519082433
 42
0.2901071551932823
 10
9.735232533286866
 20
1.660604245873892
 42
5.328517124445801
  0
LINE
  5
255
330
2
100
AcDbEntity
  8
TEXT
100
AcDbLine
 10
9.829426267605807
 20
1.927077278862403
 30
0.0
 11
9.694594358388748
 21
1.927077278862403
 31
0.0
  0
LINE
  5
256
330
2
100
AcDbEntity
  8
TEXT
100
AcDbLine
 10
9.753908454782067
 20
1.825525610743505
 30
0.0
 11
9.836196444565452
 21
1.825525610743505
 31
0.0
  0
LINE
  5
257
330
2
100
AcDbEntity
  8
TEXT
100
AcDbLine
 10
9.80039536926133
 20
1.862800584205637
 30
0.0
 11
9.693189095874039
 21
1.862800584205637
 31
0.0
  0
LINE
  5
258
330
2
100
AcDbEntity
  8
TEXT
100
AcDbLine
 10
9.694594358388748
 20
1.927077278862403
 30
0.0
 11
9.694594358388748
 21
1.898754733092759
 31
0.0
  0
ARC
  5
259
330
2
100
AcDbEntity
  8
TEXT
100
AcDbCircle
 10
9.753908454782067
 20
1.757840029599386
 30
0.0
 40
0.0676855811441166
100
AcDbArc
 50
90.0
 51
153.7768192527749
  0
LINE
  5
25A
330
2
100
AcDbEntity
  8
TEXT
100
AcDbLine
 10
9.693189095874039
 20
1.862800584205637
 30
0.0
 11
9.693189095874039
 21
1.787748178131431
 31
0.0
  0
LINE
  5
25B
330
2
100
AcDbEntity
  8
TEXT
100
AcDbLine
 10
9.836196444565452
 20
1.825525610743505
 30
0.0
 11
9.825931684151886
 21
1.846776150316199
 31
0.0
  0
ARC
  5
25C
330
2
100
AcDbEntity
  8
TEXT
100
AcDbCircle
 10
9.800395369261329
 20
1.83444120920564
 30
0.0
 40
0.028359375
100
AcDbArc
 50
25.78218179591245
 51
90.0
  0
LINE
  5
25D
330
2
100
AcDbEntity
  8
TEXT
100
AcDbLine
 10
9.970681097621223
 20
1.660604245873892
 30
0.0
 11
9.970681097621216
 21
1.83789475130536
 31
0.0
  0
LWPOLYLINE
  5
25E
330
2
100
AcDbEntity
  8
TEXT
100
AcDbPolyline
 90
        2
 70
     0
 43
0.0
 10
9.912325883785888
 20
1.660604245873892
 10
9.970681097621222
 20
1.660604245873892
  0
LWPOLYLINE
  5
25F
330
2
100
AcDbEntity
  8
TEXT
100
AcDbPolyline
 90
        2
 70
     0
 43
0.0
 10
9.912325883785888
 20
1.70409519082433
 42
-0.2901071551932486
 10
9.869249950918243
 20
1.660604245873892
 42
-5.328517124445184
  0
LWPOLYLINE
  5
260
330
2
100
AcDbEntity
  8
TEXT
100
AcDbPolyline
 90
        2
 70
     0
 43
0.0
 10
9.912325883785888
 20
1.70409519082433
 10
9.912325883785888
 20
1.660604245873892
  0
LINE
  5
261
330
2
100
AcDbEntity
  8
TEXT
100
AcDbLine
 10
9.972283112780349
 20
1.927077278862403
 30
0.0
 11
9.908386206480848
 21
1.927077278862403
 31
0.0
  0
LINE
  5
262
330
2
100
AcDbEntity
  8
TEXT
100
AcDbLine
 10
9.908386206480848
 20
1.927077278862403
 30
0.0
 11
9.908386206480848
 21
1.821865300308975
 31
0.0
  0
LINE
  5
263
330
2
100
AcDbEntity
  8
TEXT
100
AcDbLine
 10
9.908386206480848
 20
1.821865300308975
 30
0.0
 11
9.864635435298946
 21
1.90411557630512
 31
0.0
  0
ARC
  5
264
330
2
100
AcDbEntity
  8
TEXT
100
AcDbCircle
 10
9.995586972903881
 20
1.837894708922974
 30
0.0
 40
0.0249058752826653
100
AcDbArc
 50
89.99971217465335
 51
179.9999999999985
  0
ARC
  5
265
330
2
100
AcDbEntity
  8
TEXT
100
AcDbCircle
 10
10.00347592984345
 20
1.895831551580138
 30
0.0
 40
0.0314112657011332
100
AcDbArc
 50
95.88484768694724
 51
173.2388340632136
  0
LINE
  5
266
330
2
100
AcDbEntity
  8
TEXT
100
AcDbLine
 10
9.972283112780349
 20
1.899529629001528
 30
0.0
 11
9.972283112780349
 21
1.927077278862403
 31
0.0
  0
TEXT
  5
267
330
2
100
AcDbEntity
  8
TEXT
100
AcDbText
 10
10.44115863220214
 20
1.753490054519388
 30
0.0
 40
0.0522247191011236
  1
Minneapolis, MN 55432-0008
 41
1.11444212721585
 72
     5
 11
11.7700912164718
 21
1.753490054519388
 31
0.0
100
AcDbText
  0
TEXT
  5
268
330
2
100
AcDbEntity
  8
TEXT
100
AcDbText
 10
10.44115863220214
 20
1.84674848148568
 30
0.0
 40
0.0522247191011236
  1
6536 Main St. N.E. * P.O. Box 32008
 41
0.8388932496075355
 72
     5
 11
11.7700912164718
 21
1.84674848148568
 31
0.0
100
AcDbText
  0
TEXT
  5
269
330
2
100
AcDbEntity
  8
TEXT
100
AcDbText
 10
10.44115863220214
 20
1.940006908451972
 30
0.0
 40
0.0522247191011236
  1
Stylmark  Incorporated
 41
1.221428571428571
 72
     5
 11
11.7700912164718
 21
1.940006908451972
 31
0.0
100
AcDbText
  0
TEXT
  5
26A
330
2
100
AcDbEntity
  8
TEXT
100
AcDbText
 10
10.44115863220214
 20
1.660231627553096
 30
0.0
 40
0.0522247191011236
  1
Phone  1-800-328-2495
 41
1.272321428571429
 72
     5
 11
11.7700912164718
 21
1.660231627553096
 31
0.0
100
AcDbText
  0
LINE
  5
26B
330
2
100
AcDbEntity
  8
TEXT
100
AcDbLine
 10
10.19360282073912
 20
1.817184035921429
 30
0.0
 11
10.25815993670483
 21
1.927077278862403
 31
0.0
  0
LINE
  5
26C
330
2
100
AcDbEntity
  8
TEXT
100
AcDbLine
 10
10.25815993670483
 20
1.927077278862403
 30
0.0
 11
10.1831681039752
 21
1.927077278862403
 31
0.0
  0
LINE
  5
26D
330
2
100
AcDbEntity
  8
TEXT
100
AcDbLine
 10
10.21251667172653
 20
1.660604245873892
 30
0.0
 11
10.28909504410273
 21
1.660604245873892
 31
0.0
  0
LINE
  5
26E
330
2
100
AcDbEntity
  8
TEXT
100
AcDbLine
 10
10.28909504410273
 20
1.660604245873892
 30
0.0
 11
10.19360282073912
 21
1.817184035921429
 31
0.0
  0
LINE
  5
26F
330
2
100
AcDbEntity
  8
TEXT
100
AcDbLine
 10
10.13661313851506
 20
1.660604245873892
 30
0.0
 11
10.13661313851506
 21
1.792183814350072
 31
0.0
  0
LINE
  5
270
330
2
100
AcDbEntity
  8
TEXT
100
AcDbLine
 10
10.13661313851506
 20
1.792183814350072
 30
0.0
 11
10.21251667172653
 21
1.660604245873892
 31
0.0
  0
LINE
  5
271
330
2
100
AcDbEntity
  8
TEXT
100
AcDbLine
 10
10.07223495419643
 20
1.862800584205637
 30
0.0
 11
10.07223495419644
 21
1.660604245873892
 31
0.0
  0
LINE
  5
272
330
2
100
AcDbEntity
  8
TEXT
100
AcDbLine
 10
10.07223495419644
 20
1.660604245873892
 30
0.0
 11
10.13661313851506
 21
1.660604245873892
 31
0.0
  0
LINE
  5
273
330
2
100
AcDbEntity
  8
TEXT
100
AcDbLine
 10
10.13606994541921
 20
1.992541484630003
 30
0.0
 11
10.06775506686994
 21
1.992541484630003
 31
0.0
  0
LINE
  5
274
330
2
100
AcDbEntity
  8
TEXT
100
AcDbLine
 10
10.06775506686994
 20
1.992541484630003
 30
0.0
 11
10.06775506686993
 21
1.927077278862403
 31
0.0
  0
LINE
  5
275
330
2
100
AcDbEntity
  8
TEXT
100
AcDbLine
 10
10.1831681039752
 20
1.927077278862403
 30
0.0
 11
10.13606994541921
 21
1.851211952450865
 31
0.0
  0
LINE
  5
276
330
2
100
AcDbEntity
  8
TEXT
100
AcDbLine
 10
10.13606994541921
 20
1.851211952450865
 30
0.0
 11
10.13606994541921
 21
1.992541484630003
 31
0.0
  0
ENDSEC
  0
SECTION
  2
OBJECTS
  0
DICTIONARY
  5
1A
330
0
100
AcDbDictionary
  3
ACAD_GROUP
350
18
  3
ACAD_LAYOUT
350
27B
  3
ACAD_MLINESTYLE
350
19
  3
ACAD_PLOTSETTINGS
350
27C
  3
ACAD_PLOTSTYLENAME
350
279
  3
ACDBHEADERROUNDTRIPXREC
350
286
  3
ACDBVARIABLEDICTIONARY
350
283
  0
DICTIONARY
  5
2A6
330
2
100
AcDbDictionary
280
     1
  3
ACAD_LAYOUTSELFREF
360
2A7
  0
DICTIONARY
  5
2A8
330
7
100
AcDbDictionary
280
     1
  3
ACAD_LAYOUTSELFREF
360
2A9
  0
DICTIONARY
  5
18
102
{ACAD_REACTORS
330
1A
102
}
330
1A
100
AcDbDictionary
  0
DICTIONARY
  5
27B
102
{ACAD_REACTORS
330
1A
102
}
330
1A
100
AcDbDictionary
  0
DICTIONARY
  5
19
102
{ACAD_REACTORS
330
1A
102
}
330
1A
100
AcDbDictionary
  3
STANDARD
350
1D
  0
DICTIONARY
  5
27C
102
{ACAD_REACTORS
330
1A
102
}
330
1A
100
AcDbDictionary
  0
ACDBDICTIONARYWDFLT
  5
279
102
{ACAD_REACTORS
330
1A
102
}
330
1A
100
AcDbDictionary
281
     1
  3
Normal
350
27A
100
AcDbDictionaryWithDefault
340
27A
  0
DICTIONARY
  5
286
102
{ACAD_REACTORS
330
1A
102
}
330
1A
100
AcDbDictionary
  3
CEPSNTYPE
350
290
  3
FINGERPRINTGUID
350
291
  3
HYPERLINKBASE
350
289
  3
INSUNITS
350
28F
  3
LAYOUTDICT
350
28B
  3
LWETCUNION
350
28E
  3
PLOTSETDICT
350
28C
  3
PLOTSTYLNAMDICT
350
28D
  3
PSVPSCALE
350
293
  3
PUCSBASE
350
296
  3
PUCSORGBACK
350
29C
  3
PUCSORGBOTTOM
350
298
  3
PUCSORGFRONT
350
29B
  3
PUCSORGLEFT
350
299
  3
PUCSORGRIGHT
350
29A
  3
PUCSORGTOP
350
297
  3
PUCSORTHOREF
350
294
  3
PUCSORTHOVIEW
350
295
  3
STYLESHEET
350
28A
  3
TSTACKALIGN
350
287
  3
TSTACKSIZE
350
288
  3
UCSBASE
350
29F
  3
UCSORGBACK
350
2A5
  3
UCSORGBOTTOM
350
2A1
  3
UCSORGFRONT
350
2A4
  3
UCSORGLEFT
350
2A2
  3
UCSORGRIGHT
350
2A3
  3
UCSORGTOP
350
2A0
  3
UCSORTHOREF
350
29D
  3
UCSORTHOVIEW
350
29E
  3
VERSIONGUID
350
292
  0
DICTIONARY
  5
283
102
{ACAD_REACTORS
330
1A
102
}
330
1A
100
AcDbDictionary
  3
DIMASSOC
350
284
  0
XRECORD
  5
2A7
102
{ACAD_REACTORS
330
2A6
102
}
330
2A6
100
AcDbXrecord
340
2
  0
XRECORD
  5
2A9
102
{ACAD_REACTORS
330
2A8
102
}
330
2A8
100
AcDbXrecord
340
7
  0
MLINESTYLE
  5
1D
102
{ACAD_REACTORS
330
19
102
}
330
19
100
AcDbMlineStyle
  2
STANDARD
 70
     0
  3

 62
   256
 51
90.0
 52
90.0
 71
     2
 49
0.5
 62
   256
  6
BYLAYER
 49
-0.5
 62
   256
  6
BYLAYER
  0
ACDBPLACEHOLDER
  5
27A
102
{ACAD_REACTORS
330
279
102
}
330
279
100
AcDbPlaceHolder
280
     0
  0
XRECORD
  5
290
102
{ACAD_REACTORS
330
286
102
}
330
286
100
AcDbXrecord
 90
        0
  0
XRECORD
  5
291
102
{ACAD_REACTORS
330
286
102
}
330
286
100
AcDbXrecord
  1
{193AF670-8DB9-11D6-88E6-0090279574E7}
  0
XRECORD
  5
289
102
{ACAD_REACTORS
330
286
102
}
330
286
100
AcDbXrecord
  1

  0
XRECORD
  5
28F
102
{ACAD_REACTORS
330
286
102
}
330
286
100
AcDbXrecord
 90
        0
  0
XRECORD
  5
28B
102
{ACAD_REACTORS
330
286
102
}
330
286
100
AcDbXrecord
340
27B
  0
XRECORD
  5
28E
102
{ACAD_REACTORS
330
286
102
}
330
286
100
AcDbXrecord
 90
    14877
  0
XRECORD
  5
28C
102
{ACAD_REACTORS
330
286
102
}
330
286
100
AcDbXrecord
340
27C
  0
XRECORD
  5
28D
102
{ACAD_REACTORS
330
286
102
}
330
286
100
AcDbXrecord
340
279
  0
XRECORD
  5
293
102
{ACAD_REACTORS
330
286
102
}
330
286
100
AcDbXrecord
 40
0.0
  0
XRECORD
  5
296
102
{ACAD_REACTORS
330
286
102
}
330
286
100
AcDbXrecord
340
0
  0
XRECORD
  5
29C
102
{ACAD_REACTORS
330
286
102
}
330
286
100
AcDbXrecord
 10
0.0
 20
0.0
 30
0.0
  0
XRECORD
  5
298
102
{ACAD_REACTORS
330
286
102
}
330
286
100
AcDbXrecord
 10
0.0
 20
0.0
 30
0.0
  0
XRECORD
  5
29B
102
{ACAD_REACTORS
330
286
102
}
330
286
100
AcDbXrecord
 10
0.0
 20
0.0
 30
0.0
  0
XRECORD
  5
299
102
{ACAD_REACTORS
330
286
102
}
330
286
100
AcDbXrecord
 10
0.0
 20
0.0
 30
0.0
  0
XRECORD
  5
29A
102
{ACAD_REACTORS
330
286
102
}
330
286
100
AcDbXrecord
 10
0.0
 20
0.0
 30
0.0
  0
XRECORD
  5
297
102
{ACAD_REACTORS
330
286
102
}
330
286
100
AcDbXrecord
 10
0.0
 20
0.0
 30
0.0
  0
XRECORD
  5
294
102
{ACAD_REACTORS
330
286
102
}
330
286
100
AcDbXrecord
340
0
  0
XRECORD
  5
295
102
{ACAD_REACTORS
330
286
102
}
330
286
100
AcDbXrecord
 70
     0
  0
XRECORD
  5
28A
102
{ACAD_REACTORS
330
286
102
}
330
286
100
AcDbXrecord
  1

  0
XRECORD
  5
287
102
{ACAD_REACTORS
330
286
102
}
330
286
100
AcDbXrecord
 90
        1
  0
XRECORD
  5
288
102
{ACAD_REACTORS
330
286
102
}
330
286
100
AcDbXrecord
 90
       70
  0
XRECORD
  5
29F
102
{ACAD_REACTORS
330
286
102
}
330
286
100
AcDbXrecord
340
0
  0
XRECORD
  5
2A5
102
{ACAD_REACTORS
330
286
102
}
330
286
100
AcDbXrecord
 10
0.0
 20
0.0
 30
0.0
  0
XRECORD
  5
2A1
102
{ACAD_REACTORS
330
286
102
}
330
286
100
AcDbXrecord
 10
0.0
 20
0.0
 30
0.0
  0
XRECORD
  5
2A4
102
{ACAD_REACTORS
330
286
102
}
330
286
100
AcDbXrecord
 10
0.0
 20
0.0
 30
0.0
  0
XRECORD
  5
2A2
102
{ACAD_REACTORS
330
286
102
}
330
286
100
AcDbXrecord
 10
0.0
 20
0.0
 30
0.0
  0
XRECORD
  5
2A3
102
{ACAD_REACTORS
330
286
102
}
330
286
100
AcDbXrecord
 10
0.0
 20
0.0
 30
0.0
  0
XRECORD
  5
2A0
102
{ACAD_REACTORS
330
286
102
}
330
286
100
AcDbXrecord
 10
0.0
 20
0.0
 30
0.0
  0
XRECORD
  5
29D
102
{ACAD_REACTORS
330
286
102
}
330
286
100
AcDbXrecord
340
0
  0
XRECORD
  5
29E
102
{ACAD_REACTORS
330
286
102
}
330
286
100
AcDbXrecord
 70
     0
  0
XRECORD
  5
292
102
{ACAD_REACTORS
330
286
102
}
330
286
100
AcDbXrecord
  1
{193AF672-8DB9-11D6-88E6-0090279574E7}
  0
DICTIONARYVAR
  5
284
102
{ACAD_REACTORS
330
283
102
}
330
283
100
DictionaryVariables
280
     0
  1
1
  0
ENDSEC
  0
EOF
