  0
SECTION
  2
HEADER
  9
$ACADVER
  1
AC1014
  9
$ACADMAINTVER
 70
     9
  9
$DWGCODEPAGE
  3
ANSI_1252
  9
$INSBASE
 10
0.0
 20
0.0
 30
0.0
  9
$EXTMIN
 10
-0.8356782804930745
 20
1.564155485800604
 30
0.0
  9
$EXTMAX
 10
2.649541041254053
 20
3.790778685383965
 30
0.0
  9
$LIMMIN
 10
0.0
 20
0.0
  9
$LIMMAX
 10
12.0
 20
9.0
  9
$ORTHOMODE
 70
     1
  9
$REGENMODE
 70
     1
  9
$FILLMODE
 70
     1
  9
$QTEXTMODE
 70
     0
  9
$MIRRTEXT
 70
     0
  9
$DRAGMODE
 70
     2
  9
$LTSCALE
 40
1.0
  9
$OSMODE
 70
    39
  9
$ATTMODE
 70
     1
  9
$TEXTSIZE
 40
0.125
  9
$TRACEWID
 40
0.05
  9
$TEXTSTYLE
  7
ROMANS
  9
$CLAYER
  8
DIM
  9
$CELTYPE
  6
BYLAYER
  9
$CECOLOR
 62
   256
  9
$CELTSCALE
 40
1.0
  9
$DELOBJ
 70
     1
  9
$DISPSILH
 70
     1
  9
$DIMSCALE
 40
1.0
  9
$DIMASZ
 40
0.125
  9
$DIMEXO
 40
0.125
  9
$DIMDLI
 40
0.38
  9
$DIMRND
 40
0.0
  9
$DIMDLE
 40
0.0
  9
$DIMEXE
 40
0.125
  9
$DIMTP
 40
0.0
  9
$DIMTM
 40
0.0
  9
$DIMTXT
 40
0.125
  9
$DIMCEN
 40
-0.125
  9
$DIMTSZ
 40
0.0
  9
$DIMTOL
 70
     0
  9
$DIMLIM
 70
     0
  9
$DIMTIH
 70
     1
  9
$DIMTOH
 70
     1
  9
$DIMSE1
 70
     0
  9
$DIMSE2
 70
     0
  9
$DIMTAD
 70
     0
  9
$DIMZIN
 70
     4
  9
$DIMBLK
  1

  9
$DIMASO
 70
     1
  9
$DIMSHO
 70
     1
  9
$DIMPOST
  1

  9
$DIMAPOST
  1

  9
$DIMALT
 70
     0
  9
$DIMALTD
 70
     2
  9
$DIMALTF
 40
25.4
  9
$DIMLFAC
 40
0.25
  9
$DIMTOFL
 70
     0
  9
$DIMTVP
 40
0.0
  9
$DIMTIX
 70
     0
  9
$DIMSOXD
 70
     0
  9
$DIMSAH
 70
     0
  9
$DIMBLK1
  1

  9
$DIMBLK2
  1

  9
$DIMSTYLE
  2
STANDARD
  9
$DIMCLRD
 70
     0
  9
$DIMCLRE
 70
     0
  9
$DIMCLRT
 70
     0
  9
$DIMTFAC
 40
1.0
  9
$DIMGAP
 40
0.09
  9
$DIMJUST
 70
     0
  9
$DIMSD1
 70
     0
  9
$DIMSD2
 70
     0
  9
$DIMTOLJ
 70
     1
  9
$DIMTZIN
 70
     4
  9
$DIMALTZ
 70
     0
  9
$DIMALTTZ
 70
     0
  9
$DIMFIT
 70
     3
  9
$DIMUPT
 70
     0
  9
$DIMUNIT
 70
     2
  9
$DIMDEC
 70
     3
  9
$DIMTDEC
 70
     3
  9
$DIMALTU
 70
     2
  9
$DIMALTTD
 70
     2
  9
$DIMTXSTY
  7
ROMANS
  9
$DIMAUNIT
 70
     0
  9
$LUNITS
 70
     2
  9
$LUPREC
 70
     4
  9
$SKETCHINC
 40
0.1
  9
$FILLETRAD
 40
0.03
  9
$AUNITS
 70
     0
  9
$AUPREC
 70
     0
  9
$MENU
  1
.
  9
$ELEVATION
 40
0.0
  9
$PELEVATION
 40
0.0
  9
$THICKNESS
 40
0.0
  9
$LIMCHECK
 70
     0
  9
$BLIPMODE
 70
     0
  9
$CHAMFERA
 40
0.5
  9
$CHAMFERB
 40
0.5
  9
$CHAMFERC
 40
1.0
  9
$CHAMFERD
 40
0.0
  9
$SKPOLY
 70
     0
  9
$TDCREATE
 40
2451845.442496006
  9
$TDUPDATE
 40
2452458.320749155
  9
$TDINDWG
 40
0.0886148032
  9
$TDUSRTIMER
 40
0.0886148032
  9
$USRTIMER
 70
     1
  9
$ANGBASE
 50
0.0
  9
$ANGDIR
 70
     0
  9
$PDMODE
 70
     0
  9
$PDSIZE
 40
0.0
  9
$PLINEWID
 40
0.0
  9
$COORDS
 70
     2
  9
$SPLFRAME
 70
     0
  9
$SPLINETYPE
 70
     6
  9
$SPLINESEGS
 70
     8
  9
$ATTDIA
 70
     0
  9
$ATTREQ
 70
     1
  9
$HANDLING
 70
 22529
  9
$HANDSEED
  5
296
  9
$SURFTAB1
 70
     6
  9
$SURFTAB2
 70
     6
  9
$SURFTYPE
 70
     6
  9
$SURFU
 70
     6
  9
$SURFV
 70
     6
  9
$UCSNAME
  2

  9
$UCSORG
 10
0.0
 20
0.0
 30
0.0
  9
$UCSXDIR
 10
1.0
 20
0.0
 30
0.0
  9
$UCSYDIR
 10
0.0
 20
1.0
 30
0.0
  9
$PUCSNAME
  2

  9
$PUCSORG
 10
0.0
 20
0.0
 30
0.0
  9
$PUCSXDIR
 10
1.0
 20
0.0
 30
0.0
  9
$PUCSYDIR
 10
0.0
 20
1.0
 30
0.0
  9
$USERI1
 70
     0
  9
$USERI2
 70
     0
  9
$USERI3
 70
     0
  9
$USERI4
 70
     0
  9
$USERI5
 70
     0
  9
$USERR1
 40
0.0
  9
$USERR2
 40
0.0
  9
$USERR3
 40
0.0
  9
$USERR4
 40
0.0
  9
$USERR5
 40
0.0
  9
$WORLDVIEW
 70
     1
  9
$SHADEDGE
 70
     3
  9
$SHADEDIF
 70
    70
  9
$TILEMODE
 70
     1
  9
$MAXACTVP
 70
    48
  9
$PINSBASE
 10
0.0
 20
0.0
 30
0.0
  9
$PLIMCHECK
 70
     0
  9
$PEXTMIN
 10
1.000000000000000E+20
 20
1.000000000000000E+20
 30
1.000000000000000E+20
  9
$PEXTMAX
 10
-1.000000000000000E+20
 20
-1.000000000000000E+20
 30
-1.000000000000000E+20
  9
$PLIMMIN
 10
0.0
 20
0.0
  9
$PLIMMAX
 10
12.0
 20
9.0
  9
$UNITMODE
 70
     0
  9
$VISRETAIN
 70
     1
  9
$PLINEGEN
 70
     1
  9
$PSLTSCALE
 70
     1
  9
$TREEDEPTH
 70
  3020
  9
$PICKSTYLE
 70
     1
  9
$CMLSTYLE
  2
STANDARD
  9
$CMLJUST
 70
     0
  9
$CMLSCALE
 40
1.0
  9
$PROXYGRAPHICS
 70
     1
  9
$MEASUREMENT
 70
     0
  0
ENDSEC
  0
SECTION
  2
CLASSES
  0
CLASS
  1
LWPOLYLINE
  2
AcDbPolyline
  3
AutoCAD 2000
 90
        0
280
     0
281
     1
  0
CLASS
  1
ACDBDICTIONARYWDFLT
  2
AcDbDictionaryWithDefault
  3
AutoCAD 2000
 90
        0
280
     0
281
     0
  0
CLASS
  1
ACDBPLACEHOLDER
  2
AcDbPlaceHolder
  3
AutoCAD 2000
 90
        0
280
     0
281
     0
  0
CLASS
  1
LAYOUT
  2
AcDbLayout
  3
AutoCAD 2000
 90
        0
280
     0
281
     0
  0
CLASS
  1
DICTIONARYVAR
  2
AcDbDictionaryVar
  3
AutoCAD 2000
 90
        0
280
     0
281
     0
  0
CLASS
  1
LONG_TRANSACTION
  2
AcDbLongTransaction
  3
AutoCAD 2000
 90
        0
280
     0
281
     0
  0
CLASS
  1
LWPOLYLINE
  2
AcDbPolyline
  3
AutoCAD 2000
 90
        0
280
     0
281
     1
  0
CLASS
  1
HATCH
  2
AcDbHatch
  3
AutoCAD 2000
 90
        0
280
     0
281
     1
  0
CLASS
  1
XRECORD
  2
AcDbXrecord
  3
AutoCAD 2000
 90
        0
280
     0
281
     0
  0
ENDSEC
  0
SECTION
  2
TABLES
  0
TABLE
  2
VPORT
  5
12
330
0
100
AcDbSymbolTable
 70
     2
  0
VPORT
  5
271
330
12
100
AcDbSymbolTableRecord
100
AcDbViewportTableRecord
  2
*ACTIVE
 70
     0
 10
0.0
 20
0.0
 11
1.0
 21
1.0
 12
3.940495196927221
 22
2.677402975530599
 13
0.0
 23
0.0
 14
0.5
 24
0.5
 15
0.5
 25
0.5
 16
0.0
 26
0.0
 36
1.0
 17
0.0
 27
0.0
 37
0.0
 40
2.24628072173175
 41
4.320930232558139
 42
50.0
 43
0.0
 44
0.0
 50
0.0
 51
0.0
 71
     0
 72
  2000
 73
     1
 74
     1
 75
     0
 76
     0
 77
     0
 78
     0
  0
ENDTAB
  0
TABLE
  2
LTYPE
  5
D
330
0
100
AcDbSymbolTable
 70
     1
  0
LTYPE
  5
E
330
D
100
AcDbSymbolTableRecord
100
AcDbLinetypeTableRecord
  2
BYBLOCK
 70
     0
  3

 72
    65
 73
     0
 40
0.0
  0
LTYPE
  5
F
330
D
100
AcDbSymbolTableRecord
100
AcDbLinetypeTableRecord
  2
BYLAYER
 70
     0
  3

 72
    65
 73
     0
 40
0.0
  0
LTYPE
  5
5
330
D
100
AcDbSymbolTableRecord
100
AcDbLinetypeTableRecord
  2
CONTINUOUS
 70
     0
  3
Solid line
 72
    65
 73
     0
 40
0.0
  0
ENDTAB
  0
TABLE
  2
LAYER
  5
A
330
0
100
AcDbSymbolTable
 70
     3
  0
LAYER
  5
4
330
A
100
AcDbSymbolTableRecord
100
AcDbLayerTableRecord
  2
0
 70
     0
 62
     7
  6
CONTINUOUS
  0
LAYER
  5
20
330
A
100
AcDbSymbolTableRecord
100
AcDbLayerTableRecord
  2
TEXT
 70
     0
 62
     3
  6
CONTINUOUS
  0
LAYER
  5
1B
330
A
100
AcDbSymbolTableRecord
100
AcDbLayerTableRecord
  2
DIM
 70
     0
 62
     4
  6
CONTINUOUS
  0
ENDTAB
  0
TABLE
  2
STYLE
  5
B
330
0
100
AcDbSymbolTable
 70
     3
  0
STYLE
  5
C
330
B
100
AcDbSymbolTableRecord
100
AcDbTextStyleTableRecord
  2
STANDARD
 70
     0
 40
0.0
 41
1.0
 50
0.0
 71
     0
 42
0.2
  3
txt
  4

  0
STYLE
  5
1C
330
B
100
AcDbSymbolTableRecord
100
AcDbTextStyleTableRecord
  2
ROMANS
 70
     0
 40
0.0
 41
1.0
 50
0.0
 71
     0
 42
0.125
  3
romans.shx
  4

  0
STYLE
  5
15E
330
B
100
AcDbSymbolTableRecord
100
AcDbTextStyleTableRecord
  2
ITALICC
 70
     0
 40
0.0
 41
1.0
 50
0.0
 71
     0
 42
0.125
  3
italicc
  4

  0
ENDTAB
  0
TABLE
  2
VIEW
  5
10
330
0
100
AcDbSymbolTable
 70
     0
  0
ENDTAB
  0
TABLE
  2
UCS
  5
11
330
0
100
AcDbSymbolTable
 70
     0
  0
ENDTAB
  0
TABLE
  2
APPID
  5
14
330
0
100
AcDbSymbolTable
 70
     1
  0
APPID
  5
15
330
14
100
AcDbSymbolTableRecord
100
AcDbRegAppTableRecord
  2
ACAD
 70
     0
  0
ENDTAB
  0
TABLE
  2
DIMSTYLE
  5
16
330
0
100
AcDbSymbolTable
 70
     1
  0
DIMSTYLE
105
1E
330
16
100
AcDbSymbolTableRecord
100
AcDbDimStyleTableRecord
  2
STANDARD
 70
     0
  3

  4

  5

  6

  7

 40
1.0
 41
0.125
 42
0.125
 43
0.38
 44
0.125
 45
0.0
 46
0.0
 47
0.0
 48
0.0
140
0.125
141
-0.125
142
0.0
143
25.4
144
0.25
145
0.0
146
1.0
147
0.09
 71
     0
 72
     0
 73
     1
 74
     1
 75
     0
 76
     0
 77
     0
 78
     4
170
     0
171
     2
172
     0
173
     0
174
     0
175
     0
176
     0
177
     0
178
     0
270
     2
271
     3
272
     3
273
     2
274
     2
340
1C
275
     0
280
     0
281
     0
282
     0
283
     1
284
     4
285
     0
286
     0
287
     3
288
     0
  0
ENDTAB
  0
TABLE
  2
BLOCK_RECORD
  5
1
330
0
100
AcDbSymbolTable
 70
     0
  0
BLOCK_RECORD
  5
2
102
{ACAD_XDICTIONARY
360
292
102
}
330
1
100
AcDbSymbolTableRecord
100
AcDbBlockTableRecord
  2
*MODEL_SPACE
  0
BLOCK_RECORD
  5
7
102
{ACAD_XDICTIONARY
360
294
102
}
330
1
100
AcDbSymbolTableRecord
100
AcDbBlockTableRecord
  2
*PAPER_SPACE
  0
ENDTAB
  0
ENDSEC
  0
SECTION
  2
BLOCKS
  0
BLOCK
  5
3
330
2
100
AcDbEntity
  8
0
100
AcDbBlockBegin
  2
*MODEL_SPACE
 70
     0
 10
0.0
 20
0.0
 30
0.0
  3
*MODEL_SPACE
  1

  0
ENDBLK
  5
6
330
2
100
AcDbEntity
  8
0
100
AcDbBlockEnd
  0
BLOCK
  5
8
330
7
100
AcDbEntity
 67
     1
  8
0
100
AcDbBlockBegin
  2
*PAPER_SPACE
 70
     0
 10
0.0
 20
0.0
 30
0.0
  3
*PAPER_SPACE
  1

  0
ENDBLK
  5
9
330
7
100
AcDbEntity
 67
     1
  8
0
100
AcDbBlockEnd
  0
ENDSEC
  0
SECTION
  2
ENTITIES
  0
LWPOLYLINE
  5
6E
330
2
100
AcDbEntity
  8
0
100
AcDbPolyline
 90
       20
 70
   129
 43
0.0
 10
0.4754552738059115
 20
3.395778685383965
 10
0.4754552738059106
 20
2.523278685383965
 42
-0.9999999999999998
 10
0.4104552738059116
 20
2.523278685383965
 10
0.4104552738059116
 20
3.460778685383965
 42
-0.4142135623730951
 10
0.4404552738059114
 20
3.490778685383966
 10
1.510455273805912
 20
3.490778685383966
 42
0.4142135623730943
 10
1.540455273805912
 20
3.520778685383966
 10
1.540455273805913
 20
3.758278685383966
 42
-0.9999999999999998
 10
1.605455273805912
 20
3.758278685383966
 10
1.605455273805911
 20
2.523278685383966
 42
-0.9999999999999998
 10
1.54045527380591
 20
2.523278685383966
 10
1.540455273805913
 20
3.395778685383964
 42
0.4142135623730951
 10
1.510455273805913
 20
3.425778685383964
 10
1.070455273805912
 20
3.425778685383965
 42
0.4142135623730951
 10
1.040455273805912
 20
3.395778685383965
 10
1.040455273805912
 20
2.523278685383965
 42
-0.9999999999999998
 10
0.9754552738059105
 20
2.523278685383965
 10
0.9754552738059105
 20
3.395778685383964
 42
0.4142135623730953
 10
0.9454552738059103
 20
3.425778685383964
 10
0.5054552738059113
 20
3.425778685383965
 42
0.4142135623730948
  0
TEXT
  5
1E3
330
2
100
AcDbEntity
  8
TEXT
100
AcDbText
 10
0.1543271082578776
 20
2.022174089883186
 30
0.0
 40
0.125
  1
PART #110644
  7
ITALICC
 72
     1
 11
0.9073032987340683
 21
2.022174089883186
 31
0.0
100
AcDbText
  0
LINE
  5
1E4
330
2
100
AcDbEntity
  8
TEXT
100
AcDbLine
 10
0.875036797686131
 20
1.777820403863352
 30
0.0
 11
0.9516847789786888
 21
1.777820403863352
 31
0.0
  0
LINE
  5
1E5
330
2
100
AcDbEntity
  8
TEXT
100
AcDbLine
 10
0.9472048916521886
 20
1.842097098520118
 30
0.0
 11
0.8797051740026722
 21
1.842097098520118
 31
0.0
  0
LWPOLYLINE
  5
1E6
330
2
100
AcDbEntity
  8
TEXT
100
AcDbPolyline
 90
        5
 70
     0
 43
0.0001332181640625
 10
-0.762075244848544
 20
1.718870296762305
 10
-0.7487534284422952
 20
1.718870296762305
 10
-0.7487534284422952
 20
1.755505291879495
 10
-0.7121184333251054
 20
1.755505291879495
 10
-0.7121184333251054
 20
1.768827108285742
  0
LWPOLYLINE
  5
1E7
330
2
100
AcDbEntity
  8
TEXT
100
AcDbPolyline
 90
        3
 70
     0
 43
0.0006660908203125
 10
-0.722109795629796
 20
1.81545346570762
 10
-0.8087016022704208
 20
1.81545346570762
 10
-0.8087016022704208
 20
1.728861659066994
  0
LWPOLYLINE
  5
1E8
330
2
100
AcDbEntity
  8
TEXT
100
AcDbPolyline
 90
        3
 70
     0
 43
0.0006660908203125
 10
-0.722109795629796
 20
1.842097098520121
 10
-0.8353452350829183
 20
1.842097098520121
 10
-0.8353452350829183
 20
1.728861659066994
  0
LWPOLYLINE
  5
1E9
330
2
100
AcDbEntity
  8
TEXT
100
AcDbPolyline
 90
        5
 70
     0
 43
0.0001332181640625
 10
-0.7121184333251054
 20
1.648930760629494
 10
-0.7121184333251054
 20
1.662252577035745
 10
-0.7487534284422935
 20
1.662252577035745
 10
-0.7487534284422935
 20
1.698887572152931
 10
-0.762075244848544
 20
1.698887572152931
  0
LWPOLYLINE
  5
1EA
330
2
100
AcDbEntity
  8
TEXT
100
AcDbPolyline
 90
        3
 70
     0
 43
0.0006660908203125
 10
-0.8087016022704208
 20
1.688896209848246
 10
-0.8087016022704208
 20
1.602304403207619
 10
-0.722109795629796
 20
1.602304403207619
  0
LWPOLYLINE
  5
1EB
330
2
100
AcDbEntity
  8
TEXT
100
AcDbPolyline
 90
        3
 70
     0
 43
0.0006660908203125
 10
-0.8353452350829183
 20
1.688896209848246
 10
-0.8353452350829183
 20
1.575660770395118
 10
-0.722109795629796
 20
1.575660770395118
  0
LWPOLYLINE
  5
1EC
330
2
100
AcDbEntity
  8
TEXT
100
AcDbPolyline
 90
        2
 70
     0
 43
0.0001332181640625
 10
-0.8087016022704208
 20
1.688896209848246
 10
-0.7487534284422935
 20
1.698887572152931
  0
LWPOLYLINE
  5
1ED
330
2
100
AcDbEntity
  8
TEXT
100
AcDbPolyline
 90
        2
 70
     0
 43
0.0001332181640625
 10
-0.762075244848544
 20
1.698887572152931
 10
-0.8353452350829183
 20
1.688896209848246
  0
LWPOLYLINE
  5
1EE
330
2
100
AcDbEntity
  8
TEXT
100
AcDbPolyline
 90
        2
 70
     0
 43
0.0006660908203125
 10
-0.8087016022704208
 20
1.688896209848246
 10
-0.8353452350829183
 20
1.688896209848246
  0
LWPOLYLINE
  5
1EF
330
2
100
AcDbEntity
  8
TEXT
100
AcDbPolyline
 90
        2
 70
     0
 43
0.0001332181640625
 10
-0.8087016022704208
 20
1.602304403207619
 10
-0.7487534284422935
 20
1.662252577035745
  0
LWPOLYLINE
  5
1F0
330
2
100
AcDbEntity
  8
TEXT
100
AcDbPolyline
 90
        2
 70
     0
 43
0.0006660908203125
 10
-0.8087016022704208
 20
1.728861659066994
 10
-0.8353452350829183
 20
1.728861659066994
  0
LWPOLYLINE
  5
1F1
330
2
100
AcDbEntity
  8
TEXT
100
AcDbPolyline
 90
        2
 70
     0
 43
0.0001332181640625
 10
-0.8353452350829183
 20
1.728861659066994
 10
-0.762075244848544
 20
1.718870296762305
  0
LWPOLYLINE
  5
1F2
330
2
100
AcDbEntity
  8
TEXT
100
AcDbPolyline
 90
        2
 70
     0
 43
0.0001332181640625
 10
-0.8087016022704208
 20
1.728861659066994
 10
-0.7487534284422952
 20
1.718870296762305
  0
LWPOLYLINE
  5
1F3
330
2
100
AcDbEntity
  8
TEXT
100
AcDbPolyline
 90
        2
 70
     0
 43
0.0001332181640625
 10
-0.8087016022704208
 20
1.81545346570762
 10
-0.7487534284422952
 20
1.755505291879495
  0
LWPOLYLINE
  5
1F4
330
2
100
AcDbEntity
  8
TEXT
100
AcDbPolyline
 90
        5
 70
     0
 43
0.0001332181640625
 10
-0.6421788971922946
 20
1.698887572152931
 10
-0.6555007135985434
 20
1.698887572152931
 10
-0.6555007135985434
 20
1.662252577035745
 10
-0.6921357087157332
 20
1.662252577035745
 10
-0.6921357087157332
 20
1.648930760629494
  0
LWPOLYLINE
  5
1F5
330
2
100
AcDbEntity
  8
TEXT
100
AcDbPolyline
 90
        2
 70
     0
 43
0.0001332181640625
 10
-0.5955525397704196
 20
1.688896209848246
 10
-0.6555007135985434
 20
1.698887572152931
  0
LWPOLYLINE
  5
1F6
330
2
100
AcDbEntity
  8
TEXT
100
AcDbPolyline
 90
        2
 70
     0
 43
0.0001332181640625
 10
-0.5689089069579186
 20
1.688896209848246
 10
-0.6421788971922946
 20
1.698887572152931
  0
LWPOLYLINE
  5
1F7
330
2
100
AcDbEntity
  8
TEXT
100
AcDbPolyline
 90
        3
 70
     0
 43
0.0006660908203125
 10
-0.6821443464110444
 20
1.575660770395118
 10
-0.5689089069579186
 20
1.575660770395118
 10
-0.5689089069579186
 20
1.688896209848246
  0
LWPOLYLINE
  5
1F8
330
2
100
AcDbEntity
  8
TEXT
100
AcDbPolyline
 90
        3
 70
     0
 43
0.0006660908203125
 10
-0.6821443464110444
 20
1.602304403207619
 10
-0.5955525397704196
 20
1.602304403207619
 10
-0.5955525397704196
 20
1.688896209848246
  0
LWPOLYLINE
  5
1F9
330
2
100
AcDbEntity
  8
TEXT
100
AcDbPolyline
 90
        2
 70
     0
 43
0.0001332181640625
 10
-0.5955525397704196
 20
1.602304403207619
 10
-0.6555007135985434
 20
1.662252577035745
  0
LWPOLYLINE
  5
1FA
330
2
100
AcDbEntity
  8
TEXT
100
AcDbPolyline
 90
        2
 70
     0
 43
0.0006660908203125
 10
-0.6821443464110444
 20
1.602304403207619
 10
-0.6821443464110444
 20
1.575660770395118
  0
LWPOLYLINE
  5
1FB
330
2
100
AcDbEntity
  8
TEXT
100
AcDbPolyline
 90
        2
 70
     0
 43
0.0001332181640625
 10
-0.6921357087157332
 20
1.648930760629494
 10
-0.6821443464110444
 20
1.575660770395118
  0
LWPOLYLINE
  5
1FC
330
2
100
AcDbEntity
  8
TEXT
100
AcDbPolyline
 90
        2
 70
     0
 43
0.0001332181640625
 10
-0.6821443464110444
 20
1.602304403207619
 10
-0.6921357087157332
 20
1.662252577035745
  0
LWPOLYLINE
  5
1FD
330
2
100
AcDbEntity
  8
TEXT
100
AcDbPolyline
 90
        2
 70
     0
 43
0.0001332181640625
 10
-0.722109795629796
 20
1.575660770395118
 10
-0.7121184333251054
 20
1.648930760629494
  0
LWPOLYLINE
  5
1FE
330
2
100
AcDbEntity
  8
TEXT
100
AcDbPolyline
 90
        2
 70
     0
 43
0.0001332181640625
 10
-0.722109795629796
 20
1.602304403207619
 10
-0.7121184333251054
 20
1.662252577035745
  0
LWPOLYLINE
  5
1FF
330
2
100
AcDbEntity
  8
TEXT
100
AcDbPolyline
 90
        2
 70
     0
 43
0.0006660908203125
 10
-0.722109795629796
 20
1.602304403207619
 10
-0.722109795629796
 20
1.575660770395118
  0
LWPOLYLINE
  5
200
330
2
100
AcDbEntity
  8
TEXT
100
AcDbPolyline
 90
        2
 70
     0
 43
0.0006660908203125
 10
-0.5955525397704196
 20
1.688896209848246
 10
-0.5689089069579186
 20
1.688896209848246
  0
LWPOLYLINE
  5
201
330
2
100
AcDbEntity
  8
TEXT
100
AcDbPolyline
 90
        2
 70
     0
 43
0.0001332181640625
 10
-0.5955525397704196
 20
1.81545346570762
 10
-0.6555007135985434
 20
1.755505291879495
  0
LWPOLYLINE
  5
202
330
2
100
AcDbEntity
  8
TEXT
100
AcDbPolyline
 90
        2
 70
     0
 43
0.0001332181640625
 10
-0.5955525397704196
 20
1.728861659066994
 10
-0.6555007135985434
 20
1.718870296762305
  0
LWPOLYLINE
  5
203
330
2
100
AcDbEntity
  8
TEXT
100
AcDbPolyline
 90
        2
 70
     0
 43
0.0001332181640625
 10
-0.6421788971922946
 20
1.718870296762305
 10
-0.5689089069579186
 20
1.728861659066994
  0
LWPOLYLINE
  5
204
330
2
100
AcDbEntity
  8
TEXT
100
AcDbPolyline
 90
        3
 70
     0
 43
0.0006660908203125
 10
-0.5955525397704196
 20
1.728861659066994
 10
-0.5955525397704196
 20
1.81545346570762
 10
-0.6821443464110444
 20
1.81545346570762
  0
LWPOLYLINE
  5
205
330
2
100
AcDbEntity
  8
TEXT
100
AcDbPolyline
 90
        3
 70
     0
 43
0.0006660908203125
 10
-0.5689089069579186
 20
1.728861659066994
 10
-0.5689089069579186
 20
1.842097098520121
 10
-0.6821443464110444
 20
1.842097098520121
  0
LWPOLYLINE
  5
206
330
2
100
AcDbEntity
  8
TEXT
100
AcDbPolyline
 90
        2
 70
     0
 43
0.0001332181640625
 10
-0.6821443464110444
 20
1.842097098520121
 10
-0.6921357087157332
 20
1.768827108285742
  0
LWPOLYLINE
  5
207
330
2
100
AcDbEntity
  8
TEXT
100
AcDbPolyline
 90
        2
 70
     0
 43
0.0001332181640625
 10
-0.6821443464110444
 20
1.81545346570762
 10
-0.6921357087157332
 20
1.755505291879495
  0
LWPOLYLINE
  5
208
330
2
100
AcDbEntity
  8
TEXT
100
AcDbPolyline
 90
        2
 70
     0
 43
0.0006660908203125
 10
-0.6821443464110444
 20
1.81545346570762
 10
-0.6821443464110444
 20
1.842097098520121
  0
LWPOLYLINE
  5
209
330
2
100
AcDbEntity
  8
TEXT
100
AcDbPolyline
 90
        5
 70
     0
 43
0.0001332181640625
 10
-0.6921357087157332
 20
1.768827108285742
 10
-0.6921357087157332
 20
1.755505291879495
 10
-0.6555007135985434
 20
1.755505291879495
 10
-0.6555007135985434
 20
1.718870296762305
 10
-0.6421788971922946
 20
1.718870296762305
  0
LWPOLYLINE
  5
20A
330
2
100
AcDbEntity
  8
TEXT
100
AcDbPolyline
 90
        2
 70
     0
 43
0.0001332181640625
 10
-0.722109795629796
 20
1.81545346570762
 10
-0.7121184333251054
 20
1.755505291879495
  0
LWPOLYLINE
  5
20B
330
2
100
AcDbEntity
  8
TEXT
100
AcDbPolyline
 90
        2
 70
     0
 43
0.0001332181640625
 10
-0.7121184333251054
 20
1.768827108285742
 10
-0.722109795629796
 20
1.842097098520121
  0
LWPOLYLINE
  5
20C
330
2
100
AcDbEntity
  8
TEXT
100
AcDbPolyline
 90
        2
 70
     0
 43
0.0006660908203125
 10
-0.722109795629796
 20
1.81545346570762
 10
-0.722109795629796
 20
1.842097098520121
  0
LWPOLYLINE
  5
20D
330
2
100
AcDbEntity
  8
TEXT
100
AcDbPolyline
 90
        2
 70
     0
 43
0.0006660908203125
 10
-0.5955525397704196
 20
1.728861659066994
 10
-0.5689089069579186
 20
1.728861659066994
  0
LWPOLYLINE
  5
20E
330
2
100
AcDbEntity
  8
TEXT
100
AcDbPolyline
 90
        2
 70
     0
 43
0.0
 10
0.1498710137907118
 20
1.627175407746535
 42
0.3318488747599744
 10
0.2189903063560248
 20
1.575624065531607
 42
-6.868794160588311
  0
LINE
  5
20F
330
2
100
AcDbEntity
  8
TEXT
100
AcDbLine
 10
0.2178507328598291
 20
1.910108576258928
 30
0.0
 11
0.1510420202934641
 21
1.910108576258928
 31
0.0
  0
LINE
  5
210
330
2
100
AcDbEntity
  8
TEXT
100
AcDbLine
 10
-0.1283003473256299
 20
1.842097098520118
 30
0.0
 11
-0.3040321002241413
 21
1.842097098520118
 31
0.0
  0
ARC
  5
211
330
2
100
AcDbEntity
  8
TEXT
100
AcDbCircle
 10
-0.2331946338655917
 20
1.658819873892164
 30
0.0
 40
0.0831958083605586
100
AcDbArc
 50
270.0
 51
90.0
  0
LINE
  5
212
330
2
100
AcDbEntity
  8
TEXT
100
AcDbLine
 10
-0.2987947701098932
 20
1.777820403863352
 30
0.0
 11
-0.1318891160809228
 21
1.777820403863352
 31
0.0
  0
LINE
  5
213
330
2
100
AcDbEntity
  8
TEXT
100
AcDbLine
 10
-0.2282542599593125
 20
1.643981071865046
 30
0.0
 11
-0.3861195596706466
 21
1.643981071865046
 31
0.0
  0
LINE
  5
214
330
2
100
AcDbEntity
  8
TEXT
100
AcDbLine
 10
-0.3861195596706448
 20
1.575624065531607
 30
0.0
 11
-0.2331946338655921
 21
1.575624065531607
 31
0.0
  0
ARC
  5
215
330
2
100
AcDbEntity
  8
TEXT
100
AcDbCircle
 10
-0.3040321002241408
 20
1.760009639073616
 30
0.0
 40
0.0820874594465043
100
AcDbArc
 50
90.0
 51
270.0
  0
LINE
  5
216
330
2
100
AcDbEntity
  8
TEXT
100
AcDbLine
 10
-0.3861195596706466
 20
1.643981071865046
 30
0.0
 11
-0.3861195596706448
 21
1.575624065531607
 31
0.0
  0
LINE
  5
217
330
2
100
AcDbEntity
  8
TEXT
100
AcDbLine
 10
-0.3040321002241413
 20
1.677922179627111
 30
0.0
 11
-0.2282542599593125
 21
1.677922179627111
 31
0.0
  0
ARC
  5
218
330
2
100
AcDbEntity
  8
TEXT
100
AcDbCircle
 10
-0.228254259959312
 20
1.66095162574608
 30
0.0
 40
0.0169705538810321
100
AcDbArc
 50
270.0
 51
90.0
  0
LINE
  5
219
330
2
100
AcDbEntity
  8
TEXT
100
AcDbLine
 10
-0.2331946338655921
 20
1.742015682252724
 30
0.0
 11
-0.2987947701098932
 21
1.742015682252724
 31
0.0
  0
ARC
  5
21A
330
2
100
AcDbEntity
  8
TEXT
100
AcDbCircle
 10
-0.2987947701098928
 20
1.75991804305804
 30
0.0
 40
0.017902360805315
100
AcDbArc
 50
90.0
 51
270.0
  0
LINE
  5
21B
330
2
100
AcDbEntity
  8
TEXT
100
AcDbLine
 10
0.0621715446942224
 20
1.741225102406997
 30
0.0
 11
0.0035412236622845
 21
1.842097098520118
 31
0.0
  0
LINE
  5
21C
330
2
100
AcDbEntity
  8
TEXT
100
AcDbLine
 10
-0.0780025086008172
 20
1.575624065531607
 30
0.0
 11
0.0186377424741773
 21
1.575894704629889
 31
0.0
  0
LWPOLYLINE
  5
21D
330
2
100
AcDbEntity
  8
TEXT
100
AcDbPolyline
 90
        6
 70
     1
 43
0.0
 10
-0.0354787050256671
 20
1.777820403863352
 10
-0.0657952992458753
 20
1.777820403863352
 10
-0.0657952992458753
 20
1.654709405808458
 42
0.407328721240804
 10
-0.0542516480843989
 20
1.642890491132072
 10
0.0063700509603319
 20
1.642890491132072
 10
0.0238353913676499
 20
1.675702720175551
  0
LINE
  5
21E
330
2
100
AcDbEntity
  8
TEXT
100
AcDbLine
 10
-0.1318891160809228
 20
1.777820403863352
 30
0.0
 11
-0.1318891160809228
 21
1.635416456869656
 31
0.0
  0
ARC
  5
21F
330
2
100
AcDbEntity
  8
TEXT
100
AcDbCircle
 10
-0.0717730981071703
 20
1.635416456869656
 30
0.0
 40
0.0601160179737537
100
AcDbArc
 50
180.0000000000003
 51
264.0521544866073
  0
LINE
  5
220
330
2
100
AcDbEntity
  8
TEXT
100
AcDbLine
 10
-0.0682577424816229
 20
1.876485016114256
 30
0.0
 11
-0.1283003473256299
 21
1.876485016114256
 31
0.0
  0
LINE
  5
221
330
2
100
AcDbEntity
  8
TEXT
100
AcDbLine
 10
-0.1283003473256299
 20
1.876485016114256
 30
0.0
 11
-0.1283003473256299
 21
1.842097098520118
 31
0.0
  0
LINE
  5
222
330
2
100
AcDbEntity
  8
TEXT
100
AcDbLine
 10
-0.0682577424816229
 20
1.842097098520118
 30
0.0
 11
-0.0682577424816229
 21
1.876485016114256
 31
0.0
  0
LINE
  5
223
330
2
100
AcDbEntity
  8
TEXT
100
AcDbLine
 10
0.0035412236622845
 20
1.842097098520118
 30
0.0
 11
-0.0682577424816229
 21
1.842097098520118
 31
0.0
  0
LINE
  5
224
330
2
100
AcDbEntity
  8
TEXT
100
AcDbLine
 10
0.052571307697268
 20
1.59558257163662
 30
0.0
 11
0.1498710137907127
 21
1.759932782571888
 31
0.0
  0
LINE
  5
225
330
2
100
AcDbEntity
  8
TEXT
100
AcDbLine
 10
0.1498710137907127
 20
1.759932782571888
 30
0.0
 11
0.1498710137907127
 21
1.627175407746531
 31
0.0
  0
ARC
  5
226
330
2
100
AcDbEntity
  8
TEXT
100
AcDbCircle
 10
0.0185277477850545
 20
1.615171787805302
 30
0.0
 40
0.0392772371940762
100
AcDbArc
 50
270.1604552698595
 51
330.0831797321295
  0
LINE
  5
227
330
2
100
AcDbEntity
  8
TEXT
100
AcDbLine
 10
0.1209201075000879
 20
1.842097098520118
 30
0.0
 11
0.0621715446942224
 21
1.741225102406997
 31
0.0
  0
LINE
  5
228
330
2
100
AcDbEntity
  8
TEXT
100
AcDbLine
 10
0.1510420202934641
 20
1.910108576258928
 30
0.0
 11
0.1510420202934641
 21
1.842097098520118
 31
0.0
  0
LINE
  5
229
330
2
100
AcDbEntity
  8
TEXT
100
AcDbLine
 10
0.1510420202934641
 20
1.842097098520118
 30
0.0
 11
0.1209201075000879
 21
1.842097098520118
 31
0.0
  0
LWPOLYLINE
  5
22A
330
2
100
AcDbEntity
  8
TEXT
100
AcDbPolyline
 90
        4
 70
     0
 43
0.0
 10
0.5031281419136225
 20
1.770266614697242
 10
0.5031281419136225
 20
1.575624065531607
 10
0.5716064252014803
 20
1.575624065531607
 10
0.5716064252014803
 20
1.619115010482045
 42
-1.714843617202739
  0
LWPOLYLINE
  5
22B
330
2
100
AcDbEntity
  8
TEXT
100
AcDbPolyline
 90
        2
 70
     0
 43
0.0
 10
0.5382624924578323
 20
1.842097098520121
 42
-0.3277054968067132
 10
0.5740441831709973
 20
1.813774552750477
 42
6.667889725900311
  0
LWPOLYLINE
  5
22C
330
2
100
AcDbEntity
  8
TEXT
100
AcDbPolyline
 90
        2
 70
     0
 43
0.0
 10
0.3668289198786052
 20
1.777820403863352
 42
-0.4142135623731017
 10
0.3743827090447187
 20
1.770266614697242
 42
-0.9999999999999998
  0
LINE
  5
22D
330
2
100
AcDbEntity
  8
TEXT
100
AcDbLine
 10
0.3841806429286256
 20
1.842097098520118
 30
0.0
 11
0.2501625869974893
 21
1.842097098520118
 31
0.0
  0
LINE
  5
22E
330
2
100
AcDbEntity
  8
TEXT
100
AcDbLine
 10
0.3169936400554585
 20
1.575624065531607
 30
0.0
 11
0.3169936400554585
 21
1.777820403863352
 31
0.0
  0
LINE
  5
22F
330
2
100
AcDbEntity
  8
TEXT
100
AcDbLine
 10
0.2501625869974893
 20
1.842097098520118
 30
0.0
 11
0.2501625869974893
 21
1.641232891787709
 31
0.0
  0
LINE
  5
230
330
2
100
AcDbEntity
  8
TEXT
100
AcDbLine
 10
0.2178507328598291
 20
1.658011903634606
 30
0.0
 11
0.2178507328598291
 21
1.910108576258928
 31
0.0
  0
LINE
  5
231
330
2
100
AcDbEntity
  8
TEXT
100
AcDbLine
 10
0.2189903063560239
 20
1.575624065531607
 30
0.0
 11
0.3169936400554585
 21
1.575624065531607
 31
0.0
  0
LINE
  5
232
330
2
100
AcDbEntity
  8
TEXT
100
AcDbLine
 10
0.2501625869974893
 20
1.641232891787709
 30
0.0
 11
0.233168950112888
 21
1.641232891787709
 31
0.0
  0
ARC
  5
233
330
2
100
AcDbEntity
  8
TEXT
100
AcDbCircle
 10
0.2331689501128871
 20
1.656614698031135
 30
0.0
 40
0.0153818062434269
100
AcDbArc
 50
174.7883570302258
 51
270.0
  0
LINE
  5
234
330
2
100
AcDbEntity
  8
TEXT
100
AcDbLine
 10
0.3169936400554585
 20
1.777820403863352
 30
0.0
 11
0.3668289198786061
 21
1.777820403863352
 31
0.0
  0
LINE
  5
235
330
2
100
AcDbEntity
  8
TEXT
100
AcDbLine
 10
0.3743827090447196
 20
1.770266614697242
 30
0.0
 11
0.3743827090447196
 21
1.575624065531607
 31
0.0
  0
LINE
  5
236
330
2
100
AcDbEntity
  8
TEXT
100
AcDbLine
 10
0.4414407558265597
 20
1.575624065531607
 30
0.0
 11
0.4414407558265597
 21
1.777820403863352
 31
0.0
  0
LINE
  5
237
330
2
100
AcDbEntity
  8
TEXT
100
AcDbLine
 10
0.3743827090447196
 20
1.575624065531607
 30
0.0
 11
0.4414407558265597
 21
1.575624065531607
 31
0.0
  0
LWPOLYLINE
  5
238
330
2
100
AcDbEntity
  8
TEXT
100
AcDbPolyline
 90
        3
 70
     0
 43
0.0
 10
0.5382624924578323
 20
1.842097098520121
 10
0.419962333641788
 20
1.842097098520121
 10
0.419962333641788
 20
1.814929601759225
 42
-1.960274751411753
  0
LINE
  5
239
330
2
100
AcDbEntity
  8
TEXT
100
AcDbLine
 10
0.4414407558265597
 20
1.777820403863352
 30
0.0
 11
0.4955743527475099
 21
1.777820403863352
 31
0.0
  0
LWPOLYLINE
  5
23A
330
2
100
AcDbEntity
  8
TEXT
100
AcDbPolyline
 90
        2
 70
     0
 43
0.0
 10
0.3841806429286265
 20
1.842097098520121
 42
-0.3328679258950098
 10
0.419962333641788
 20
1.814929601759225
 42
6.772930709997214
  0
LWPOLYLINE
  5
23B
330
2
100
AcDbEntity
  8
TEXT
100
AcDbPolyline
 90
        2
 70
     0
 43
0.0
 10
0.495574352747509
 20
1.777820403863352
 42
-0.4142135623731017
 10
0.5031281419136225
 20
1.770266614697242
 42
-0.9999999999999998
  0
ARC
  5
23C
330
2
100
AcDbEntity
  8
TEXT
100
AcDbCircle
 10
0.7068491526109888
 20
1.800513531399215
 30
0.0
 40
0.0416329381542859
100
AcDbArc
 50
26.56974201007528
 51
87.20939649401342
  0
LWPOLYLINE
  5
23D
330
2
100
AcDbEntity
  8
TEXT
100
AcDbPolyline
 90
        2
 70
     0
 43
0.0
 10
0.6146823580691159
 20
1.575624065531607
 10
0.7486997757004925
 20
1.575624065531607
 42
0.9999999999999998
  0
LWPOLYLINE
  5
23E
330
2
100
AcDbEntity
  8
TEXT
100
AcDbPolyline
 90
        4
 70
     1
 43
0.0
 10
0.7285773106306
 20
1.678588043515632
 10
0.6399169919707415
 20
1.678588043515632
 42
0.9999999999999998
 10
0.6399169919707415
 20
1.636189503011771
 10
0.7285773106306
 20
1.636189503011771
 42
1.0
  0
LWPOLYLINE
  5
23F
330
2
100
AcDbEntity
  8
TEXT
100
AcDbPolyline
 90
        2
 70
     0
 43
0.0
 10
0.5716064252014803
 20
1.619115010482045
 42
0.2901071551932823
 10
0.6146823580691159
 20
1.575624065531607
 42
5.328517124445801
  0
LINE
  5
240
330
2
100
AcDbEntity
  8
TEXT
100
AcDbLine
 10
0.7088760923880573
 20
1.842097098520118
 30
0.0
 11
0.5740441831709982
 21
1.842097098520118
 31
0.0
  0
LINE
  5
241
330
2
100
AcDbEntity
  8
TEXT
100
AcDbLine
 10
0.6333582795643169
 20
1.74054543040122
 30
0.0
 11
0.7156462693477002
 21
1.74054543040122
 31
0.0
  0
LINE
  5
242
330
2
100
AcDbEntity
  8
TEXT
100
AcDbLine
 10
0.6798451940435788
 20
1.777820403863352
 30
0.0
 11
0.5726389206562894
 21
1.777820403863352
 31
0.0
  0
LINE
  5
243
330
2
100
AcDbEntity
  8
TEXT
100
AcDbLine
 10
0.5740441831709982
 20
1.842097098520118
 30
0.0
 11
0.5740441831709982
 21
1.813774552750474
 31
0.0
  0
ARC
  5
244
330
2
100
AcDbEntity
  8
TEXT
100
AcDbCircle
 10
0.633358279564316
 20
1.672859849257101
 30
0.0
 40
0.0676855811441166
100
AcDbArc
 50
90.0
 51
153.7768192527749
  0
LINE
  5
245
330
2
100
AcDbEntity
  8
TEXT
100
AcDbLine
 10
0.5726389206562894
 20
1.777820403863352
 30
0.0
 11
0.5726389206562894
 21
1.702767997789146
 31
0.0
  0
LINE
  5
246
330
2
100
AcDbEntity
  8
TEXT
100
AcDbLine
 10
0.7156462693477002
 20
1.74054543040122
 30
0.0
 11
0.7053815089341358
 21
1.761795969973914
 31
0.0
  0
ARC
  5
247
330
2
100
AcDbEntity
  8
TEXT
100
AcDbCircle
 10
0.6798451940435779
 20
1.749461028863355
 30
0.0
 40
0.028359375
100
AcDbArc
 50
25.78218179591245
 51
90.0
  0
LINE
  5
248
330
2
100
AcDbEntity
  8
TEXT
100
AcDbLine
 10
0.8501309224034718
 20
1.575624065531607
 30
0.0
 11
0.8501309224034665
 21
1.752914570963075
 31
0.0
  0
LWPOLYLINE
  5
249
330
2
100
AcDbEntity
  8
TEXT
100
AcDbPolyline
 90
        2
 70
     0
 43
0.0
 10
0.791775708568137
 20
1.575624065531607
 10
0.8501309224034709
 20
1.575624065531607
  0
LWPOLYLINE
  5
24A
330
2
100
AcDbEntity
  8
TEXT
100
AcDbPolyline
 90
        2
 70
     0
 43
0.0
 10
0.791775708568137
 20
1.619115010482045
 42
-0.2901071551932486
 10
0.7486997757004925
 20
1.575624065531607
 42
-5.328517124445184
  0
LWPOLYLINE
  5
24B
330
2
100
AcDbEntity
  8
TEXT
100
AcDbPolyline
 90
        2
 70
     0
 43
0.0
 10
0.791775708568137
 20
1.619115010482045
 10
0.791775708568137
 20
1.575624065531607
  0
LINE
  5
24C
330
2
100
AcDbEntity
  8
TEXT
100
AcDbLine
 10
0.8517329375625992
 20
1.842097098520118
 30
0.0
 11
0.7878360312630984
 21
1.842097098520118
 31
0.0
  0
LINE
  5
24D
330
2
100
AcDbEntity
  8
TEXT
100
AcDbLine
 10
0.7878360312630984
 20
1.842097098520118
 30
0.0
 11
0.7878360312630984
 21
1.73688511996669
 31
0.0
  0
LINE
  5
24E
330
2
100
AcDbEntity
  8
TEXT
100
AcDbLine
 10
0.7878360312630984
 20
1.73688511996669
 30
0.0
 11
0.7440852600811967
 21
1.819135395962836
 31
0.0
  0
ARC
  5
24F
330
2
100
AcDbEntity
  8
TEXT
100
AcDbCircle
 10
0.8750367976861301
 20
1.752914528580689
 30
0.0
 40
0.0249058752826653
100
AcDbArc
 50
89.99971217465335
 51
179.9999999999985
  0
ARC
  5
250
330
2
100
AcDbEntity
  8
TEXT
100
AcDbCircle
 10
0.8829257546257078
 20
1.810851371237853
 30
0.0
 40
0.0314112657011332
100
AcDbArc
 50
95.88484768694724
 51
173.2388340632136
  0
LINE
  5
251
330
2
100
AcDbEntity
  8
TEXT
100
AcDbLine
 10
0.8517329375625992
 20
1.814549448659243
 30
0.0
 11
0.8517329375625992
 21
1.842097098520118
 31
0.0
  0
TEXT
  5
252
330
2
100
AcDbEntity
  8
TEXT
100
AcDbText
 10
1.320608456984389
 20
1.668509874177103
 30
0.0
 40
0.0522247191011236
  1
Minneapolis, MN 55432-0008
 41
1.11444212721585
 72
     5
 11
2.649541041254053
 21
1.668509874177103
 31
0.0
100
AcDbText
  0
TEXT
  5
253
330
2
100
AcDbEntity
  8
TEXT
100
AcDbText
 10
1.320608456984389
 20
1.761768301143395
 30
0.0
 40
0.0522247191011236
  1
6536 Main St. N.E. * P.O. Box 32008
 41
0.8388932496075355
 72
     5
 11
2.649541041254053
 21
1.761768301143395
 31
0.0
100
AcDbText
  0
TEXT
  5
254
330
2
100
AcDbEntity
  8
TEXT
100
AcDbText
 10
1.320608456984389
 20
1.855026728109687
 30
0.0
 40
0.0522247191011236
  1
Stylmark  Incorporated
 41
1.221428571428571
 72
     5
 11
2.649541041254053
 21
1.855026728109687
 31
0.0
100
AcDbText
  0
TEXT
  5
255
330
2
100
AcDbEntity
  8
TEXT
100
AcDbText
 10
1.320608456984389
 20
1.575251447210811
 30
0.0
 40
0.0522247191011236
  1
Phone  1-800-328-2495
 41
1.272321428571429
 72
     5
 11
2.649541041254053
 21
1.575251447210811
 31
0.0
100
AcDbText
  0
LINE
  5
256
330
2
100
AcDbEntity
  8
TEXT
100
AcDbLine
 10
1.073052645521374
 20
1.732203855579144
 30
0.0
 11
1.137609761487079
 21
1.842097098520118
 31
0.0
  0
LINE
  5
257
330
2
100
AcDbEntity
  8
TEXT
100
AcDbLine
 10
1.137609761487079
 20
1.842097098520118
 30
0.0
 11
1.062617928757453
 21
1.842097098520118
 31
0.0
  0
LINE
  5
258
330
2
100
AcDbEntity
  8
TEXT
100
AcDbLine
 10
1.091966496508779
 20
1.575624065531607
 30
0.0
 11
1.168544868884985
 21
1.575624065531607
 31
0.0
  0
LINE
  5
259
330
2
100
AcDbEntity
  8
TEXT
100
AcDbLine
 10
1.168544868884985
 20
1.575624065531607
 30
0.0
 11
1.073052645521374
 21
1.732203855579144
 31
0.0
  0
LINE
  5
25A
330
2
100
AcDbEntity
  8
TEXT
100
AcDbLine
 10
1.016062963297314
 20
1.575624065531607
 30
0.0
 11
1.016062963297314
 21
1.707203634007787
 31
0.0
  0
LINE
  5
25B
330
2
100
AcDbEntity
  8
TEXT
100
AcDbLine
 10
1.016062963297314
 20
1.707203634007787
 30
0.0
 11
1.091966496508779
 21
1.575624065531607
 31
0.0
  0
LINE
  5
25C
330
2
100
AcDbEntity
  8
TEXT
100
AcDbLine
 10
0.9516847789786888
 20
1.777820403863352
 30
0.0
 11
0.9516847789786941
 21
1.575624065531607
 31
0.0
  0
LINE
  5
25D
330
2
100
AcDbEntity
  8
TEXT
100
AcDbLine
 10
0.9516847789786941
 20
1.575624065531607
 30
0.0
 11
1.016062963297314
 21
1.575624065531607
 31
0.0
  0
LINE
  5
25E
330
2
100
AcDbEntity
  8
TEXT
100
AcDbLine
 10
1.015519770201467
 20
1.907561304287718
 30
0.0
 11
0.947204891652194
 21
1.907561304287718
 31
0.0
  0
LINE
  5
25F
330
2
100
AcDbEntity
  8
TEXT
100
AcDbLine
 10
0.947204891652194
 20
1.907561304287718
 30
0.0
 11
0.9472048916521886
 21
1.842097098520118
 31
0.0
  0
LINE
  5
260
330
2
100
AcDbEntity
  8
TEXT
100
AcDbLine
 10
1.062617928757451
 20
1.842097098520118
 30
0.0
 11
1.015519770201467
 21
1.76623177210858
 31
0.0
  0
LINE
  5
261
330
2
100
AcDbEntity
  8
TEXT
100
AcDbLine
 10
1.015519770201467
 20
1.76623177210858
 30
0.0
 11
1.015519770201467
 21
1.907561304287718
 31
0.0
  0
ENDSEC
  0
SECTION
  2
OBJECTS
  0
DICTIONARY
  5
1A
330
0
100
AcDbDictionary
  3
ACAD_GROUP
350
18
  3
ACAD_LAYOUT
350
267
  3
ACAD_MLINESTYLE
350
19
  3
ACAD_PLOTSETTINGS
350
268
  3
ACAD_PLOTSTYLENAME
350
265
  3
ACDBHEADERROUNDTRIPXREC
350
272
  3
ACDBVARIABLEDICTIONARY
350
26F
  0
DICTIONARY
  5
292
330
2
100
AcDbDictionary
280
     1
  3
ACAD_LAYOUTSELFREF
360
293
  0
DICTIONARY
  5
294
330
7
100
AcDbDictionary
280
     1
  3
ACAD_LAYOUTSELFREF
360
295
  0
DICTIONARY
  5
18
102
{ACAD_REACTORS
330
1A
102
}
330
1A
100
AcDbDictionary
  0
DICTIONARY
  5
267
102
{ACAD_REACTORS
330
1A
102
}
330
1A
100
AcDbDictionary
  0
DICTIONARY
  5
19
102
{ACAD_REACTORS
330
1A
102
}
330
1A
100
AcDbDictionary
  3
STANDARD
350
1D
  0
DICTIONARY
  5
268
102
{ACAD_REACTORS
330
1A
102
}
330
1A
100
AcDbDictionary
  0
ACDBDICTIONARYWDFLT
  5
265
102
{ACAD_REACTORS
330
1A
102
}
330
1A
100
AcDbDictionary
281
     1
  3
Normal
350
266
100
AcDbDictionaryWithDefault
340
266
  0
DICTIONARY
  5
272
102
{ACAD_REACTORS
330
1A
102
}
330
1A
100
AcDbDictionary
  3
CEPSNTYPE
350
27C
  3
FINGERPRINTGUID
350
27D
  3
HYPERLINKBASE
350
275
  3
INSUNITS
350
27B
  3
LAYOUTDICT
350
277
  3
LWETCUNION
350
27A
  3
PLOTSETDICT
350
278
  3
PLOTSTYLNAMDICT
350
279
  3
PSVPSCALE
350
27F
  3
PUCSBASE
350
282
  3
PUCSORGBACK
350
288
  3
PUCSORGBOTTOM
350
284
  3
PUCSORGFRONT
350
287
  3
PUCSORGLEFT
350
285
  3
PUCSORGRIGHT
350
286
  3
PUCSORGTOP
350
283
  3
PUCSORTHOREF
350
280
  3
PUCSORTHOVIEW
350
281
  3
STYLESHEET
350
276
  3
TSTACKALIGN
350
273
  3
TSTACKSIZE
350
274
  3
UCSBASE
350
28B
  3
UCSORGBACK
350
291
  3
UCSORGBOTTOM
350
28D
  3
UCSORGFRONT
350
290
  3
UCSORGLEFT
350
28E
  3
UCSORGRIGHT
350
28F
  3
UCSORGTOP
350
28C
  3
UCSORTHOREF
350
289
  3
UCSORTHOVIEW
350
28A
  3
VERSIONGUID
350
27E
  0
DICTIONARY
  5
26F
102
{ACAD_REACTORS
330
1A
102
}
330
1A
100
AcDbDictionary
  3
DIMASSOC
350
270
  0
XRECORD
  5
293
102
{ACAD_REACTORS
330
292
102
}
330
292
100
AcDbXrecord
340
2
  0
XRECORD
  5
295
102
{ACAD_REACTORS
330
294
102
}
330
294
100
AcDbXrecord
340
7
  0
MLINESTYLE
  5
1D
102
{ACAD_REACTORS
330
19
102
}
330
19
100
AcDbMlineStyle
  2
STANDARD
 70
     0
  3

 62
   256
 51
90.0
 52
90.0
 71
     2
 49
0.5
 62
   256
  6
BYLAYER
 49
-0.5
 62
   256
  6
BYLAYER
  0
ACDBPLACEHOLDER
  5
266
102
{ACAD_REACTORS
330
265
102
}
330
265
100
AcDbPlaceHolder
280
     0
  0
XRECORD
  5
27C
102
{ACAD_REACTORS
330
272
102
}
330
272
100
AcDbXrecord
 90
        0
  0
XRECORD
  5
27D
102
{ACAD_REACTORS
330
272
102
}
330
272
100
AcDbXrecord
  1
{14098950-8DB9-11D6-88E6-0090279574E7}
  0
XRECORD
  5
275
102
{ACAD_REACTORS
330
272
102
}
330
272
100
AcDbXrecord
  1

  0
XRECORD
  5
27B
102
{ACAD_REACTORS
330
272
102
}
330
272
100
AcDbXrecord
 90
        0
  0
XRECORD
  5
277
102
{ACAD_REACTORS
330
272
102
}
330
272
100
AcDbXrecord
340
267
  0
XRECORD
  5
27A
102
{ACAD_REACTORS
330
272
102
}
330
272
100
AcDbXrecord
 90
    14877
  0
XRECORD
  5
278
102
{ACAD_REACTORS
330
272
102
}
330
272
100
AcDbXrecord
340
268
  0
XRECORD
  5
279
102
{ACAD_REACTORS
330
272
102
}
330
272
100
AcDbXrecord
340
265
  0
XRECORD
  5
27F
102
{ACAD_REACTORS
330
272
102
}
330
272
100
AcDbXrecord
 40
0.0
  0
XRECORD
  5
282
102
{ACAD_REACTORS
330
272
102
}
330
272
100
AcDbXrecord
340
0
  0
XRECORD
  5
288
102
{ACAD_REACTORS
330
272
102
}
330
272
100
AcDbXrecord
 10
0.0
 20
0.0
 30
0.0
  0
XRECORD
  5
284
102
{ACAD_REACTORS
330
272
102
}
330
272
100
AcDbXrecord
 10
0.0
 20
0.0
 30
0.0
  0
XRECORD
  5
287
102
{ACAD_REACTORS
330
272
102
}
330
272
100
AcDbXrecord
 10
0.0
 20
0.0
 30
0.0
  0
XRECORD
  5
285
102
{ACAD_REACTORS
330
272
102
}
330
272
100
AcDbXrecord
 10
0.0
 20
0.0
 30
0.0
  0
XRECORD
  5
286
102
{ACAD_REACTORS
330
272
102
}
330
272
100
AcDbXrecord
 10
0.0
 20
0.0
 30
0.0
  0
XRECORD
  5
283
102
{ACAD_REACTORS
330
272
102
}
330
272
100
AcDbXrecord
 10
0.0
 20
0.0
 30
0.0
  0
XRECORD
  5
280
102
{ACAD_REACTORS
330
272
102
}
330
272
100
AcDbXrecord
340
0
  0
XRECORD
  5
281
102
{ACAD_REACTORS
330
272
102
}
330
272
100
AcDbXrecord
 70
     0
  0
XRECORD
  5
276
102
{ACAD_REACTORS
330
272
102
}
330
272
100
AcDbXrecord
  1

  0
XRECORD
  5
273
102
{ACAD_REACTORS
330
272
102
}
330
272
100
AcDbXrecord
 90
        1
  0
XRECORD
  5
274
102
{ACAD_REACTORS
330
272
102
}
330
272
100
AcDbXrecord
 90
       70
  0
XRECORD
  5
28B
102
{ACAD_REACTORS
330
272
102
}
330
272
100
AcDbXrecord
340
0
  0
XRECORD
  5
291
102
{ACAD_REACTORS
330
272
102
}
330
272
100
AcDbXrecord
 10
0.0
 20
0.0
 30
0.0
  0
XRECORD
  5
28D
102
{ACAD_REACTORS
330
272
102
}
330
272
100
AcDbXrecord
 10
0.0
 20
0.0
 30
0.0
  0
XRECORD
  5
290
102
{ACAD_REACTORS
330
272
102
}
330
272
100
AcDbXrecord
 10
0.0
 20
0.0
 30
0.0
  0
XRECORD
  5
28E
102
{ACAD_REACTORS
330
272
102
}
330
272
100
AcDbXrecord
 10
0.0
 20
0.0
 30
0.0
  0
XRECORD
  5
28F
102
{ACAD_REACTORS
330
272
102
}
330
272
100
AcDbXrecord
 10
0.0
 20
0.0
 30
0.0
  0
XRECORD
  5
28C
102
{ACAD_REACTORS
330
272
102
}
330
272
100
AcDbXrecord
 10
0.0
 20
0.0
 30
0.0
  0
XRECORD
  5
289
102
{ACAD_REACTORS
330
272
102
}
330
272
100
AcDbXrecord
340
0
  0
XRECORD
  5
28A
102
{ACAD_REACTORS
330
272
102
}
330
272
100
AcDbXrecord
 70
     0
  0
XRECORD
  5
27E
102
{ACAD_REACTORS
330
272
102
}
330
272
100
AcDbXrecord
  1
{14098952-8DB9-11D6-88E6-0090279574E7}
  0
DICTIONARYVAR
  5
270
102
{ACAD_REACTORS
330
26F
102
}
330
26F
100
DictionaryVariables
280
     0
  1
1
  0
ENDSEC
  0
EOF
