  0
SECTION
  2
HEADER
  9
$ACADVER
  1
AC1014
  9
$ACADMAINTVER
 70
     9
  9
$DWGCODEPAGE
  3
ANSI_1252
  9
$INSBASE
 10
0.0
 20
0.0
 30
0.0
  9
$EXTMIN
 10
-0.0219928602335713
 20
1.589391863288456
 30
0.0
  9
$EXTMAX
 10
3.463226461513556
 20
3.425472177873113
 30
0.0
  9
$LIMMIN
 10
0.0
 20
0.0
  9
$LIMMAX
 10
12.0
 20
9.0
  9
$ORTHOMODE
 70
     1
  9
$REGENMODE
 70
     1
  9
$FILLMODE
 70
     1
  9
$QTEXTMODE
 70
     0
  9
$MIRRTEXT
 70
     0
  9
$DRAGMODE
 70
     2
  9
$LTSCALE
 40
1.0
  9
$OSMODE
 70
    39
  9
$ATTMODE
 70
     1
  9
$TEXTSIZE
 40
0.125
  9
$TRACEWID
 40
0.05
  9
$TEXTSTYLE
  7
ROMANS
  9
$CLAYER
  8
DIM
  9
$CELTYPE
  6
BYLAYER
  9
$CECOLOR
 62
   256
  9
$CELTSCALE
 40
1.0
  9
$DELOBJ
 70
     1
  9
$DISPSILH
 70
     1
  9
$DIMSCALE
 40
1.0
  9
$DIMASZ
 40
0.125
  9
$DIMEXO
 40
0.125
  9
$DIMDLI
 40
0.38
  9
$DIMRND
 40
0.0
  9
$DIMDLE
 40
0.0
  9
$DIMEXE
 40
0.125
  9
$DIMTP
 40
0.0
  9
$DIMTM
 40
0.0
  9
$DIMTXT
 40
0.125
  9
$DIMCEN
 40
-0.125
  9
$DIMTSZ
 40
0.0
  9
$DIMTOL
 70
     0
  9
$DIMLIM
 70
     0
  9
$DIMTIH
 70
     1
  9
$DIMTOH
 70
     1
  9
$DIMSE1
 70
     0
  9
$DIMSE2
 70
     0
  9
$DIMTAD
 70
     0
  9
$DIMZIN
 70
     4
  9
$DIMBLK
  1

  9
$DIMASO
 70
     1
  9
$DIMSHO
 70
     1
  9
$DIMPOST
  1

  9
$DIMAPOST
  1

  9
$DIMALT
 70
     0
  9
$DIMALTD
 70
     2
  9
$DIMALTF
 40
25.4
  9
$DIMLFAC
 40
0.5
  9
$DIMTOFL
 70
     0
  9
$DIMTVP
 40
0.0
  9
$DIMTIX
 70
     0
  9
$DIMSOXD
 70
     0
  9
$DIMSAH
 70
     0
  9
$DIMBLK1
  1

  9
$DIMBLK2
  1

  9
$DIMSTYLE
  2
STANDARD
  9
$DIMCLRD
 70
     0
  9
$DIMCLRE
 70
     0
  9
$DIMCLRT
 70
     0
  9
$DIMTFAC
 40
1.0
  9
$DIMGAP
 40
0.09
  9
$DIMJUST
 70
     0
  9
$DIMSD1
 70
     0
  9
$DIMSD2
 70
     0
  9
$DIMTOLJ
 70
     1
  9
$DIMTZIN
 70
     4
  9
$DIMALTZ
 70
     0
  9
$DIMALTTZ
 70
     0
  9
$DIMFIT
 70
     3
  9
$DIMUPT
 70
     1
  9
$DIMUNIT
 70
     2
  9
$DIMDEC
 70
     3
  9
$DIMTDEC
 70
     3
  9
$DIMALTU
 70
     2
  9
$DIMALTTD
 70
     2
  9
$DIMTXSTY
  7
ROMANS
  9
$DIMAUNIT
 70
     0
  9
$LUNITS
 70
     2
  9
$LUPREC
 70
     8
  9
$SKETCHINC
 40
0.1
  9
$FILLETRAD
 40
0.015
  9
$AUNITS
 70
     0
  9
$AUPREC
 70
     0
  9
$MENU
  1
.
  9
$ELEVATION
 40
0.0
  9
$PELEVATION
 40
0.0
  9
$THICKNESS
 40
0.0
  9
$LIMCHECK
 70
     0
  9
$BLIPMODE
 70
     0
  9
$CHAMFERA
 40
0.0
  9
$CHAMFERB
 40
0.0
  9
$CHAMFERC
 40
1.0
  9
$CHAMFERD
 40
0.0
  9
$SKPOLY
 70
     1
  9
$TDCREATE
 40
2451242.713709421
  9
$TDUPDATE
 40
2452458.320537037
  9
$TDINDWG
 40
3.7494147454
  9
$TDUSRTIMER
 40
3.7494147454
  9
$USRTIMER
 70
     1
  9
$ANGBASE
 50
0.0
  9
$ANGDIR
 70
     0
  9
$PDMODE
 70
     0
  9
$PDSIZE
 40
0.0
  9
$PLINEWID
 40
0.0
  9
$COORDS
 70
     2
  9
$SPLFRAME
 70
     0
  9
$SPLINETYPE
 70
     6
  9
$SPLINESEGS
 70
     8
  9
$ATTDIA
 70
     0
  9
$ATTREQ
 70
     1
  9
$HANDLING
 70
 22529
  9
$HANDSEED
  5
35F
  9
$SURFTAB1
 70
     6
  9
$SURFTAB2
 70
     6
  9
$SURFTYPE
 70
     6
  9
$SURFU
 70
     6
  9
$SURFV
 70
     6
  9
$UCSNAME
  2

  9
$UCSORG
 10
0.0
 20
0.0
 30
0.0
  9
$UCSXDIR
 10
1.0
 20
0.0
 30
0.0
  9
$UCSYDIR
 10
0.0
 20
1.0
 30
0.0
  9
$PUCSNAME
  2

  9
$PUCSORG
 10
0.0
 20
0.0
 30
0.0
  9
$PUCSXDIR
 10
1.0
 20
0.0
 30
0.0
  9
$PUCSYDIR
 10
0.0
 20
1.0
 30
0.0
  9
$USERI1
 70
     0
  9
$USERI2
 70
     0
  9
$USERI3
 70
     0
  9
$USERI4
 70
     0
  9
$USERI5
 70
     0
  9
$USERR1
 40
0.0
  9
$USERR2
 40
0.0
  9
$USERR3
 40
0.0
  9
$USERR4
 40
0.0
  9
$USERR5
 40
0.0
  9
$WORLDVIEW
 70
     1
  9
$SHADEDGE
 70
     3
  9
$SHADEDIF
 70
    70
  9
$TILEMODE
 70
     1
  9
$MAXACTVP
 70
    48
  9
$PINSBASE
 10
0.0
 20
0.0
 30
0.0
  9
$PLIMCHECK
 70
     0
  9
$PEXTMIN
 10
-0.0020527379313506
 20
-0.0001278649645542
 30
-92.25940516179951
  9
$PEXTMAX
 10
34.00072386417291
 20
22.00164568477374
 30
92.26735686918942
  9
$PLIMMIN
 10
0.0
 20
0.0
  9
$PLIMMAX
 10
12.0
 20
9.0
  9
$UNITMODE
 70
     0
  9
$VISRETAIN
 70
     1
  9
$PLINEGEN
 70
     1
  9
$PSLTSCALE
 70
     1
  9
$TREEDEPTH
 70
  3020
  9
$PICKSTYLE
 70
     1
  9
$CMLSTYLE
  2
STANDARD
  9
$CMLJUST
 70
     0
  9
$CMLSCALE
 40
1.0
  9
$PROXYGRAPHICS
 70
     1
  9
$MEASUREMENT
 70
     0
  0
ENDSEC
  0
SECTION
  2
CLASSES
  0
CLASS
  1
LWPOLYLINE
  2
AcDbPolyline
  3
AutoCAD 2000
 90
        0
280
     0
281
     1
  0
CLASS
  1
DICTIONARYVAR
  2
AcDbDictionaryVar
  3
AutoCAD 2000
 90
        0
280
     0
281
     0
  0
CLASS
  1
HATCH
  2
AcDbHatch
  3
AutoCAD 2000
 90
        0
280
     0
281
     1
  0
CLASS
  1
ACDBDICTIONARYWDFLT
  2
AcDbDictionaryWithDefault
  3
AutoCAD 2000
 90
        0
280
     0
281
     0
  0
CLASS
  1
ACDBPLACEHOLDER
  2
AcDbPlaceHolder
  3
AutoCAD 2000
 90
        0
280
     0
281
     0
  0
CLASS
  1
LAYOUT
  2
AcDbLayout
  3
AutoCAD 2000
 90
        0
280
     0
281
     0
  0
CLASS
  1
LONG_TRANSACTION
  2
AcDbLongTransaction
  3
AutoCAD 2000
 90
        0
280
     0
281
     0
  0
CLASS
  1
LWPOLYLINE
  2
AcDbPolyline
  3
AutoCAD 2000
 90
        0
280
     0
281
     1
  0
CLASS
  1
HATCH
  2
AcDbHatch
  3
AutoCAD 2000
 90
        0
280
     0
281
     1
  0
CLASS
  1
XRECORD
  2
AcDbXrecord
  3
AutoCAD 2000
 90
        0
280
     0
281
     0
  0
ENDSEC
  0
SECTION
  2
TABLES
  0
TABLE
  2
VPORT
  5
12
330
0
100
AcDbSymbolTable
 70
     2
  0
VPORT
  5
33A
330
12
100
AcDbSymbolTableRecord
100
AcDbViewportTableRecord
  2
*ACTIVE
 70
     0
 10
0.0
 20
0.0
 11
1.0
 21
1.0
 12
-143.3189490319987
 22
-5.618594214262122
 13
0.0
 23
0.0
 14
0.5
 24
0.5
 15
0.5
 25
0.5
 16
0.0
 26
0.0
 36
1.0
 17
147.9620343232253
 27
8.126241250426838
 37
18.46874554278985
 40
2.164043434810691
 41
4.320930232558139
 42
50.0
 43
-147.9620343232253
 44
-147.9620343232253
 50
0.0
 51
0.0
 71
     0
 72
  2000
 73
     1
 74
     1
 75
     0
 76
     0
 77
     0
 78
     0
  0
ENDTAB
  0
TABLE
  2
LTYPE
  5
D
330
0
100
AcDbSymbolTable
 70
     1
  0
LTYPE
  5
E
330
D
100
AcDbSymbolTableRecord
100
AcDbLinetypeTableRecord
  2
BYBLOCK
 70
     0
  3

 72
    65
 73
     0
 40
0.0
  0
LTYPE
  5
F
330
D
100
AcDbSymbolTableRecord
100
AcDbLinetypeTableRecord
  2
BYLAYER
 70
     0
  3

 72
    65
 73
     0
 40
0.0
  0
LTYPE
  5
5
330
D
100
AcDbSymbolTableRecord
100
AcDbLinetypeTableRecord
  2
CONTINUOUS
 70
     0
  3
Solid line
 72
    65
 73
     0
 40
0.0
  0
ENDTAB
  0
TABLE
  2
LAYER
  5
A
330
0
100
AcDbSymbolTable
 70
     3
  0
LAYER
  5
4
330
A
100
AcDbSymbolTableRecord
100
AcDbLayerTableRecord
  2
0
 70
     0
 62
     7
  6
CONTINUOUS
  0
LAYER
  5
22
330
A
100
AcDbSymbolTableRecord
100
AcDbLayerTableRecord
  2
TEXT
 70
     0
 62
     3
  6
CONTINUOUS
  0
LAYER
  5
F2
330
A
100
AcDbSymbolTableRecord
100
AcDbLayerTableRecord
  2
DIM
 70
     0
 62
     4
  6
CONTINUOUS
  0
ENDTAB
  0
TABLE
  2
STYLE
  5
B
330
0
100
AcDbSymbolTable
 70
     3
  0
STYLE
  5
C
330
B
100
AcDbSymbolTableRecord
100
AcDbTextStyleTableRecord
  2
STANDARD
 70
     0
 40
0.0
 41
1.0
 50
0.0
 71
     0
 42
0.2
  3
txt
  4

  0
STYLE
  5
1B
330
B
100
AcDbSymbolTableRecord
100
AcDbTextStyleTableRecord
  2
ROMANS
 70
     0
 40
0.0
 41
1.0
 50
0.0
 71
     0
 42
0.125
  3
romans.shx
  4

  0
STYLE
  5
227
330
B
100
AcDbSymbolTableRecord
100
AcDbTextStyleTableRecord
  2
ITALICC
 70
     0
 40
0.0
 41
1.0
 50
0.0
 71
     0
 42
0.125
  3
italicc
  4

  0
ENDTAB
  0
TABLE
  2
VIEW
  5
10
330
0
100
AcDbSymbolTable
 70
     0
  0
ENDTAB
  0
TABLE
  2
UCS
  5
11
330
0
100
AcDbSymbolTable
 70
     0
  0
ENDTAB
  0
TABLE
  2
APPID
  5
14
330
0
100
AcDbSymbolTable
 70
     1
  0
APPID
  5
15
330
14
100
AcDbSymbolTableRecord
100
AcDbRegAppTableRecord
  2
ACAD
 70
     0
  0
ENDTAB
  0
TABLE
  2
DIMSTYLE
  5
16
330
0
100
AcDbSymbolTable
 70
     1
  0
DIMSTYLE
105
1D
330
16
100
AcDbSymbolTableRecord
100
AcDbDimStyleTableRecord
  2
STANDARD
 70
     0
  3

  4

  5

  6

  7

 40
1.0
 41
0.125
 42
0.125
 43
0.38
 44
0.125
 45
0.0
 46
0.0
 47
0.0
 48
0.0
140
0.125
141
-0.125
142
0.0
143
25.4
144
0.5
145
0.0
146
1.0
147
0.09
 71
     0
 72
     0
 73
     1
 74
     1
 75
     0
 76
     0
 77
     0
 78
     4
170
     0
171
     2
172
     0
173
     0
174
     0
175
     0
176
     0
177
     0
178
     0
270
     2
271
     3
272
     3
273
     2
274
     2
340
1B
275
     0
280
     0
281
     0
282
     0
283
     1
284
     4
285
     0
286
     0
287
     3
288
     1
  0
ENDTAB
  0
TABLE
  2
BLOCK_RECORD
  5
1
330
0
100
AcDbSymbolTable
 70
     0
  0
BLOCK_RECORD
  5
2
102
{ACAD_XDICTIONARY
360
35B
102
}
330
1
100
AcDbSymbolTableRecord
100
AcDbBlockTableRecord
  2
*MODEL_SPACE
  0
BLOCK_RECORD
  5
7
102
{ACAD_XDICTIONARY
360
35D
102
}
330
1
100
AcDbSymbolTableRecord
100
AcDbBlockTableRecord
  2
*PAPER_SPACE
  0
ENDTAB
  0
ENDSEC
  0
SECTION
  2
BLOCKS
  0
BLOCK
  5
3
330
2
100
AcDbEntity
  8
0
100
AcDbBlockBegin
  2
*MODEL_SPACE
 70
     0
 10
0.0
 20
0.0
 30
0.0
  3
*MODEL_SPACE
  1

  0
ENDBLK
  5
6
330
2
100
AcDbEntity
  8
0
100
AcDbBlockEnd
  0
BLOCK
  5
8
330
7
100
AcDbEntity
 67
     1
  8
0
100
AcDbBlockBegin
  2
*PAPER_SPACE
 70
     0
 10
0.0
 20
0.0
 30
0.0
  3
*PAPER_SPACE
  1

  0
ENDBLK
  5
9
330
7
100
AcDbEntity
 67
     1
  8
0
100
AcDbBlockEnd
  0
ENDSEC
  0
SECTION
  2
ENTITIES
  0
LWPOLYLINE
  5
137
330
2
100
AcDbEntity
  8
0
100
AcDbPolyline
 90
       12
 70
   129
 43
0.0
 10
1.20516993415751
 20
2.425472177873112
 10
1.20516993415751
 20
3.300472177873113
 10
0.3301699341575102
 20
3.300472177873113
 10
0.3301699341575102
 20
3.425472177873113
 10
1.33016993415751
 20
3.425472177873113
 10
1.33016993415751
 20
2.550472177873112
 10
2.08016993415751
 20
2.550472177873112
 10
2.08016993415751
 20
3.425472177873113
 10
3.08016993415751
 20
3.425472177873113
 10
3.08016993415751
 20
3.300472177873113
 10
2.20516993415751
 20
3.300472177873113
 10
2.20516993415751
 20
2.425472177873112
  0
TEXT
  5
2AC
330
2
100
AcDbEntity
  8
TEXT
100
AcDbText
 10
0.968012528517381
 20
2.047410467371038
 30
0.0
 40
0.125
  1
PART #110642
  7
ITALICC
 72
     1
 11
1.720988718993571
 21
2.047410467371038
 31
0.0
100
AcDbText
  0
LINE
  5
2AD
330
2
100
AcDbEntity
  8
TEXT
100
AcDbLine
 10
1.688722217945634
 20
1.803056781351204
 30
0.0
 11
1.765370199238192
 21
1.803056781351204
 31
0.0
  0
LINE
  5
2AE
330
2
100
AcDbEntity
  8
TEXT
100
AcDbLine
 10
1.760890311911691
 20
1.86733347600797
 30
0.0
 11
1.693390594262175
 21
1.86733347600797
 31
0.0
  0
LWPOLYLINE
  5
2AF
330
2
100
AcDbEntity
  8
TEXT
100
AcDbPolyline
 90
        5
 70
     0
 43
0.0001332181640625
 10
0.0516101754109593
 20
1.744106674250157
 10
0.064931991817208
 20
1.744106674250157
 10
0.064931991817208
 20
1.780741669367347
 10
0.1015669869343978
 20
1.780741669367347
 10
0.1015669869343978
 20
1.794063485773594
  0
LWPOLYLINE
  5
2B0
330
2
100
AcDbEntity
  8
TEXT
100
AcDbPolyline
 90
        3
 70
     0
 43
0.0006660908203125
 10
0.0915756246297073
 20
1.840689843195472
 10
0.0049838179890824
 20
1.840689843195472
 10
0.0049838179890824
 20
1.754098036554846
  0
LWPOLYLINE
  5
2B1
330
2
100
AcDbEntity
  8
TEXT
100
AcDbPolyline
 90
        3
 70
     0
 43
0.0006660908203125
 10
0.0915756246297073
 20
1.867333476007973
 10
-0.0216598148234151
 20
1.867333476007973
 10
-0.0216598148234151
 20
1.754098036554846
  0
LWPOLYLINE
  5
2B2
330
2
100
AcDbEntity
  8
TEXT
100
AcDbPolyline
 90
        5
 70
     0
 43
0.0001332181640625
 10
0.1015669869343978
 20
1.674167138117346
 10
0.1015669869343978
 20
1.687488954523597
 10
0.0649319918172098
 20
1.687488954523597
 10
0.0649319918172098
 20
1.724123949640783
 10
0.0516101754109593
 20
1.724123949640783
  0
LWPOLYLINE
  5
2B3
330
2
100
AcDbEntity
  8
TEXT
100
AcDbPolyline
 90
        3
 70
     0
 43
0.0006660908203125
 10
0.0049838179890824
 20
1.714132587336098
 10
0.0049838179890824
 20
1.627540780695471
 10
0.0915756246297073
 20
1.627540780695471
  0
LWPOLYLINE
  5
2B4
330
2
100
AcDbEntity
  8
TEXT
100
AcDbPolyline
 90
        3
 70
     0
 43
0.0006660908203125
 10
-0.0216598148234151
 20
1.714132587336098
 10
-0.0216598148234151
 20
1.60089714788297
 10
0.0915756246297073
 20
1.60089714788297
  0
LWPOLYLINE
  5
2B5
330
2
100
AcDbEntity
  8
TEXT
100
AcDbPolyline
 90
        2
 70
     0
 43
0.0001332181640625
 10
0.0049838179890824
 20
1.714132587336098
 10
0.0649319918172098
 20
1.724123949640783
  0
LWPOLYLINE
  5
2B6
330
2
100
AcDbEntity
  8
TEXT
100
AcDbPolyline
 90
        2
 70
     0
 43
0.0001332181640625
 10
0.0516101754109593
 20
1.724123949640783
 10
-0.0216598148234151
 20
1.714132587336098
  0
LWPOLYLINE
  5
2B7
330
2
100
AcDbEntity
  8
TEXT
100
AcDbPolyline
 90
        2
 70
     0
 43
0.0006660908203125
 10
0.0049838179890824
 20
1.714132587336098
 10
-0.0216598148234151
 20
1.714132587336098
  0
LWPOLYLINE
  5
2B8
330
2
100
AcDbEntity
  8
TEXT
100
AcDbPolyline
 90
        2
 70
     0
 43
0.0001332181640625
 10
0.0049838179890824
 20
1.627540780695471
 10
0.0649319918172098
 20
1.687488954523597
  0
LWPOLYLINE
  5
2B9
330
2
100
AcDbEntity
  8
TEXT
100
AcDbPolyline
 90
        2
 70
     0
 43
0.0006660908203125
 10
0.0049838179890824
 20
1.754098036554846
 10
-0.0216598148234151
 20
1.754098036554846
  0
LWPOLYLINE
  5
2BA
330
2
100
AcDbEntity
  8
TEXT
100
AcDbPolyline
 90
        2
 70
     0
 43
0.0001332181640625
 10
-0.0216598148234151
 20
1.754098036554846
 10
0.0516101754109593
 20
1.744106674250157
  0
LWPOLYLINE
  5
2BB
330
2
100
AcDbEntity
  8
TEXT
100
AcDbPolyline
 90
        2
 70
     0
 43
0.0001332181640625
 10
0.0049838179890824
 20
1.754098036554846
 10
0.064931991817208
 20
1.744106674250157
  0
LWPOLYLINE
  5
2BC
330
2
100
AcDbEntity
  8
TEXT
100
AcDbPolyline
 90
        2
 70
     0
 43
0.0001332181640625
 10
0.0049838179890824
 20
1.840689843195472
 10
0.064931991817208
 20
1.780741669367347
  0
LWPOLYLINE
  5
2BD
330
2
100
AcDbEntity
  8
TEXT
100
AcDbPolyline
 90
        5
 70
     0
 43
0.0001332181640625
 10
0.1715065230672086
 20
1.724123949640783
 10
0.1581847066609598
 20
1.724123949640783
 10
0.1581847066609598
 20
1.687488954523597
 10
0.12154971154377
 20
1.687488954523597
 10
0.12154971154377
 20
1.674167138117346
  0
LWPOLYLINE
  5
2BE
330
2
100
AcDbEntity
  8
TEXT
100
AcDbPolyline
 90
        2
 70
     0
 43
0.0001332181640625
 10
0.2181328804890836
 20
1.714132587336098
 10
0.1581847066609598
 20
1.724123949640783
  0
LWPOLYLINE
  5
2BF
330
2
100
AcDbEntity
  8
TEXT
100
AcDbPolyline
 90
        2
 70
     0
 43
0.0001332181640625
 10
0.2447765133015847
 20
1.714132587336098
 10
0.1715065230672086
 20
1.724123949640783
  0
LWPOLYLINE
  5
2C0
330
2
100
AcDbEntity
  8
TEXT
100
AcDbPolyline
 90
        3
 70
     0
 43
0.0006660908203125
 10
0.1315410738484588
 20
1.60089714788297
 10
0.2447765133015847
 20
1.60089714788297
 10
0.2447765133015847
 20
1.714132587336098
  0
LWPOLYLINE
  5
2C1
330
2
100
AcDbEntity
  8
TEXT
100
AcDbPolyline
 90
        3
 70
     0
 43
0.0006660908203125
 10
0.1315410738484588
 20
1.627540780695471
 10
0.2181328804890836
 20
1.627540780695471
 10
0.2181328804890836
 20
1.714132587336098
  0
LWPOLYLINE
  5
2C2
330
2
100
AcDbEntity
  8
TEXT
100
AcDbPolyline
 90
        2
 70
     0
 43
0.0001332181640625
 10
0.2181328804890836
 20
1.627540780695471
 10
0.1581847066609598
 20
1.687488954523597
  0
LWPOLYLINE
  5
2C3
330
2
100
AcDbEntity
  8
TEXT
100
AcDbPolyline
 90
        2
 70
     0
 43
0.0006660908203125
 10
0.1315410738484588
 20
1.627540780695471
 10
0.1315410738484588
 20
1.60089714788297
  0
LWPOLYLINE
  5
2C4
330
2
100
AcDbEntity
  8
TEXT
100
AcDbPolyline
 90
        2
 70
     0
 43
0.0001332181640625
 10
0.12154971154377
 20
1.674167138117346
 10
0.1315410738484588
 20
1.60089714788297
  0
LWPOLYLINE
  5
2C5
330
2
100
AcDbEntity
  8
TEXT
100
AcDbPolyline
 90
        2
 70
     0
 43
0.0001332181640625
 10
0.1315410738484588
 20
1.627540780695471
 10
0.12154971154377
 20
1.687488954523597
  0
LWPOLYLINE
  5
2C6
330
2
100
AcDbEntity
  8
TEXT
100
AcDbPolyline
 90
        2
 70
     0
 43
0.0001332181640625
 10
0.0915756246297073
 20
1.60089714788297
 10
0.1015669869343978
 20
1.674167138117346
  0
LWPOLYLINE
  5
2C7
330
2
100
AcDbEntity
  8
TEXT
100
AcDbPolyline
 90
        2
 70
     0
 43
0.0001332181640625
 10
0.0915756246297073
 20
1.627540780695471
 10
0.1015669869343978
 20
1.687488954523597
  0
LWPOLYLINE
  5
2C8
330
2
100
AcDbEntity
  8
TEXT
100
AcDbPolyline
 90
        2
 70
     0
 43
0.0006660908203125
 10
0.0915756246297073
 20
1.627540780695471
 10
0.0915756246297073
 20
1.60089714788297
  0
LWPOLYLINE
  5
2C9
330
2
100
AcDbEntity
  8
TEXT
100
AcDbPolyline
 90
        2
 70
     0
 43
0.0006660908203125
 10
0.2181328804890836
 20
1.714132587336098
 10
0.2447765133015847
 20
1.714132587336098
  0
LWPOLYLINE
  5
2CA
330
2
100
AcDbEntity
  8
TEXT
100
AcDbPolyline
 90
        2
 70
     0
 43
0.0001332181640625
 10
0.2181328804890836
 20
1.840689843195472
 10
0.1581847066609598
 20
1.780741669367347
  0
LWPOLYLINE
  5
2CB
330
2
100
AcDbEntity
  8
TEXT
100
AcDbPolyline
 90
        2
 70
     0
 43
0.0001332181640625
 10
0.2181328804890836
 20
1.754098036554846
 10
0.1581847066609598
 20
1.744106674250157
  0
LWPOLYLINE
  5
2CC
330
2
100
AcDbEntity
  8
TEXT
100
AcDbPolyline
 90
        2
 70
     0
 43
0.0001332181640625
 10
0.1715065230672086
 20
1.744106674250157
 10
0.2447765133015847
 20
1.754098036554846
  0
LWPOLYLINE
  5
2CD
330
2
100
AcDbEntity
  8
TEXT
100
AcDbPolyline
 90
        3
 70
     0
 43
0.0006660908203125
 10
0.2181328804890836
 20
1.754098036554846
 10
0.2181328804890836
 20
1.840689843195472
 10
0.1315410738484588
 20
1.840689843195472
  0
LWPOLYLINE
  5
2CE
330
2
100
AcDbEntity
  8
TEXT
100
AcDbPolyline
 90
        3
 70
     0
 43
0.0006660908203125
 10
0.2447765133015847
 20
1.754098036554846
 10
0.2447765133015847
 20
1.867333476007973
 10
0.1315410738484588
 20
1.867333476007973
  0
LWPOLYLINE
  5
2CF
330
2
100
AcDbEntity
  8
TEXT
100
AcDbPolyline
 90
        2
 70
     0
 43
0.0001332181640625
 10
0.1315410738484588
 20
1.867333476007973
 10
0.12154971154377
 20
1.794063485773594
  0
LWPOLYLINE
  5
2D0
330
2
100
AcDbEntity
  8
TEXT
100
AcDbPolyline
 90
        2
 70
     0
 43
0.0001332181640625
 10
0.1315410738484588
 20
1.840689843195472
 10
0.12154971154377
 20
1.780741669367347
  0
LWPOLYLINE
  5
2D1
330
2
100
AcDbEntity
  8
TEXT
100
AcDbPolyline
 90
        2
 70
     0
 43
0.0006660908203125
 10
0.1315410738484588
 20
1.840689843195472
 10
0.1315410738484588
 20
1.867333476007973
  0
LWPOLYLINE
  5
2D2
330
2
100
AcDbEntity
  8
TEXT
100
AcDbPolyline
 90
        5
 70
     0
 43
0.0001332181640625
 10
0.12154971154377
 20
1.794063485773594
 10
0.12154971154377
 20
1.780741669367347
 10
0.1581847066609598
 20
1.780741669367347
 10
0.1581847066609598
 20
1.744106674250157
 10
0.1715065230672086
 20
1.744106674250157
  0
LWPOLYLINE
  5
2D3
330
2
100
AcDbEntity
  8
TEXT
100
AcDbPolyline
 90
        2
 70
     0
 43
0.0001332181640625
 10
0.0915756246297073
 20
1.840689843195472
 10
0.1015669869343978
 20
1.780741669367347
  0
LWPOLYLINE
  5
2D4
330
2
100
AcDbEntity
  8
TEXT
100
AcDbPolyline
 90
        2
 70
     0
 43
0.0001332181640625
 10
0.1015669869343978
 20
1.794063485773594
 10
0.0915756246297073
 20
1.867333476007973
  0
LWPOLYLINE
  5
2D5
330
2
100
AcDbEntity
  8
TEXT
100
AcDbPolyline
 90
        2
 70
     0
 43
0.0006660908203125
 10
0.0915756246297073
 20
1.840689843195472
 10
0.0915756246297073
 20
1.867333476007973
  0
LWPOLYLINE
  5
2D6
330
2
100
AcDbEntity
  8
TEXT
100
AcDbPolyline
 90
        2
 70
     0
 43
0.0006660908203125
 10
0.2181328804890836
 20
1.754098036554846
 10
0.2447765133015847
 20
1.754098036554846
  0
LWPOLYLINE
  5
2D7
330
2
100
AcDbEntity
  8
TEXT
100
AcDbPolyline
 90
        2
 70
     0
 43
0.0
 10
0.9635564340502149
 20
1.652411785234387
 42
0.3318488747599744
 10
1.032675726615527
 20
1.600860443019459
 42
-6.868794160588311
  0
LINE
  5
2D8
330
2
100
AcDbEntity
  8
TEXT
100
AcDbLine
 10
1.031536153119332
 20
1.93534495374678
 30
0.0
 11
0.9647274405529673
 21
1.93534495374678
 31
0.0
  0
LINE
  5
2D9
330
2
100
AcDbEntity
  8
TEXT
100
AcDbLine
 10
0.6853850729338733
 20
1.86733347600797
 30
0.0
 11
0.5096533200353619
 21
1.86733347600797
 31
0.0
  0
ARC
  5
2DA
330
2
100
AcDbEntity
  8
TEXT
100
AcDbCircle
 10
0.5804907863939115
 20
1.684056251380016
 30
0.0
 40
0.0831958083605586
100
AcDbArc
 50
270.0
 51
90.0
  0
LINE
  5
2DB
330
2
100
AcDbEntity
  8
TEXT
100
AcDbLine
 10
0.51489065014961
 20
1.803056781351204
 30
0.0
 11
0.6817963041785804
 21
1.803056781351204
 31
0.0
  0
LINE
  5
2DC
330
2
100
AcDbEntity
  8
TEXT
100
AcDbLine
 10
0.5854311603001908
 20
1.669217449352898
 30
0.0
 11
0.4275658605888566
 21
1.669217449352898
 31
0.0
  0
LINE
  5
2DD
330
2
100
AcDbEntity
  8
TEXT
100
AcDbLine
 10
0.4275658605888584
 20
1.600860443019459
 30
0.0
 11
0.5804907863939111
 21
1.600860443019459
 31
0.0
  0
ARC
  5
2DE
330
2
100
AcDbEntity
  8
TEXT
100
AcDbCircle
 10
0.5096533200353624
 20
1.785246016561468
 30
0.0
 40
0.0820874594465043
100
AcDbArc
 50
90.0
 51
270.0
  0
LINE
  5
2DF
330
2
100
AcDbEntity
  8
TEXT
100
AcDbLine
 10
0.4275658605888566
 20
1.669217449352898
 30
0.0
 11
0.4275658605888584
 21
1.600860443019459
 31
0.0
  0
LINE
  5
2E0
330
2
100
AcDbEntity
  8
TEXT
100
AcDbLine
 10
0.5096533200353619
 20
1.703158557114963
 30
0.0
 11
0.5854311603001908
 21
1.703158557114963
 31
0.0
  0
ARC
  5
2E1
330
2
100
AcDbEntity
  8
TEXT
100
AcDbCircle
 10
0.5854311603001912
 20
1.686188003233932
 30
0.0
 40
0.0169705538810321
100
AcDbArc
 50
270.0
 51
90.0
  0
LINE
  5
2E2
330
2
100
AcDbEntity
  8
TEXT
100
AcDbLine
 10
0.5804907863939111
 20
1.767252059740576
 30
0.0
 11
0.51489065014961
 21
1.767252059740576
 31
0.0
  0
ARC
  5
2E3
330
2
100
AcDbEntity
  8
TEXT
100
AcDbCircle
 10
0.5148906501496105
 20
1.785154420545892
 30
0.0
 40
0.017902360805315
100
AcDbArc
 50
90.0
 51
270.0
  0
LINE
  5
2E4
330
2
100
AcDbEntity
  8
TEXT
100
AcDbLine
 10
0.8758569649537255
 20
1.766461479894849
 30
0.0
 11
0.8172266439217876
 21
1.86733347600797
 31
0.0
  0
LINE
  5
2E5
330
2
100
AcDbEntity
  8
TEXT
100
AcDbLine
 10
0.7356829116586861
 20
1.600860443019459
 30
0.0
 11
0.8323231627336804
 21
1.601131082117741
 31
0.0
  0
LWPOLYLINE
  5
2E6
330
2
100
AcDbEntity
  8
TEXT
100
AcDbPolyline
 90
        6
 70
     1
 43
0.0
 10
0.7782067152338361
 20
1.803056781351204
 10
0.747890121013628
 20
1.803056781351204
 10
0.747890121013628
 20
1.67994578329631
 42
0.407328721240804
 10
0.7594337721751044
 20
1.668126868619924
 10
0.820055471219835
 20
1.668126868619924
 10
0.8375208116271529
 20
1.700939097663403
  0
LINE
  5
2E7
330
2
100
AcDbEntity
  8
TEXT
100
AcDbLine
 10
0.6817963041785804
 20
1.803056781351204
 30
0.0
 11
0.6817963041785804
 21
1.660652834357509
 31
0.0
  0
ARC
  5
2E8
330
2
100
AcDbEntity
  8
TEXT
100
AcDbCircle
 10
0.741912322152333
 20
1.660652834357509
 30
0.0
 40
0.0601160179737537
100
AcDbArc
 50
180.0000000000003
 51
264.0521544866073
  0
LINE
  5
2E9
330
2
100
AcDbEntity
  8
TEXT
100
AcDbLine
 10
0.7454276777778804
 20
1.901721393602108
 30
0.0
 11
0.6853850729338733
 21
1.901721393602108
 31
0.0
  0
LINE
  5
2EA
330
2
100
AcDbEntity
  8
TEXT
100
AcDbLine
 10
0.6853850729338733
 20
1.901721393602108
 30
0.0
 11
0.6853850729338733
 21
1.86733347600797
 31
0.0
  0
LINE
  5
2EB
330
2
100
AcDbEntity
  8
TEXT
100
AcDbLine
 10
0.7454276777778804
 20
1.86733347600797
 30
0.0
 11
0.7454276777778804
 21
1.901721393602108
 31
0.0
  0
LINE
  5
2EC
330
2
100
AcDbEntity
  8
TEXT
100
AcDbLine
 10
0.8172266439217876
 20
1.86733347600797
 30
0.0
 11
0.7454276777778804
 21
1.86733347600797
 31
0.0
  0
LINE
  5
2ED
330
2
100
AcDbEntity
  8
TEXT
100
AcDbLine
 10
0.8662567279567712
 20
1.620818949124472
 30
0.0
 11
0.9635564340502158
 21
1.78516916005974
 31
0.0
  0
LINE
  5
2EE
330
2
100
AcDbEntity
  8
TEXT
100
AcDbLine
 10
0.9635564340502158
 20
1.78516916005974
 30
0.0
 11
0.9635564340502158
 21
1.652411785234384
 31
0.0
  0
ARC
  5
2EF
330
2
100
AcDbEntity
  8
TEXT
100
AcDbCircle
 10
0.8322131680445576
 20
1.640408165293155
 30
0.0
 40
0.0392772371940762
100
AcDbArc
 50
270.1604552698595
 51
330.0831797321295
  0
LINE
  5
2F0
330
2
100
AcDbEntity
  8
TEXT
100
AcDbLine
 10
0.934605527759591
 20
1.86733347600797
 30
0.0
 11
0.8758569649537255
 21
1.766461479894849
 31
0.0
  0
LINE
  5
2F1
330
2
100
AcDbEntity
  8
TEXT
100
AcDbLine
 10
0.9647274405529673
 20
1.93534495374678
 30
0.0
 11
0.9647274405529673
 21
1.86733347600797
 31
0.0
  0
LINE
  5
2F2
330
2
100
AcDbEntity
  8
TEXT
100
AcDbLine
 10
0.9647274405529673
 20
1.86733347600797
 30
0.0
 11
0.934605527759591
 21
1.86733347600797
 31
0.0
  0
LWPOLYLINE
  5
2F3
330
2
100
AcDbEntity
  8
TEXT
100
AcDbPolyline
 90
        4
 70
     0
 43
0.0
 10
1.316813562173125
 20
1.795502992185094
 10
1.316813562173125
 20
1.600860443019459
 10
1.385291845460983
 20
1.600860443019459
 10
1.385291845460983
 20
1.644351387969897
 42
-1.714843617202739
  0
LWPOLYLINE
  5
2F4
330
2
100
AcDbEntity
  8
TEXT
100
AcDbPolyline
 90
        2
 70
     0
 43
0.0
 10
1.351947912717335
 20
1.867333476007973
 42
-0.3277054968067132
 10
1.3877296034305
 20
1.839010930238329
 42
6.667889725900311
  0
LWPOLYLINE
  5
2F5
330
2
100
AcDbEntity
  8
TEXT
100
AcDbPolyline
 90
        2
 70
     0
 43
0.0
 10
1.180514340138108
 20
1.803056781351204
 42
-0.4142135623731017
 10
1.188068129304221
 20
1.795502992185094
 42
-0.9999999999999998
  0
LINE
  5
2F6
330
2
100
AcDbEntity
  8
TEXT
100
AcDbLine
 10
1.197866063188128
 20
1.86733347600797
 30
0.0
 11
1.063848007256992
 21
1.86733347600797
 31
0.0
  0
LINE
  5
2F7
330
2
100
AcDbEntity
  8
TEXT
100
AcDbLine
 10
1.130679060314961
 20
1.600860443019459
 30
0.0
 11
1.130679060314961
 21
1.803056781351204
 31
0.0
  0
LINE
  5
2F8
330
2
100
AcDbEntity
  8
TEXT
100
AcDbLine
 10
1.063848007256992
 20
1.86733347600797
 30
0.0
 11
1.063848007256992
 21
1.666469269275562
 31
0.0
  0
LINE
  5
2F9
330
2
100
AcDbEntity
  8
TEXT
100
AcDbLine
 10
1.031536153119332
 20
1.683248281122458
 30
0.0
 11
1.031536153119332
 21
1.93534495374678
 31
0.0
  0
LINE
  5
2FA
330
2
100
AcDbEntity
  8
TEXT
100
AcDbLine
 10
1.032675726615527
 20
1.600860443019459
 30
0.0
 11
1.130679060314961
 21
1.600860443019459
 31
0.0
  0
LINE
  5
2FB
330
2
100
AcDbEntity
  8
TEXT
100
AcDbLine
 10
1.063848007256992
 20
1.666469269275562
 30
0.0
 11
1.046854370372391
 21
1.666469269275562
 31
0.0
  0
ARC
  5
2FC
330
2
100
AcDbEntity
  8
TEXT
100
AcDbCircle
 10
1.04685437037239
 20
1.681851075518987
 30
0.0
 40
0.0153818062434269
100
AcDbArc
 50
174.7883570302258
 51
270.0
  0
LINE
  5
2FD
330
2
100
AcDbEntity
  8
TEXT
100
AcDbLine
 10
1.130679060314961
 20
1.803056781351204
 30
0.0
 11
1.180514340138109
 21
1.803056781351204
 31
0.0
  0
LINE
  5
2FE
330
2
100
AcDbEntity
  8
TEXT
100
AcDbLine
 10
1.188068129304222
 20
1.795502992185094
 30
0.0
 11
1.188068129304222
 21
1.600860443019459
 31
0.0
  0
LINE
  5
2FF
330
2
100
AcDbEntity
  8
TEXT
100
AcDbLine
 10
1.255126176086062
 20
1.600860443019459
 30
0.0
 11
1.255126176086062
 21
1.803056781351204
 31
0.0
  0
LINE
  5
300
330
2
100
AcDbEntity
  8
TEXT
100
AcDbLine
 10
1.188068129304222
 20
1.600860443019459
 30
0.0
 11
1.255126176086062
 21
1.600860443019459
 31
0.0
  0
LWPOLYLINE
  5
301
330
2
100
AcDbEntity
  8
TEXT
100
AcDbPolyline
 90
        3
 70
     0
 43
0.0
 10
1.351947912717335
 20
1.867333476007973
 10
1.233647753901291
 20
1.867333476007973
 10
1.233647753901291
 20
1.840165979247077
 42
-1.960274751411753
  0
LINE
  5
302
330
2
100
AcDbEntity
  8
TEXT
100
AcDbLine
 10
1.255126176086062
 20
1.803056781351204
 30
0.0
 11
1.309259773007013
 21
1.803056781351204
 31
0.0
  0
LWPOLYLINE
  5
303
330
2
100
AcDbEntity
  8
TEXT
100
AcDbPolyline
 90
        2
 70
     0
 43
0.0
 10
1.197866063188129
 20
1.867333476007973
 42
-0.3328679258950098
 10
1.233647753901291
 20
1.840165979247077
 42
6.772930709997214
  0
LWPOLYLINE
  5
304
330
2
100
AcDbEntity
  8
TEXT
100
AcDbPolyline
 90
        2
 70
     0
 43
0.0
 10
1.309259773007012
 20
1.803056781351204
 42
-0.4142135623731017
 10
1.316813562173125
 20
1.795502992185094
 42
-0.9999999999999998
  0
ARC
  5
305
330
2
100
AcDbEntity
  8
TEXT
100
AcDbCircle
 10
1.520534572870491
 20
1.825749908887067
 30
0.0
 40
0.0416329381542859
100
AcDbArc
 50
26.56974201007528
 51
87.20939649401342
  0
LWPOLYLINE
  5
306
330
2
100
AcDbEntity
  8
TEXT
100
AcDbPolyline
 90
        2
 70
     0
 43
0.0
 10
1.428367778328619
 20
1.600860443019459
 10
1.562385195959995
 20
1.600860443019459
 42
0.9999999999999998
  0
LWPOLYLINE
  5
307
330
2
100
AcDbEntity
  8
TEXT
100
AcDbPolyline
 90
        4
 70
     1
 43
0.0
 10
1.542262730890103
 20
1.703824421003484
 10
1.453602412230244
 20
1.703824421003484
 42
0.9999999999999998
 10
1.453602412230244
 20
1.661425880499623
 10
1.542262730890103
 20
1.661425880499623
 42
1.0
  0
LWPOLYLINE
  5
308
330
2
100
AcDbEntity
  8
TEXT
100
AcDbPolyline
 90
        2
 70
     0
 43
0.0
 10
1.385291845460983
 20
1.644351387969897
 42
0.2901071551932823
 10
1.428367778328619
 20
1.600860443019459
 42
5.328517124445801
  0
LINE
  5
309
330
2
100
AcDbEntity
  8
TEXT
100
AcDbLine
 10
1.52256151264756
 20
1.86733347600797
 30
0.0
 11
1.387729603430501
 21
1.86733347600797
 31
0.0
  0
LINE
  5
30A
330
2
100
AcDbEntity
  8
TEXT
100
AcDbLine
 10
1.44704369982382
 20
1.765781807889072
 30
0.0
 11
1.529331689607203
 21
1.765781807889072
 31
0.0
  0
LINE
  5
30B
330
2
100
AcDbEntity
  8
TEXT
100
AcDbLine
 10
1.493530614303081
 20
1.803056781351204
 30
0.0
 11
1.386324340915792
 21
1.803056781351204
 31
0.0
  0
LINE
  5
30C
330
2
100
AcDbEntity
  8
TEXT
100
AcDbLine
 10
1.387729603430501
 20
1.86733347600797
 30
0.0
 11
1.387729603430501
 21
1.839010930238326
 31
0.0
  0
ARC
  5
30D
330
2
100
AcDbEntity
  8
TEXT
100
AcDbCircle
 10
1.447043699823819
 20
1.698096226744953
 30
0.0
 40
0.0676855811441166
100
AcDbArc
 50
90.0
 51
153.7768192527749
  0
LINE
  5
30E
330
2
100
AcDbEntity
  8
TEXT
100
AcDbLine
 10
1.386324340915792
 20
1.803056781351204
 30
0.0
 11
1.386324340915792
 21
1.728004375276998
 31
0.0
  0
LINE
  5
30F
330
2
100
AcDbEntity
  8
TEXT
100
AcDbLine
 10
1.529331689607203
 20
1.765781807889072
 30
0.0
 11
1.519066929193638
 21
1.787032347461766
 31
0.0
  0
ARC
  5
310
330
2
100
AcDbEntity
  8
TEXT
100
AcDbCircle
 10
1.493530614303081
 20
1.774697406351207
 30
0.0
 40
0.028359375
100
AcDbArc
 50
25.78218179591245
 51
90.0
  0
LINE
  5
311
330
2
100
AcDbEntity
  8
TEXT
100
AcDbLine
 10
1.663816342662975
 20
1.600860443019459
 30
0.0
 11
1.663816342662969
 21
1.778150948450927
 31
0.0
  0
LWPOLYLINE
  5
312
330
2
100
AcDbEntity
  8
TEXT
100
AcDbPolyline
 90
        2
 70
     0
 43
0.0
 10
1.60546112882764
 20
1.600860443019459
 10
1.663816342662974
 20
1.600860443019459
  0
LWPOLYLINE
  5
313
330
2
100
AcDbEntity
  8
TEXT
100
AcDbPolyline
 90
        2
 70
     0
 43
0.0
 10
1.60546112882764
 20
1.644351387969897
 42
-0.2901071551932486
 10
1.562385195959995
 20
1.600860443019459
 42
-5.328517124445184
  0
LWPOLYLINE
  5
314
330
2
100
AcDbEntity
  8
TEXT
100
AcDbPolyline
 90
        2
 70
     0
 43
0.0
 10
1.60546112882764
 20
1.644351387969897
 10
1.60546112882764
 20
1.600860443019459
  0
LINE
  5
315
330
2
100
AcDbEntity
  8
TEXT
100
AcDbLine
 10
1.665418357822102
 20
1.86733347600797
 30
0.0
 11
1.601521451522601
 21
1.86733347600797
 31
0.0
  0
LINE
  5
316
330
2
100
AcDbEntity
  8
TEXT
100
AcDbLine
 10
1.601521451522601
 20
1.86733347600797
 30
0.0
 11
1.601521451522601
 21
1.762121497454542
 31
0.0
  0
LINE
  5
317
330
2
100
AcDbEntity
  8
TEXT
100
AcDbLine
 10
1.601521451522601
 20
1.762121497454542
 30
0.0
 11
1.557770680340699
 21
1.844371773450688
 31
0.0
  0
ARC
  5
318
330
2
100
AcDbEntity
  8
TEXT
100
AcDbCircle
 10
1.688722217945633
 20
1.778150906068542
 30
0.0
 40
0.0249058752826653
100
AcDbArc
 50
89.99971217465335
 51
179.9999999999985
  0
ARC
  5
319
330
2
100
AcDbEntity
  8
TEXT
100
AcDbCircle
 10
1.696611174885211
 20
1.836087748725705
 30
0.0
 40
0.0314112657011332
100
AcDbArc
 50
95.88484768694724
 51
173.2388340632136
  0
LINE
  5
31A
330
2
100
AcDbEntity
  8
TEXT
100
AcDbLine
 10
1.665418357822102
 20
1.839785826147095
 30
0.0
 11
1.665418357822102
 21
1.86733347600797
 31
0.0
  0
TEXT
  5
31B
330
2
100
AcDbEntity
  8
TEXT
100
AcDbText
 10
2.134293877243893
 20
1.693746251664955
 30
0.0
 40
0.0522247191011236
  1
Minneapolis, MN 55432-0008
 41
1.11444212721585
 72
     5
 11
3.463226461513556
 21
1.693746251664955
 31
0.0
100
AcDbText
  0
TEXT
  5
31C
330
2
100
AcDbEntity
  8
TEXT
100
AcDbText
 10
2.134293877243893
 20
1.787004678631247
 30
0.0
 40
0.0522247191011236
  1
6536 Main St. N.E. * P.O. Box 32008
 41
0.8388932496075355
 72
     5
 11
3.463226461513556
 21
1.787004678631247
 31
0.0
100
AcDbText
  0
TEXT
  5
31D
330
2
100
AcDbEntity
  8
TEXT
100
AcDbText
 10
2.134293877243893
 20
1.880263105597539
 30
0.0
 40
0.0522247191011236
  1
Stylmark  Incorporated
 41
1.221428571428571
 72
     5
 11
3.463226461513556
 21
1.880263105597539
 31
0.0
100
AcDbText
  0
TEXT
  5
31E
330
2
100
AcDbEntity
  8
TEXT
100
AcDbText
 10
2.134293877243893
 20
1.600487824698663
 30
0.0
 40
0.0522247191011236
  1
Phone  1-800-328-2495
 41
1.272321428571429
 72
     5
 11
3.463226461513556
 21
1.600487824698663
 31
0.0
100
AcDbText
  0
LINE
  5
31F
330
2
100
AcDbEntity
  8
TEXT
100
AcDbLine
 10
1.886738065780877
 20
1.757440233066996
 30
0.0
 11
1.951295181746583
 21
1.86733347600797
 31
0.0
  0
LINE
  5
320
330
2
100
AcDbEntity
  8
TEXT
100
AcDbLine
 10
1.951295181746583
 20
1.86733347600797
 30
0.0
 11
1.876303349016956
 21
1.86733347600797
 31
0.0
  0
LINE
  5
321
330
2
100
AcDbEntity
  8
TEXT
100
AcDbLine
 10
1.905651916768282
 20
1.600860443019459
 30
0.0
 11
1.982230289144488
 21
1.600860443019459
 31
0.0
  0
LINE
  5
322
330
2
100
AcDbEntity
  8
TEXT
100
AcDbLine
 10
1.982230289144488
 20
1.600860443019459
 30
0.0
 11
1.886738065780877
 21
1.757440233066996
 31
0.0
  0
LINE
  5
323
330
2
100
AcDbEntity
  8
TEXT
100
AcDbLine
 10
1.829748383556817
 20
1.600860443019459
 30
0.0
 11
1.829748383556817
 21
1.732440011495639
 31
0.0
  0
LINE
  5
324
330
2
100
AcDbEntity
  8
TEXT
100
AcDbLine
 10
1.829748383556817
 20
1.732440011495639
 30
0.0
 11
1.905651916768282
 21
1.600860443019459
 31
0.0
  0
LINE
  5
325
330
2
100
AcDbEntity
  8
TEXT
100
AcDbLine
 10
1.765370199238192
 20
1.803056781351204
 30
0.0
 11
1.765370199238197
 21
1.600860443019459
 31
0.0
  0
LINE
  5
326
330
2
100
AcDbEntity
  8
TEXT
100
AcDbLine
 10
1.765370199238197
 20
1.600860443019459
 30
0.0
 11
1.829748383556817
 21
1.600860443019459
 31
0.0
  0
LINE
  5
327
330
2
100
AcDbEntity
  8
TEXT
100
AcDbLine
 10
1.82920519046097
 20
1.93279768177557
 30
0.0
 11
1.760890311911697
 21
1.93279768177557
 31
0.0
  0
LINE
  5
328
330
2
100
AcDbEntity
  8
TEXT
100
AcDbLine
 10
1.760890311911697
 20
1.93279768177557
 30
0.0
 11
1.760890311911691
 21
1.86733347600797
 31
0.0
  0
LINE
  5
329
330
2
100
AcDbEntity
  8
TEXT
100
AcDbLine
 10
1.876303349016954
 20
1.86733347600797
 30
0.0
 11
1.82920519046097
 21
1.791468149596432
 31
0.0
  0
LINE
  5
32A
330
2
100
AcDbEntity
  8
TEXT
100
AcDbLine
 10
1.82920519046097
 20
1.791468149596432
 30
0.0
 11
1.82920519046097
 21
1.93279768177557
 31
0.0
  0
ENDSEC
  0
SECTION
  2
OBJECTS
  0
DICTIONARY
  5
1A
330
0
100
AcDbDictionary
  3
ACAD_GROUP
350
18
  3
ACAD_LAYOUT
350
330
  3
ACAD_MLINESTYLE
350
19
  3
ACAD_PLOTSETTINGS
350
331
  3
ACAD_PLOTSTYLENAME
350
32E
  3
ACDBHEADERROUNDTRIPXREC
350
33B
  3
ACDBVARIABLEDICTIONARY
350
338
  0
DICTIONARY
  5
35B
330
2
100
AcDbDictionary
280
     1
  3
ACAD_LAYOUTSELFREF
360
35C
  0
DICTIONARY
  5
35D
330
7
100
AcDbDictionary
280
     1
  3
ACAD_LAYOUTSELFREF
360
35E
  0
DICTIONARY
  5
18
102
{ACAD_REACTORS
330
1A
102
}
330
1A
100
AcDbDictionary
  0
DICTIONARY
  5
330
102
{ACAD_REACTORS
330
1A
102
}
330
1A
100
AcDbDictionary
  0
DICTIONARY
  5
19
102
{ACAD_REACTORS
330
1A
102
}
330
1A
100
AcDbDictionary
  3
STANDARD
350
1C
  0
DICTIONARY
  5
331
102
{ACAD_REACTORS
330
1A
102
}
330
1A
100
AcDbDictionary
  0
ACDBDICTIONARYWDFLT
  5
32E
102
{ACAD_REACTORS
330
1A
102
}
330
1A
100
AcDbDictionary
281
     1
  3
Normal
350
32F
100
AcDbDictionaryWithDefault
340
32F
  0
DICTIONARY
  5
33B
102
{ACAD_REACTORS
330
1A
102
}
330
1A
100
AcDbDictionary
  3
CEPSNTYPE
350
345
  3
FINGERPRINTGUID
350
346
  3
HYPERLINKBASE
350
33E
  3
INSUNITS
350
344
  3
LAYOUTDICT
350
340
  3
LWETCUNION
350
343
  3
PLOTSETDICT
350
341
  3
PLOTSTYLNAMDICT
350
342
  3
PSVPSCALE
350
348
  3
PUCSBASE
350
34B
  3
PUCSORGBACK
350
351
  3
PUCSORGBOTTOM
350
34D
  3
PUCSORGFRONT
350
350
  3
PUCSORGLEFT
350
34E
  3
PUCSORGRIGHT
350
34F
  3
PUCSORGTOP
350
34C
  3
PUCSORTHOREF
350
349
  3
PUCSORTHOVIEW
350
34A
  3
STYLESHEET
350
33F
  3
TSTACKALIGN
350
33C
  3
TSTACKSIZE
350
33D
  3
UCSBASE
350
354
  3
UCSORGBACK
350
35A
  3
UCSORGBOTTOM
350
356
  3
UCSORGFRONT
350
359
  3
UCSORGLEFT
350
357
  3
UCSORGRIGHT
350
358
  3
UCSORGTOP
350
355
  3
UCSORTHOREF
350
352
  3
UCSORTHOVIEW
350
353
  3
VERSIONGUID
350
347
  0
DICTIONARY
  5
338
102
{ACAD_REACTORS
330
1A
102
}
330
1A
100
AcDbDictionary
  3
DIMASSOC
350
339
  0
XRECORD
  5
35C
102
{ACAD_REACTORS
330
35B
102
}
330
35B
100
AcDbXrecord
340
2
  0
XRECORD
  5
35E
102
{ACAD_REACTORS
330
35D
102
}
330
35D
100
AcDbXrecord
340
7
  0
MLINESTYLE
  5
1C
102
{ACAD_REACTORS
330
19
102
}
330
19
100
AcDbMlineStyle
  2
STANDARD
 70
     0
  3

 62
     0
 51
90.0
 52
90.0
 71
     2
 49
0.5
 62
   256
  6
BYLAYER
 49
-0.5
 62
   256
  6
BYLAYER
  0
ACDBPLACEHOLDER
  5
32F
102
{ACAD_REACTORS
330
32E
102
}
330
32E
100
AcDbPlaceHolder
280
     0
  0
XRECORD
  5
345
102
{ACAD_REACTORS
330
33B
102
}
330
33B
100
AcDbXrecord
 90
        0
  0
XRECORD
  5
346
102
{ACAD_REACTORS
330
33B
102
}
330
33B
100
AcDbXrecord
  1
{091D2830-8DB9-11D6-88E6-0090279574E7}
  0
XRECORD
  5
33E
102
{ACAD_REACTORS
330
33B
102
}
330
33B
100
AcDbXrecord
  1

  0
XRECORD
  5
344
102
{ACAD_REACTORS
330
33B
102
}
330
33B
100
AcDbXrecord
 90
        0
  0
XRECORD
  5
340
102
{ACAD_REACTORS
330
33B
102
}
330
33B
100
AcDbXrecord
340
330
  0
XRECORD
  5
343
102
{ACAD_REACTORS
330
33B
102
}
330
33B
100
AcDbXrecord
 90
    14877
  0
XRECORD
  5
341
102
{ACAD_REACTORS
330
33B
102
}
330
33B
100
AcDbXrecord
340
331
  0
XRECORD
  5
342
102
{ACAD_REACTORS
330
33B
102
}
330
33B
100
AcDbXrecord
340
32E
  0
XRECORD
  5
348
102
{ACAD_REACTORS
330
33B
102
}
330
33B
100
AcDbXrecord
 40
0.0
  0
XRECORD
  5
34B
102
{ACAD_REACTORS
330
33B
102
}
330
33B
100
AcDbXrecord
340
0
  0
XRECORD
  5
351
102
{ACAD_REACTORS
330
33B
102
}
330
33B
100
AcDbXrecord
 10
0.0
 20
0.0
 30
0.0
  0
XRECORD
  5
34D
102
{ACAD_REACTORS
330
33B
102
}
330
33B
100
AcDbXrecord
 10
0.0
 20
0.0
 30
0.0
  0
XRECORD
  5
350
102
{ACAD_REACTORS
330
33B
102
}
330
33B
100
AcDbXrecord
 10
0.0
 20
0.0
 30
0.0
  0
XRECORD
  5
34E
102
{ACAD_REACTORS
330
33B
102
}
330
33B
100
AcDbXrecord
 10
0.0
 20
0.0
 30
0.0
  0
XRECORD
  5
34F
102
{ACAD_REACTORS
330
33B
102
}
330
33B
100
AcDbXrecord
 10
0.0
 20
0.0
 30
0.0
  0
XRECORD
  5
34C
102
{ACAD_REACTORS
330
33B
102
}
330
33B
100
AcDbXrecord
 10
0.0
 20
0.0
 30
0.0
  0
XRECORD
  5
349
102
{ACAD_REACTORS
330
33B
102
}
330
33B
100
AcDbXrecord
340
0
  0
XRECORD
  5
34A
102
{ACAD_REACTORS
330
33B
102
}
330
33B
100
AcDbXrecord
 70
     0
  0
XRECORD
  5
33F
102
{ACAD_REACTORS
330
33B
102
}
330
33B
100
AcDbXrecord
  1

  0
XRECORD
  5
33C
102
{ACAD_REACTORS
330
33B
102
}
330
33B
100
AcDbXrecord
 90
        1
  0
XRECORD
  5
33D
102
{ACAD_REACTORS
330
33B
102
}
330
33B
100
AcDbXrecord
 90
       70
  0
XRECORD
  5
354
102
{ACAD_REACTORS
330
33B
102
}
330
33B
100
AcDbXrecord
340
0
  0
XRECORD
  5
35A
102
{ACAD_REACTORS
330
33B
102
}
330
33B
100
AcDbXrecord
 10
0.0
 20
0.0
 30
0.0
  0
XRECORD
  5
356
102
{ACAD_REACTORS
330
33B
102
}
330
33B
100
AcDbXrecord
 10
0.0
 20
0.0
 30
0.0
  0
XRECORD
  5
359
102
{ACAD_REACTORS
330
33B
102
}
330
33B
100
AcDbXrecord
 10
0.0
 20
0.0
 30
0.0
  0
XRECORD
  5
357
102
{ACAD_REACTORS
330
33B
102
}
330
33B
100
AcDbXrecord
 10
0.0
 20
0.0
 30
0.0
  0
XRECORD
  5
358
102
{ACAD_REACTORS
330
33B
102
}
330
33B
100
AcDbXrecord
 10
0.0
 20
0.0
 30
0.0
  0
XRECORD
  5
355
102
{ACAD_REACTORS
330
33B
102
}
330
33B
100
AcDbXrecord
 10
0.0
 20
0.0
 30
0.0
  0
XRECORD
  5
352
102
{ACAD_REACTORS
330
33B
102
}
330
33B
100
AcDbXrecord
340
0
  0
XRECORD
  5
353
102
{ACAD_REACTORS
330
33B
102
}
330
33B
100
AcDbXrecord
 70
     0
  0
XRECORD
  5
347
102
{ACAD_REACTORS
330
33B
102
}
330
33B
100
AcDbXrecord
  1
{091D2832-8DB9-11D6-88E6-0090279574E7}
  0
DICTIONARYVAR
  5
339
102
{ACAD_REACTORS
330
338
102
}
330
338
100
DictionaryVariables
280
     0
  1
1
  0
ENDSEC
  0
EOF
