  0
SECTION
  2
HEADER
  9
$ACADVER
  1
AC1014
  9
$ACADMAINTVER
 70
     9
  9
$DWGCODEPAGE
  3
ANSI_1252
  9
$INSBASE
 10
0.0
 20
0.0
 30
0.0
  9
$EXTMIN
 10
2.003550752981214
 20
3.37511422877721
 30
0.0
  9
$EXTMAX
 10
5.48877007472835
 20
6.276243951503392
 30
0.0
  9
$LIMMIN
 10
0.0
 20
0.0
  9
$LIMMAX
 10
12.0
 20
9.0
  9
$ORTHOMODE
 70
     1
  9
$REGENMODE
 70
     1
  9
$FILLMODE
 70
     1
  9
$QTEXTMODE
 70
     0
  9
$MIRRTEXT
 70
     0
  9
$DRAGMODE
 70
     2
  9
$LTSCALE
 40
1.0
  9
$OSMODE
 70
    39
  9
$ATTMODE
 70
     1
  9
$TEXTSIZE
 40
0.125
  9
$TRACEWID
 40
0.05
  9
$TEXTSTYLE
  7
ROMANS
  9
$CLAYER
  8
DIM
  9
$CELTYPE
  6
BYLAYER
  9
$CECOLOR
 62
   256
  9
$CELTSCALE
 40
1.0
  9
$DELOBJ
 70
     1
  9
$DISPSILH
 70
     1
  9
$DIMSCALE
 40
1.0
  9
$DIMASZ
 40
0.125
  9
$DIMEXO
 40
0.125
  9
$DIMDLI
 40
0.38
  9
$DIMRND
 40
0.0
  9
$DIMDLE
 40
0.0
  9
$DIMEXE
 40
0.125
  9
$DIMTP
 40
0.0
  9
$DIMTM
 40
0.0
  9
$DIMTXT
 40
0.125
  9
$DIMCEN
 40
-0.125
  9
$DIMTSZ
 40
0.0
  9
$DIMTOL
 70
     0
  9
$DIMLIM
 70
     0
  9
$DIMTIH
 70
     1
  9
$DIMTOH
 70
     1
  9
$DIMSE1
 70
     0
  9
$DIMSE2
 70
     0
  9
$DIMTAD
 70
     0
  9
$DIMZIN
 70
     4
  9
$DIMBLK
  1

  9
$DIMASO
 70
     1
  9
$DIMSHO
 70
     1
  9
$DIMPOST
  1

  9
$DIMAPOST
  1

  9
$DIMALT
 70
     0
  9
$DIMALTD
 70
     2
  9
$DIMALTF
 40
25.4
  9
$DIMLFAC
 40
1.0
  9
$DIMTOFL
 70
     0
  9
$DIMTVP
 40
0.0
  9
$DIMTIX
 70
     0
  9
$DIMSOXD
 70
     0
  9
$DIMSAH
 70
     0
  9
$DIMBLK1
  1

  9
$DIMBLK2
  1

  9
$DIMSTYLE
  2
STANDARD
  9
$DIMCLRD
 70
     0
  9
$DIMCLRE
 70
     0
  9
$DIMCLRT
 70
     0
  9
$DIMTFAC
 40
1.0
  9
$DIMGAP
 40
0.09
  9
$DIMJUST
 70
     0
  9
$DIMSD1
 70
     0
  9
$DIMSD2
 70
     0
  9
$DIMTOLJ
 70
     1
  9
$DIMTZIN
 70
     4
  9
$DIMALTZ
 70
     0
  9
$DIMALTTZ
 70
     0
  9
$DIMFIT
 70
     3
  9
$DIMUPT
 70
     0
  9
$DIMUNIT
 70
     2
  9
$DIMDEC
 70
     3
  9
$DIMTDEC
 70
     3
  9
$DIMALTU
 70
     2
  9
$DIMALTTD
 70
     2
  9
$DIMTXSTY
  7
ROMANS
  9
$DIMAUNIT
 70
     0
  9
$LUNITS
 70
     2
  9
$LUPREC
 70
     4
  9
$SKETCHINC
 40
0.1
  9
$FILLETRAD
 40
0.5
  9
$AUNITS
 70
     0
  9
$AUPREC
 70
     0
  9
$MENU
  1
.
  9
$ELEVATION
 40
0.0
  9
$PELEVATION
 40
0.0
  9
$THICKNESS
 40
0.0
  9
$LIMCHECK
 70
     0
  9
$BLIPMODE
 70
     0
  9
$CHAMFERA
 40
0.5
  9
$CHAMFERB
 40
0.5
  9
$CHAMFERC
 40
1.0
  9
$CHAMFERD
 40
0.0
  9
$SKPOLY
 70
     0
  9
$TDCREATE
 40
2451801.375200196
  9
$TDUPDATE
 40
2452458.320438981
  9
$TDINDWG
 40
0.0176001968
  9
$TDUSRTIMER
 40
0.0176001968
  9
$USRTIMER
 70
     1
  9
$ANGBASE
 50
0.0
  9
$ANGDIR
 70
     0
  9
$PDMODE
 70
     0
  9
$PDSIZE
 40
0.0
  9
$PLINEWID
 40
0.0
  9
$COORDS
 70
     2
  9
$SPLFRAME
 70
     0
  9
$SPLINETYPE
 70
     6
  9
$SPLINESEGS
 70
     8
  9
$ATTDIA
 70
     0
  9
$ATTREQ
 70
     1
  9
$HANDLING
 70
 22529
  9
$HANDSEED
  5
44A5
  9
$SURFTAB1
 70
     6
  9
$SURFTAB2
 70
     6
  9
$SURFTYPE
 70
     6
  9
$SURFU
 70
     6
  9
$SURFV
 70
     6
  9
$UCSNAME
  2

  9
$UCSORG
 10
0.0
 20
0.0
 30
0.0
  9
$UCSXDIR
 10
1.0
 20
0.0
 30
0.0
  9
$UCSYDIR
 10
0.0
 20
1.0
 30
0.0
  9
$PUCSNAME
  2

  9
$PUCSORG
 10
0.0
 20
0.0
 30
0.0
  9
$PUCSXDIR
 10
1.0
 20
0.0
 30
0.0
  9
$PUCSYDIR
 10
0.0
 20
1.0
 30
0.0
  9
$USERI1
 70
     0
  9
$USERI2
 70
     0
  9
$USERI3
 70
     0
  9
$USERI4
 70
     0
  9
$USERI5
 70
     0
  9
$USERR1
 40
0.0
  9
$USERR2
 40
0.0
  9
$USERR3
 40
0.0
  9
$USERR4
 40
0.0
  9
$USERR5
 40
0.0
  9
$WORLDVIEW
 70
     1
  9
$SHADEDGE
 70
     3
  9
$SHADEDIF
 70
    70
  9
$TILEMODE
 70
     1
  9
$MAXACTVP
 70
    48
  9
$PINSBASE
 10
0.0
 20
0.0
 30
0.0
  9
$PLIMCHECK
 70
     0
  9
$PEXTMIN
 10
1.000000000000000E+20
 20
1.000000000000000E+20
 30
1.000000000000000E+20
  9
$PEXTMAX
 10
-1.000000000000000E+20
 20
-1.000000000000000E+20
 30
-1.000000000000000E+20
  9
$PLIMMIN
 10
0.0
 20
0.0
  9
$PLIMMAX
 10
12.0
 20
9.0
  9
$UNITMODE
 70
     0
  9
$VISRETAIN
 70
     1
  9
$PLINEGEN
 70
     1
  9
$PSLTSCALE
 70
     1
  9
$TREEDEPTH
 70
  3020
  9
$PICKSTYLE
 70
     1
  9
$CMLSTYLE
  2
STANDARD
  9
$CMLJUST
 70
     0
  9
$CMLSCALE
 40
1.0
  9
$PROXYGRAPHICS
 70
     1
  9
$MEASUREMENT
 70
     0
  0
ENDSEC
  0
SECTION
  2
CLASSES
  0
CLASS
  1
LWPOLYLINE
  2
AcDbPolyline
  3
AutoCAD 2000
 90
        0
280
     0
281
     1
  0
CLASS
  1
ACDBDICTIONARYWDFLT
  2
AcDbDictionaryWithDefault
  3
AutoCAD 2000
 90
        0
280
     0
281
     0
  0
CLASS
  1
ACDBPLACEHOLDER
  2
AcDbPlaceHolder
  3
AutoCAD 2000
 90
        0
280
     0
281
     0
  0
CLASS
  1
LAYOUT
  2
AcDbLayout
  3
AutoCAD 2000
 90
        0
280
     0
281
     0
  0
CLASS
  1
DICTIONARYVAR
  2
AcDbDictionaryVar
  3
AutoCAD 2000
 90
        0
280
     0
281
     0
  0
CLASS
  1
LONG_TRANSACTION
  2
AcDbLongTransaction
  3
AutoCAD 2000
 90
        0
280
     0
281
     0
  0
CLASS
  1
LWPOLYLINE
  2
AcDbPolyline
  3
AutoCAD 2000
 90
        0
280
     0
281
     1
  0
CLASS
  1
HATCH
  2
AcDbHatch
  3
AutoCAD 2000
 90
        0
280
     0
281
     1
  0
CLASS
  1
XRECORD
  2
AcDbXrecord
  3
AutoCAD 2000
 90
        0
280
     0
281
     0
  0
ENDSEC
  0
SECTION
  2
TABLES
  0
TABLE
  2
VPORT
  5
8
330
0
100
AcDbSymbolTable
 70
     2
  0
VPORT
  5
4480
330
8
100
AcDbSymbolTableRecord
100
AcDbViewportTableRecord
  2
*ACTIVE
 70
     0
 10
0.0
 20
0.0
 11
1.0
 21
1.0
 12
7.698976094518465
 22
4.825822167484814
 13
0.0
 23
0.0
 14
0.5
 24
0.5
 15
0.5
 25
0.5
 16
0.0
 26
0.0
 36
1.0
 17
0.0
 27
0.0
 37
0.0
 40
2.927020735925241
 41
4.320930232558139
 42
50.0
 43
0.0
 44
0.0
 50
0.0
 51
0.0
 71
     0
 72
  2000
 73
     1
 74
     1
 75
     0
 76
     0
 77
     0
 78
     0
  0
ENDTAB
  0
TABLE
  2
LTYPE
  5
5
330
0
100
AcDbSymbolTable
 70
     1
  0
LTYPE
  5
12
330
5
100
AcDbSymbolTableRecord
100
AcDbLinetypeTableRecord
  2
BYBLOCK
 70
     0
  3

 72
    65
 73
     0
 40
0.0
  0
LTYPE
  5
13
330
5
100
AcDbSymbolTableRecord
100
AcDbLinetypeTableRecord
  2
BYLAYER
 70
     0
  3

 72
    65
 73
     0
 40
0.0
  0
LTYPE
  5
14
330
5
100
AcDbSymbolTableRecord
100
AcDbLinetypeTableRecord
  2
CONTINUOUS
 70
     0
  3
Solid line
 72
    65
 73
     0
 40
0.0
  0
ENDTAB
  0
TABLE
  2
LAYER
  5
2
330
0
100
AcDbSymbolTable
 70
     3
  0
LAYER
  5
E
330
2
100
AcDbSymbolTableRecord
100
AcDbLayerTableRecord
  2
0
 70
     0
 62
     7
  6
CONTINUOUS
  0
LAYER
  5
22
330
2
100
AcDbSymbolTableRecord
100
AcDbLayerTableRecord
  2
TEXT
 70
     0
 62
     3
  6
CONTINUOUS
  0
LAYER
  5
1E2
330
2
100
AcDbSymbolTableRecord
100
AcDbLayerTableRecord
  2
DIM
 70
     0
 62
     4
  6
CONTINUOUS
  0
ENDTAB
  0
TABLE
  2
STYLE
  5
3
330
0
100
AcDbSymbolTable
 70
     3
  0
STYLE
  5
F
330
3
100
AcDbSymbolTableRecord
100
AcDbTextStyleTableRecord
  2
STANDARD
 70
     0
 40
0.0
 41
1.0
 50
0.0
 71
     0
 42
0.2
  3
txt
  4

  0
STYLE
  5
20
330
3
100
AcDbSymbolTableRecord
100
AcDbTextStyleTableRecord
  2
ROMANS
 70
     0
 40
0.0
 41
1.0
 50
0.0
 71
     0
 42
0.125
  3
romans.shx
  4

  0
STYLE
  5
436E
330
3
100
AcDbSymbolTableRecord
100
AcDbTextStyleTableRecord
  2
ITALICC
 70
     0
 40
0.0
 41
1.0
 50
0.0
 71
     0
 42
0.125
  3
italicc
  4

  0
ENDTAB
  0
TABLE
  2
VIEW
  5
6
330
0
100
AcDbSymbolTable
 70
     0
  0
ENDTAB
  0
TABLE
  2
UCS
  5
7
330
0
100
AcDbSymbolTable
 70
     0
  0
ENDTAB
  0
TABLE
  2
APPID
  5
9
330
0
100
AcDbSymbolTable
 70
     1
  0
APPID
  5
10
330
9
100
AcDbSymbolTableRecord
100
AcDbRegAppTableRecord
  2
ACAD
 70
     0
  0
ENDTAB
  0
TABLE
  2
DIMSTYLE
  5
A
330
0
100
AcDbSymbolTable
 70
     1
  0
DIMSTYLE
105
1D
330
A
100
AcDbSymbolTableRecord
100
AcDbDimStyleTableRecord
  2
STANDARD
 70
     0
  3

  4

  5

  6

  7

 40
1.0
 41
0.125
 42
0.125
 43
0.38
 44
0.125
 45
0.0
 46
0.0
 47
0.0
 48
0.0
140
0.125
141
-0.125
142
0.0
143
25.4
144
1.0
145
0.0
146
1.0
147
0.09
 71
     0
 72
     0
 73
     1
 74
     1
 75
     0
 76
     0
 77
     0
 78
     4
170
     0
171
     2
172
     0
173
     0
174
     0
175
     0
176
     0
177
     0
178
     0
270
     2
271
     3
272
     3
273
     2
274
     2
340
20
275
     0
280
     0
281
     0
282
     0
283
     1
284
     4
285
     0
286
     0
287
     3
288
     0
  0
ENDTAB
  0
TABLE
  2
BLOCK_RECORD
  5
1
330
0
100
AcDbSymbolTable
 70
     0
  0
BLOCK_RECORD
  5
18
102
{ACAD_XDICTIONARY
360
44A3
102
}
330
1
100
AcDbSymbolTableRecord
100
AcDbBlockTableRecord
  2
*MODEL_SPACE
  0
BLOCK_RECORD
  5
15
102
{ACAD_XDICTIONARY
360
44A1
102
}
330
1
100
AcDbSymbolTableRecord
100
AcDbBlockTableRecord
  2
*PAPER_SPACE
  0
ENDTAB
  0
ENDSEC
  0
SECTION
  2
BLOCKS
  0
BLOCK
  5
19
330
18
100
AcDbEntity
  8
0
100
AcDbBlockBegin
  2
*MODEL_SPACE
 70
     0
 10
0.0
 20
0.0
 30
0.0
  3
*MODEL_SPACE
  1

  0
ENDBLK
  5
1A
330
18
100
AcDbEntity
  8
0
100
AcDbBlockEnd
  0
BLOCK
  5
16
330
15
100
AcDbEntity
 67
     1
  8
0
100
AcDbBlockBegin
  2
*PAPER_SPACE
 70
     0
 10
0.0
 20
0.0
 30
0.0
  3
*PAPER_SPACE
  1

  0
ENDBLK
  5
17
330
15
100
AcDbEntity
 67
     1
  8
0
100
AcDbBlockEnd
  0
ENDSEC
  0
SECTION
  2
ENTITIES
  0
LWPOLYLINE
  5
1E0
330
18
100
AcDbEntity
  8
0
100
AcDbPolyline
 90
        4
 70
     1
 43
0.0
 10
2.869999999999997
 20
4.276243951503392
 10
4.869999999999997
 20
4.276243951503392
 10
4.869999999999997
 20
6.276243951503392
 10
2.869999999999997
 20
6.276243951503392
  0
LWPOLYLINE
  5
1E1
330
18
100
AcDbEntity
  8
0
100
AcDbPolyline
 90
        4
 70
     1
 43
0.0
 10
2.994999999999997
 20
4.401243951503392
 10
4.744999999999996
 20
4.401243951503392
 10
4.744999999999998
 20
6.151243951503392
 10
2.994999999999997
 20
6.151243951503392
  0
TEXT
  5
43F3
330
18
100
AcDbEntity
  8
TEXT
100
AcDbText
 10
3.005460903636929
 20
3.833132832859792
 30
0.0
 40
0.125
  1
PART #110641
  7
ITALICC
 72
     1
 11
3.746532332208357
 21
3.833132832859792
 31
0.0
100
AcDbText
  0
LINE
  5
43F4
330
18
100
AcDbEntity
  8
TEXT
100
AcDbLine
 10
3.71426583116042
 20
3.588779146839958
 30
0.0
 11
3.790913812452978
 21
3.588779146839958
 31
0.0
  0
LINE
  5
43F5
330
18
100
AcDbEntity
  8
TEXT
100
AcDbLine
 10
3.786433925126478
 20
3.653055841496724
 30
0.0
 11
3.718934207476961
 21
3.653055841496724
 31
0.0
  0
LWPOLYLINE
  5
43F6
330
18
100
AcDbEntity
  8
TEXT
100
AcDbPolyline
 90
        5
 70
     0
 43
0.0001332181640625
 10
2.077153788625745
 20
3.529829039738911
 10
2.090475605031994
 20
3.529829039738911
 10
2.090475605031994
 20
3.5664640348561
 10
2.127110600149184
 20
3.5664640348561
 10
2.127110600149184
 20
3.579785851262347
  0
LWPOLYLINE
  5
43F7
330
18
100
AcDbEntity
  8
TEXT
100
AcDbPolyline
 90
        3
 70
     0
 43
0.0006660908203125
 10
2.117119237844493
 20
3.626412208684226
 10
2.030527431203868
 20
3.626412208684226
 10
2.030527431203868
 20
3.539820402043599
  0
LWPOLYLINE
  5
43F8
330
18
100
AcDbEntity
  8
TEXT
100
AcDbPolyline
 90
        3
 70
     0
 43
0.0006660908203125
 10
2.117119237844493
 20
3.653055841496727
 10
2.003883798391371
 20
3.653055841496727
 10
2.003883798391371
 20
3.539820402043599
  0
LWPOLYLINE
  5
43F9
330
18
100
AcDbEntity
  8
TEXT
100
AcDbPolyline
 90
        5
 70
     0
 43
0.0001332181640625
 10
2.127110600149184
 20
3.4598895036061
 10
2.127110600149184
 20
3.47321132001235
 10
2.090475605031996
 20
3.47321132001235
 10
2.090475605031996
 20
3.509846315129537
 10
2.077153788625745
 20
3.509846315129537
  0
LWPOLYLINE
  5
43FA
330
18
100
AcDbEntity
  8
TEXT
100
AcDbPolyline
 90
        3
 70
     0
 43
0.0006660908203125
 10
2.030527431203868
 20
3.499854952824851
 10
2.030527431203868
 20
3.413263146184225
 10
2.117119237844493
 20
3.413263146184225
  0
LWPOLYLINE
  5
43FB
330
18
100
AcDbEntity
  8
TEXT
100
AcDbPolyline
 90
        3
 70
     0
 43
0.0006660908203125
 10
2.003883798391371
 20
3.499854952824851
 10
2.003883798391371
 20
3.386619513371724
 10
2.117119237844493
 20
3.386619513371724
  0
LWPOLYLINE
  5
43FC
330
18
100
AcDbEntity
  8
TEXT
100
AcDbPolyline
 90
        2
 70
     0
 43
0.0001332181640625
 10
2.030527431203868
 20
3.499854952824851
 10
2.090475605031996
 20
3.509846315129537
  0
LWPOLYLINE
  5
43FD
330
18
100
AcDbEntity
  8
TEXT
100
AcDbPolyline
 90
        2
 70
     0
 43
0.0001332181640625
 10
2.077153788625745
 20
3.509846315129537
 10
2.003883798391371
 20
3.499854952824851
  0
LWPOLYLINE
  5
43FE
330
18
100
AcDbEntity
  8
TEXT
100
AcDbPolyline
 90
        2
 70
     0
 43
0.0006660908203125
 10
2.030527431203868
 20
3.499854952824851
 10
2.003883798391371
 20
3.499854952824851
  0
LWPOLYLINE
  5
43FF
330
18
100
AcDbEntity
  8
TEXT
100
AcDbPolyline
 90
        2
 70
     0
 43
0.0001332181640625
 10
2.030527431203868
 20
3.413263146184225
 10
2.090475605031996
 20
3.47321132001235
  0
LWPOLYLINE
  5
4400
330
18
100
AcDbEntity
  8
TEXT
100
AcDbPolyline
 90
        2
 70
     0
 43
0.0006660908203125
 10
2.030527431203868
 20
3.539820402043599
 10
2.003883798391371
 20
3.539820402043599
  0
LWPOLYLINE
  5
4401
330
18
100
AcDbEntity
  8
TEXT
100
AcDbPolyline
 90
        2
 70
     0
 43
0.0001332181640625
 10
2.003883798391371
 20
3.539820402043599
 10
2.077153788625745
 20
3.529829039738911
  0
LWPOLYLINE
  5
4402
330
18
100
AcDbEntity
  8
TEXT
100
AcDbPolyline
 90
        2
 70
     0
 43
0.0001332181640625
 10
2.030527431203868
 20
3.539820402043599
 10
2.090475605031994
 20
3.529829039738911
  0
LWPOLYLINE
  5
4403
330
18
100
AcDbEntity
  8
TEXT
100
AcDbPolyline
 90
        2
 70
     0
 43
0.0001332181640625
 10
2.030527431203868
 20
3.626412208684226
 10
2.090475605031994
 20
3.5664640348561
  0
LWPOLYLINE
  5
4404
330
18
100
AcDbEntity
  8
TEXT
100
AcDbPolyline
 90
        5
 70
     0
 43
0.0001332181640625
 10
2.197050136281994
 20
3.509846315129537
 10
2.183728319875746
 20
3.509846315129537
 10
2.183728319875746
 20
3.47321132001235
 10
2.147093324758556
 20
3.47321132001235
 10
2.147093324758556
 20
3.4598895036061
  0
LWPOLYLINE
  5
4405
330
18
100
AcDbEntity
  8
TEXT
100
AcDbPolyline
 90
        2
 70
     0
 43
0.0001332181640625
 10
2.24367649370387
 20
3.499854952824851
 10
2.183728319875746
 20
3.509846315129537
  0
LWPOLYLINE
  5
4406
330
18
100
AcDbEntity
  8
TEXT
100
AcDbPolyline
 90
        2
 70
     0
 43
0.0001332181640625
 10
2.270320126516371
 20
3.499854952824851
 10
2.197050136281994
 20
3.509846315129537
  0
LWPOLYLINE
  5
4407
330
18
100
AcDbEntity
  8
TEXT
100
AcDbPolyline
 90
        3
 70
     0
 43
0.0006660908203125
 10
2.157084687063245
 20
3.386619513371724
 10
2.270320126516371
 20
3.386619513371724
 10
2.270320126516371
 20
3.499854952824851
  0
LWPOLYLINE
  5
4408
330
18
100
AcDbEntity
  8
TEXT
100
AcDbPolyline
 90
        3
 70
     0
 43
0.0006660908203125
 10
2.157084687063245
 20
3.413263146184225
 10
2.24367649370387
 20
3.413263146184225
 10
2.24367649370387
 20
3.499854952824851
  0
LWPOLYLINE
  5
4409
330
18
100
AcDbEntity
  8
TEXT
100
AcDbPolyline
 90
        2
 70
     0
 43
0.0001332181640625
 10
2.24367649370387
 20
3.413263146184225
 10
2.183728319875746
 20
3.47321132001235
  0
LWPOLYLINE
  5
440A
330
18
100
AcDbEntity
  8
TEXT
100
AcDbPolyline
 90
        2
 70
     0
 43
0.0006660908203125
 10
2.157084687063245
 20
3.413263146184225
 10
2.157084687063245
 20
3.386619513371724
  0
LWPOLYLINE
  5
440B
330
18
100
AcDbEntity
  8
TEXT
100
AcDbPolyline
 90
        2
 70
     0
 43
0.0001332181640625
 10
2.147093324758556
 20
3.4598895036061
 10
2.157084687063245
 20
3.386619513371724
  0
LWPOLYLINE
  5
440C
330
18
100
AcDbEntity
  8
TEXT
100
AcDbPolyline
 90
        2
 70
     0
 43
0.0001332181640625
 10
2.157084687063245
 20
3.413263146184225
 10
2.147093324758556
 20
3.47321132001235
  0
LWPOLYLINE
  5
440D
330
18
100
AcDbEntity
  8
TEXT
100
AcDbPolyline
 90
        2
 70
     0
 43
0.0001332181640625
 10
2.117119237844493
 20
3.386619513371724
 10
2.127110600149184
 20
3.4598895036061
  0
LWPOLYLINE
  5
440E
330
18
100
AcDbEntity
  8
TEXT
100
AcDbPolyline
 90
        2
 70
     0
 43
0.0001332181640625
 10
2.117119237844493
 20
3.413263146184225
 10
2.127110600149184
 20
3.47321132001235
  0
LWPOLYLINE
  5
440F
330
18
100
AcDbEntity
  8
TEXT
100
AcDbPolyline
 90
        2
 70
     0
 43
0.0006660908203125
 10
2.117119237844493
 20
3.413263146184225
 10
2.117119237844493
 20
3.386619513371724
  0
LWPOLYLINE
  5
4410
330
18
100
AcDbEntity
  8
TEXT
100
AcDbPolyline
 90
        2
 70
     0
 43
0.0006660908203125
 10
2.24367649370387
 20
3.499854952824851
 10
2.270320126516371
 20
3.499854952824851
  0
LWPOLYLINE
  5
4411
330
18
100
AcDbEntity
  8
TEXT
100
AcDbPolyline
 90
        2
 70
     0
 43
0.0001332181640625
 10
2.24367649370387
 20
3.626412208684226
 10
2.183728319875746
 20
3.5664640348561
  0
LWPOLYLINE
  5
4412
330
18
100
AcDbEntity
  8
TEXT
100
AcDbPolyline
 90
        2
 70
     0
 43
0.0001332181640625
 10
2.24367649370387
 20
3.539820402043599
 10
2.183728319875746
 20
3.529829039738911
  0
LWPOLYLINE
  5
4413
330
18
100
AcDbEntity
  8
TEXT
100
AcDbPolyline
 90
        2
 70
     0
 43
0.0001332181640625
 10
2.197050136281994
 20
3.529829039738911
 10
2.270320126516371
 20
3.539820402043599
  0
LWPOLYLINE
  5
4414
330
18
100
AcDbEntity
  8
TEXT
100
AcDbPolyline
 90
        3
 70
     0
 43
0.0006660908203125
 10
2.24367649370387
 20
3.539820402043599
 10
2.24367649370387
 20
3.626412208684226
 10
2.157084687063245
 20
3.626412208684226
  0
LWPOLYLINE
  5
4415
330
18
100
AcDbEntity
  8
TEXT
100
AcDbPolyline
 90
        3
 70
     0
 43
0.0006660908203125
 10
2.270320126516371
 20
3.539820402043599
 10
2.270320126516371
 20
3.653055841496727
 10
2.157084687063245
 20
3.653055841496727
  0
LWPOLYLINE
  5
4416
330
18
100
AcDbEntity
  8
TEXT
100
AcDbPolyline
 90
        2
 70
     0
 43
0.0001332181640625
 10
2.157084687063245
 20
3.653055841496727
 10
2.147093324758556
 20
3.579785851262347
  0
LWPOLYLINE
  5
4417
330
18
100
AcDbEntity
  8
TEXT
100
AcDbPolyline
 90
        2
 70
     0
 43
0.0001332181640625
 10
2.157084687063245
 20
3.626412208684226
 10
2.147093324758556
 20
3.5664640348561
  0
LWPOLYLINE
  5
4418
330
18
100
AcDbEntity
  8
TEXT
100
AcDbPolyline
 90
        2
 70
     0
 43
0.0006660908203125
 10
2.157084687063245
 20
3.626412208684226
 10
2.157084687063245
 20
3.653055841496727
  0
LWPOLYLINE
  5
4419
330
18
100
AcDbEntity
  8
TEXT
100
AcDbPolyline
 90
        5
 70
     0
 43
0.0001332181640625
 10
2.147093324758556
 20
3.579785851262347
 10
2.147093324758556
 20
3.5664640348561
 10
2.183728319875746
 20
3.5664640348561
 10
2.183728319875746
 20
3.529829039738911
 10
2.197050136281994
 20
3.529829039738911
  0
LWPOLYLINE
  5
441A
330
18
100
AcDbEntity
  8
TEXT
100
AcDbPolyline
 90
        2
 70
     0
 43
0.0001332181640625
 10
2.117119237844493
 20
3.626412208684226
 10
2.127110600149184
 20
3.5664640348561
  0
LWPOLYLINE
  5
441B
330
18
100
AcDbEntity
  8
TEXT
100
AcDbPolyline
 90
        2
 70
     0
 43
0.0001332181640625
 10
2.127110600149184
 20
3.579785851262347
 10
2.117119237844493
 20
3.653055841496727
  0
LWPOLYLINE
  5
441C
330
18
100
AcDbEntity
  8
TEXT
100
AcDbPolyline
 90
        2
 70
     0
 43
0.0006660908203125
 10
2.117119237844493
 20
3.626412208684226
 10
2.117119237844493
 20
3.653055841496727
  0
LWPOLYLINE
  5
441D
330
18
100
AcDbEntity
  8
TEXT
100
AcDbPolyline
 90
        2
 70
     0
 43
0.0006660908203125
 10
2.24367649370387
 20
3.539820402043599
 10
2.270320126516371
 20
3.539820402043599
  0
LWPOLYLINE
  5
441E
330
18
100
AcDbEntity
  8
TEXT
100
AcDbPolyline
 90
        2
 70
     0
 43
0.0
 10
2.989100047265001
 20
3.438134150723141
 42
0.3318488747599744
 10
3.058219339830314
 20
3.386582808508213
 42
-6.868794160588311
  0
LINE
  5
441F
330
18
100
AcDbEntity
  8
TEXT
100
AcDbLine
 10
3.057079766334118
 20
3.721067319235534
 30
0.0
 11
2.990271053767753
 21
3.721067319235534
 31
0.0
  0
LINE
  5
4420
330
18
100
AcDbEntity
  8
TEXT
100
AcDbLine
 10
2.710928686148659
 20
3.653055841496724
 30
0.0
 11
2.535196933250148
 21
3.653055841496724
 31
0.0
  0
ARC
  5
4421
330
18
100
AcDbEntity
  8
TEXT
100
AcDbCircle
 10
2.606034399608697
 20
3.46977861686877
 30
0.0
 40
0.0831958083605586
100
AcDbArc
 50
270.0
 51
90.0
  0
LINE
  5
4422
330
18
100
AcDbEntity
  8
TEXT
100
AcDbLine
 10
2.540434263364396
 20
3.588779146839958
 30
0.0
 11
2.707339917393366
 21
3.588779146839958
 31
0.0
  0
LINE
  5
4423
330
18
100
AcDbEntity
  8
TEXT
100
AcDbLine
 10
2.610974773514977
 20
3.454939814841652
 30
0.0
 11
2.453109473803642
 21
3.454939814841652
 31
0.0
  0
LINE
  5
4424
330
18
100
AcDbEntity
  8
TEXT
100
AcDbLine
 10
2.453109473803644
 20
3.386582808508213
 30
0.0
 11
2.606034399608697
 21
3.386582808508213
 31
0.0
  0
ARC
  5
4425
330
18
100
AcDbEntity
  8
TEXT
100
AcDbCircle
 10
2.535196933250148
 20
3.570968382050222
 30
0.0
 40
0.0820874594465043
100
AcDbArc
 50
90.0
 51
270.0
  0
LINE
  5
4426
330
18
100
AcDbEntity
  8
TEXT
100
AcDbLine
 10
2.453109473803642
 20
3.454939814841652
 30
0.0
 11
2.453109473803644
 21
3.386582808508213
 31
0.0
  0
LINE
  5
4427
330
18
100
AcDbEntity
  8
TEXT
100
AcDbLine
 10
2.535196933250148
 20
3.488880922603716
 30
0.0
 11
2.610974773514977
 21
3.488880922603716
 31
0.0
  0
ARC
  5
4428
330
18
100
AcDbEntity
  8
TEXT
100
AcDbCircle
 10
2.610974773514977
 20
3.471910368722686
 30
0.0
 40
0.0169705538810321
100
AcDbArc
 50
270.0
 51
90.0
  0
LINE
  5
4429
330
18
100
AcDbEntity
  8
TEXT
100
AcDbLine
 10
2.606034399608697
 20
3.55297442522933
 30
0.0
 11
2.540434263364396
 21
3.55297442522933
 31
0.0
  0
ARC
  5
442A
330
18
100
AcDbEntity
  8
TEXT
100
AcDbCircle
 10
2.540434263364396
 20
3.570876786034646
 30
0.0
 40
0.017902360805315
100
AcDbArc
 50
90.0
 51
270.0
  0
LINE
  5
442B
330
18
100
AcDbEntity
  8
TEXT
100
AcDbLine
 10
2.901400578168511
 20
3.552183845383603
 30
0.0
 11
2.842770257136574
 21
3.653055841496724
 31
0.0
  0
LINE
  5
442C
330
18
100
AcDbEntity
  8
TEXT
100
AcDbLine
 10
2.761226524873472
 20
3.386582808508213
 30
0.0
 11
2.857866775948466
 21
3.386853447606495
 31
0.0
  0
LWPOLYLINE
  5
442D
330
18
100
AcDbEntity
  8
TEXT
100
AcDbPolyline
 90
        6
 70
     1
 43
0.0
 10
2.803750328448622
 20
3.588779146839958
 10
2.773433734228414
 20
3.588779146839958
 10
2.773433734228414
 20
3.465668148785064
 42
0.407328721240804
 10
2.78497738538989
 20
3.453849234108678
 10
2.845599084434621
 20
3.453849234108678
 10
2.863064424841939
 20
3.486661463152157
  0
LINE
  5
442E
330
18
100
AcDbEntity
  8
TEXT
100
AcDbLine
 10
2.707339917393366
 20
3.588779146839958
 30
0.0
 11
2.707339917393366
 21
3.446375199846262
 31
0.0
  0
ARC
  5
442F
330
18
100
AcDbEntity
  8
TEXT
100
AcDbCircle
 10
2.767455935367119
 20
3.446375199846262
 30
0.0
 40
0.0601160179737537
100
AcDbArc
 50
180.0000000000003
 51
264.0521544866073
  0
LINE
  5
4430
330
18
100
AcDbEntity
  8
TEXT
100
AcDbLine
 10
2.770971290992666
 20
3.687443759090862
 30
0.0
 11
2.710928686148659
 21
3.687443759090862
 31
0.0
  0
LINE
  5
4431
330
18
100
AcDbEntity
  8
TEXT
100
AcDbLine
 10
2.710928686148659
 20
3.687443759090862
 30
0.0
 11
2.710928686148659
 21
3.653055841496724
 31
0.0
  0
LINE
  5
4432
330
18
100
AcDbEntity
  8
TEXT
100
AcDbLine
 10
2.770971290992666
 20
3.653055841496724
 30
0.0
 11
2.770971290992666
 21
3.687443759090862
 31
0.0
  0
LINE
  5
4433
330
18
100
AcDbEntity
  8
TEXT
100
AcDbLine
 10
2.842770257136574
 20
3.653055841496724
 30
0.0
 11
2.770971290992666
 21
3.653055841496724
 31
0.0
  0
LINE
  5
4434
330
18
100
AcDbEntity
  8
TEXT
100
AcDbLine
 10
2.891800341171557
 20
3.406541314613225
 30
0.0
 11
2.989100047265002
 21
3.570891525548494
 31
0.0
  0
LINE
  5
4435
330
18
100
AcDbEntity
  8
TEXT
100
AcDbLine
 10
2.989100047265002
 20
3.570891525548494
 30
0.0
 11
2.989100047265002
 21
3.438134150723137
 31
0.0
  0
ARC
  5
4436
330
18
100
AcDbEntity
  8
TEXT
100
AcDbCircle
 10
2.857756781259343
 20
3.426130530781908
 30
0.0
 40
0.0392772371940762
100
AcDbArc
 50
270.1604552698595
 51
330.0831797321295
  0
LINE
  5
4437
330
18
100
AcDbEntity
  8
TEXT
100
AcDbLine
 10
2.960149140974377
 20
3.653055841496724
 30
0.0
 11
2.901400578168511
 21
3.552183845383603
 31
0.0
  0
LINE
  5
4438
330
18
100
AcDbEntity
  8
TEXT
100
AcDbLine
 10
2.990271053767753
 20
3.721067319235534
 30
0.0
 11
2.990271053767753
 21
3.653055841496724
 31
0.0
  0
LINE
  5
4439
330
18
100
AcDbEntity
  8
TEXT
100
AcDbLine
 10
2.990271053767753
 20
3.653055841496724
 30
0.0
 11
2.960149140974377
 21
3.653055841496724
 31
0.0
  0
LWPOLYLINE
  5
443A
330
18
100
AcDbEntity
  8
TEXT
100
AcDbPolyline
 90
        4
 70
     0
 43
0.0
 10
3.342357175387911
 20
3.581225357673848
 10
3.342357175387911
 20
3.386582808508213
 10
3.410835458675769
 20
3.386582808508213
 10
3.410835458675769
 20
3.430073753458651
 42
-1.714843617202739
  0
LWPOLYLINE
  5
443B
330
18
100
AcDbEntity
  8
TEXT
100
AcDbPolyline
 90
        2
 70
     0
 43
0.0
 10
3.377491525932121
 20
3.653055841496727
 42
-0.3277054968067132
 10
3.413273216645286
 20
3.624733295727083
 42
6.667889725900311
  0
LWPOLYLINE
  5
443C
330
18
100
AcDbEntity
  8
TEXT
100
AcDbPolyline
 90
        2
 70
     0
 43
0.0
 10
3.206057953352894
 20
3.588779146839958
 42
-0.4142135623731017
 10
3.213611742519008
 20
3.581225357673848
 42
-0.9999999999999998
  0
LINE
  5
443D
330
18
100
AcDbEntity
  8
TEXT
100
AcDbLine
 10
3.223409676402915
 20
3.653055841496724
 30
0.0
 11
3.089391620471778
 21
3.653055841496724
 31
0.0
  0
LINE
  5
443E
330
18
100
AcDbEntity
  8
TEXT
100
AcDbLine
 10
3.156222673529748
 20
3.386582808508213
 30
0.0
 11
3.156222673529748
 21
3.588779146839958
 31
0.0
  0
LINE
  5
443F
330
18
100
AcDbEntity
  8
TEXT
100
AcDbLine
 10
3.089391620471778
 20
3.653055841496724
 30
0.0
 11
3.089391620471778
 21
3.452191634764315
 31
0.0
  0
LINE
  5
4440
330
18
100
AcDbEntity
  8
TEXT
100
AcDbLine
 10
3.057079766334118
 20
3.468970646611212
 30
0.0
 11
3.057079766334118
 21
3.721067319235534
 31
0.0
  0
LINE
  5
4441
330
18
100
AcDbEntity
  8
TEXT
100
AcDbLine
 10
3.058219339830313
 20
3.386582808508213
 30
0.0
 11
3.156222673529748
 21
3.386582808508213
 31
0.0
  0
LINE
  5
4442
330
18
100
AcDbEntity
  8
TEXT
100
AcDbLine
 10
3.089391620471778
 20
3.452191634764315
 30
0.0
 11
3.072397983587177
 21
3.452191634764315
 31
0.0
  0
ARC
  5
4443
330
18
100
AcDbEntity
  8
TEXT
100
AcDbCircle
 10
3.072397983587176
 20
3.467573441007741
 30
0.0
 40
0.0153818062434269
100
AcDbArc
 50
174.7883570302258
 51
270.0
  0
LINE
  5
4444
330
18
100
AcDbEntity
  8
TEXT
100
AcDbLine
 10
3.156222673529748
 20
3.588779146839958
 30
0.0
 11
3.206057953352895
 21
3.588779146839958
 31
0.0
  0
LINE
  5
4445
330
18
100
AcDbEntity
  8
TEXT
100
AcDbLine
 10
3.213611742519009
 20
3.581225357673848
 30
0.0
 11
3.213611742519009
 21
3.386582808508213
 31
0.0
  0
LINE
  5
4446
330
18
100
AcDbEntity
  8
TEXT
100
AcDbLine
 10
3.280669789300849
 20
3.386582808508213
 30
0.0
 11
3.280669789300849
 21
3.588779146839958
 31
0.0
  0
LINE
  5
4447
330
18
100
AcDbEntity
  8
TEXT
100
AcDbLine
 10
3.213611742519009
 20
3.386582808508213
 30
0.0
 11
3.280669789300849
 21
3.386582808508213
 31
0.0
  0
LWPOLYLINE
  5
4448
330
18
100
AcDbEntity
  8
TEXT
100
AcDbPolyline
 90
        3
 70
     0
 43
0.0
 10
3.377491525932121
 20
3.653055841496727
 10
3.259191367116077
 20
3.653055841496727
 10
3.259191367116077
 20
3.625888344735831
 42
-1.960274751411753
  0
LINE
  5
4449
330
18
100
AcDbEntity
  8
TEXT
100
AcDbLine
 10
3.280669789300849
 20
3.588779146839958
 30
0.0
 11
3.334803386221799
 21
3.588779146839958
 31
0.0
  0
LWPOLYLINE
  5
444A
330
18
100
AcDbEntity
  8
TEXT
100
AcDbPolyline
 90
        2
 70
     0
 43
0.0
 10
3.223409676402916
 20
3.653055841496727
 42
-0.3328679258950098
 10
3.259191367116077
 20
3.625888344735831
 42
6.772930709997214
  0
LWPOLYLINE
  5
444B
330
18
100
AcDbEntity
  8
TEXT
100
AcDbPolyline
 90
        2
 70
     0
 43
0.0
 10
3.334803386221798
 20
3.588779146839958
 42
-0.4142135623731017
 10
3.342357175387911
 20
3.581225357673848
 42
-0.9999999999999998
  0
ARC
  5
444C
330
18
100
AcDbEntity
  8
TEXT
100
AcDbCircle
 10
3.546078186085278
 20
3.611472274375821
 30
0.0
 40
0.0416329381542859
100
AcDbArc
 50
26.56974201007528
 51
87.20939649401342
  0
LWPOLYLINE
  5
444D
330
18
100
AcDbEntity
  8
TEXT
100
AcDbPolyline
 90
        2
 70
     0
 43
0.0
 10
3.453911391543405
 20
3.386582808508213
 10
3.587928809174782
 20
3.386582808508213
 42
0.9999999999999998
  0
LWPOLYLINE
  5
444E
330
18
100
AcDbEntity
  8
TEXT
100
AcDbPolyline
 90
        4
 70
     1
 43
0.0
 10
3.567806344104889
 20
3.489546786492238
 10
3.479146025445031
 20
3.489546786492238
 42
0.9999999999999998
 10
3.479146025445031
 20
3.447148245988377
 10
3.567806344104889
 20
3.447148245988377
 42
1.0
  0
LWPOLYLINE
  5
444F
330
18
100
AcDbEntity
  8
TEXT
100
AcDbPolyline
 90
        2
 70
     0
 43
0.0
 10
3.410835458675769
 20
3.430073753458651
 42
0.2901071551932823
 10
3.453911391543405
 20
3.386582808508213
 42
5.328517124445801
  0
LINE
  5
4450
330
18
100
AcDbEntity
  8
TEXT
100
AcDbLine
 10
3.548105125862346
 20
3.653055841496724
 30
0.0
 11
3.413273216645287
 21
3.653055841496724
 31
0.0
  0
LINE
  5
4451
330
18
100
AcDbEntity
  8
TEXT
100
AcDbLine
 10
3.472587313038606
 20
3.551504173377826
 30
0.0
 11
3.554875302821989
 21
3.551504173377826
 31
0.0
  0
LINE
  5
4452
330
18
100
AcDbEntity
  8
TEXT
100
AcDbLine
 10
3.519074227517868
 20
3.588779146839958
 30
0.0
 11
3.411867954130578
 21
3.588779146839958
 31
0.0
  0
LINE
  5
4453
330
18
100
AcDbEntity
  8
TEXT
100
AcDbLine
 10
3.413273216645287
 20
3.653055841496724
 30
0.0
 11
3.413273216645287
 21
3.62473329572708
 31
0.0
  0
ARC
  5
4454
330
18
100
AcDbEntity
  8
TEXT
100
AcDbCircle
 10
3.472587313038605
 20
3.483818592233707
 30
0.0
 40
0.0676855811441166
100
AcDbArc
 50
90.0
 51
153.7768192527749
  0
LINE
  5
4455
330
18
100
AcDbEntity
  8
TEXT
100
AcDbLine
 10
3.411867954130578
 20
3.588779146839958
 30
0.0
 11
3.411867954130578
 21
3.513726740765751
 31
0.0
  0
LINE
  5
4456
330
18
100
AcDbEntity
  8
TEXT
100
AcDbLine
 10
3.554875302821989
 20
3.551504173377826
 30
0.0
 11
3.544610542408425
 21
3.57275471295052
 31
0.0
  0
ARC
  5
4457
330
18
100
AcDbEntity
  8
TEXT
100
AcDbCircle
 10
3.519074227517867
 20
3.560419771839961
 30
0.0
 40
0.028359375
100
AcDbArc
 50
25.78218179591245
 51
90.0
  0
LINE
  5
4458
330
18
100
AcDbEntity
  8
TEXT
100
AcDbLine
 10
3.689359955877761
 20
3.386582808508213
 30
0.0
 11
3.689359955877756
 21
3.563873313939681
 31
0.0
  0
LWPOLYLINE
  5
4459
330
18
100
AcDbEntity
  8
TEXT
100
AcDbPolyline
 90
        2
 70
     0
 43
0.0
 10
3.631004742042426
 20
3.386582808508213
 10
3.68935995587776
 20
3.386582808508213
  0
LWPOLYLINE
  5
445A
330
18
100
AcDbEntity
  8
TEXT
100
AcDbPolyline
 90
        2
 70
     0
 43
0.0
 10
3.631004742042426
 20
3.430073753458651
 42
-0.2901071551932486
 10
3.587928809174782
 20
3.386582808508213
 42
-5.328517124445184
  0
LWPOLYLINE
  5
445B
330
18
100
AcDbEntity
  8
TEXT
100
AcDbPolyline
 90
        2
 70
     0
 43
0.0
 10
3.631004742042426
 20
3.430073753458651
 10
3.631004742042426
 20
3.386582808508213
  0
LINE
  5
445C
330
18
100
AcDbEntity
  8
TEXT
100
AcDbLine
 10
3.690961971036888
 20
3.653055841496724
 30
0.0
 11
3.627065064737387
 21
3.653055841496724
 31
0.0
  0
LINE
  5
445D
330
18
100
AcDbEntity
  8
TEXT
100
AcDbLine
 10
3.627065064737387
 20
3.653055841496724
 30
0.0
 11
3.627065064737387
 21
3.547843862943296
 31
0.0
  0
LINE
  5
445E
330
18
100
AcDbEntity
  8
TEXT
100
AcDbLine
 10
3.627065064737387
 20
3.547843862943296
 30
0.0
 11
3.583314293555486
 21
3.630094138939441
 31
0.0
  0
ARC
  5
445F
330
18
100
AcDbEntity
  8
TEXT
100
AcDbCircle
 10
3.714265831160419
 20
3.563873271557295
 30
0.0
 40
0.0249058752826653
100
AcDbArc
 50
89.99971217465335
 51
179.9999999999985
  0
ARC
  5
4460
330
18
100
AcDbEntity
  8
TEXT
100
AcDbCircle
 10
3.722154788099997
 20
3.621810114214459
 30
0.0
 40
0.0314112657011332
100
AcDbArc
 50
95.88484768694724
 51
173.2388340632136
  0
LINE
  5
4461
330
18
100
AcDbEntity
  8
TEXT
100
AcDbLine
 10
3.690961971036888
 20
3.625508191635849
 30
0.0
 11
3.690961971036888
 21
3.653055841496724
 31
0.0
  0
TEXT
  5
4462
330
18
100
AcDbEntity
  8
TEXT
100
AcDbText
 10
4.159837490458679
 20
3.479468617153709
 30
0.0
 40
0.0522247191011236
  1
Minneapolis, MN 55432-0008
 41
1.11444212721585
 72
     5
 11
5.488770074728343
 21
3.479468617153709
 31
0.0
100
AcDbText
  0
TEXT
  5
4463
330
18
100
AcDbEntity
  8
TEXT
100
AcDbText
 10
4.159837490458679
 20
3.572727044120001
 30
0.0
 40
0.0522247191011236
  1
6536 Main St. N.E. * P.O. Box 32008
 41
0.8388932496075355
 72
     5
 11
5.488770074728343
 21
3.572727044120001
 31
0.0
100
AcDbText
  0
TEXT
  5
4464
330
18
100
AcDbEntity
  8
TEXT
100
AcDbText
 10
4.159837490458679
 20
3.665985471086293
 30
0.0
 40
0.0522247191011236
  1
Stylmark  Incorporated
 41
1.221428571428571
 72
     5
 11
5.488770074728343
 21
3.665985471086293
 31
0.0
100
AcDbText
  0
TEXT
  5
4465
330
18
100
AcDbEntity
  8
TEXT
100
AcDbText
 10
4.159837490458679
 20
3.386210190187417
 30
0.0
 40
0.0522247191011236
  1
Phone  1-800-328-2495
 41
1.272321428571429
 72
     5
 11
5.488770074728343
 21
3.386210190187417
 31
0.0
100
AcDbText
  0
LINE
  5
4466
330
18
100
AcDbEntity
  8
TEXT
100
AcDbLine
 10
3.912281678995664
 20
3.54316259855575
 30
0.0
 11
3.976838794961369
 21
3.653055841496724
 31
0.0
  0
LINE
  5
4467
330
18
100
AcDbEntity
  8
TEXT
100
AcDbLine
 10
3.976838794961369
 20
3.653055841496724
 30
0.0
 11
3.901846962231743
 21
3.653055841496724
 31
0.0
  0
LINE
  5
4468
330
18
100
AcDbEntity
  8
TEXT
100
AcDbLine
 10
3.931195529983068
 20
3.386582808508213
 30
0.0
 11
4.007773902359274
 21
3.386582808508213
 31
0.0
  0
LINE
  5
4469
330
18
100
AcDbEntity
  8
TEXT
100
AcDbLine
 10
4.007773902359274
 20
3.386582808508213
 30
0.0
 11
3.912281678995664
 21
3.54316259855575
 31
0.0
  0
LINE
  5
446A
330
18
100
AcDbEntity
  8
TEXT
100
AcDbLine
 10
3.855291996771604
 20
3.386582808508213
 30
0.0
 11
3.855291996771604
 21
3.518162376984393
 31
0.0
  0
LINE
  5
446B
330
18
100
AcDbEntity
  8
TEXT
100
AcDbLine
 10
3.855291996771604
 20
3.518162376984393
 30
0.0
 11
3.931195529983068
 21
3.386582808508213
 31
0.0
  0
LINE
  5
446C
330
18
100
AcDbEntity
  8
TEXT
100
AcDbLine
 10
3.790913812452978
 20
3.588779146839958
 30
0.0
 11
3.790913812452983
 21
3.386582808508213
 31
0.0
  0
LINE
  5
446D
330
18
100
AcDbEntity
  8
TEXT
100
AcDbLine
 10
3.790913812452983
 20
3.386582808508213
 30
0.0
 11
3.855291996771604
 21
3.386582808508213
 31
0.0
  0
LINE
  5
446E
330
18
100
AcDbEntity
  8
TEXT
100
AcDbLine
 10
3.854748803675756
 20
3.718520047264324
 30
0.0
 11
3.786433925126483
 21
3.718520047264324
 31
0.0
  0
LINE
  5
446F
330
18
100
AcDbEntity
  8
TEXT
100
AcDbLine
 10
3.786433925126483
 20
3.718520047264324
 30
0.0
 11
3.786433925126478
 21
3.653055841496724
 31
0.0
  0
LINE
  5
4470
330
18
100
AcDbEntity
  8
TEXT
100
AcDbLine
 10
3.901846962231741
 20
3.653055841496724
 30
0.0
 11
3.854748803675756
 21
3.577190515085185
 31
0.0
  0
LINE
  5
4471
330
18
100
AcDbEntity
  8
TEXT
100
AcDbLine
 10
3.854748803675756
 20
3.577190515085185
 30
0.0
 11
3.854748803675756
 21
3.718520047264324
 31
0.0
  0
ENDSEC
  0
SECTION
  2
OBJECTS
  0
DICTIONARY
  5
C
330
0
100
AcDbDictionary
  3
ACAD_GROUP
350
D
  3
ACAD_LAYOUT
350
4476
  3
ACAD_MLINESTYLE
350
1B
  3
ACAD_PLOTSETTINGS
350
4477
  3
ACAD_PLOTSTYLENAME
350
4474
  3
ACDBHEADERROUNDTRIPXREC
350
4481
  3
ACDBVARIABLEDICTIONARY
350
447E
  0
DICTIONARY
  5
44A3
330
18
100
AcDbDictionary
280
     1
  3
ACAD_LAYOUTSELFREF
360
44A4
  0
DICTIONARY
  5
44A1
330
15
100
AcDbDictionary
280
     1
  3
ACAD_LAYOUTSELFREF
360
44A2
  0
DICTIONARY
  5
D
102
{ACAD_REACTORS
330
C
102
}
330
C
100
AcDbDictionary
  3
*A1
350
25
  3
*A2
350
1DF
  0
DICTIONARY
  5
4476
102
{ACAD_REACTORS
330
C
102
}
330
C
100
AcDbDictionary
  0
DICTIONARY
  5
1B
102
{ACAD_REACTORS
330
C
102
}
330
C
100
AcDbDictionary
  3
STANDARD
350
1C
  0
DICTIONARY
  5
4477
102
{ACAD_REACTORS
330
C
102
}
330
C
100
AcDbDictionary
  0
ACDBDICTIONARYWDFLT
  5
4474
102
{ACAD_REACTORS
330
C
102
}
330
C
100
AcDbDictionary
281
     1
  3
Normal
350
4475
100
AcDbDictionaryWithDefault
340
4475
  0
DICTIONARY
  5
4481
102
{ACAD_REACTORS
330
C
102
}
330
C
100
AcDbDictionary
  3
CEPSNTYPE
350
448B
  3
FINGERPRINTGUID
350
448C
  3
HYPERLINKBASE
350
4484
  3
INSUNITS
350
448A
  3
LAYOUTDICT
350
4486
  3
LWETCUNION
350
4489
  3
PLOTSETDICT
350
4487
  3
PLOTSTYLNAMDICT
350
4488
  3
PSVPSCALE
350
448E
  3
PUCSBASE
350
4491
  3
PUCSORGBACK
350
4497
  3
PUCSORGBOTTOM
350
4493
  3
PUCSORGFRONT
350
4496
  3
PUCSORGLEFT
350
4494
  3
PUCSORGRIGHT
350
4495
  3
PUCSORGTOP
350
4492
  3
PUCSORTHOREF
350
448F
  3
PUCSORTHOVIEW
350
4490
  3
STYLESHEET
350
4485
  3
TSTACKALIGN
350
4482
  3
TSTACKSIZE
350
4483
  3
UCSBASE
350
449A
  3
UCSORGBACK
350
44A0
  3
UCSORGBOTTOM
350
449C
  3
UCSORGFRONT
350
449F
  3
UCSORGLEFT
350
449D
  3
UCSORGRIGHT
350
449E
  3
UCSORGTOP
350
449B
  3
UCSORTHOREF
350
4498
  3
UCSORTHOVIEW
350
4499
  3
VERSIONGUID
350
448D
  0
DICTIONARY
  5
447E
102
{ACAD_REACTORS
330
C
102
}
330
C
100
AcDbDictionary
  3
DIMASSOC
350
447F
  0
XRECORD
  5
44A4
102
{ACAD_REACTORS
330
44A3
102
}
330
44A3
100
AcDbXrecord
340
18
  0
XRECORD
  5
44A2
102
{ACAD_REACTORS
330
44A1
102
}
330
44A1
100
AcDbXrecord
340
15
  0
GROUP
  5
25
102
{ACAD_REACTORS
330
D
102
}
330
D
100
AcDbGroup
300
BORDER FRAME 10-1-95
 70
     3
 71
     1
  0
GROUP
  5
1DF
102
{ACAD_REACTORS
330
D
102
}
330
D
100
AcDbGroup
300

 70
     1
 71
     1
  0
MLINESTYLE
  5
1C
102
{ACAD_REACTORS
330
1B
102
}
330
1B
100
AcDbMlineStyle
  2
STANDARD
 70
     0
  3

 62
   256
 51
90.0
 52
90.0
 71
     2
 49
0.5
 62
   256
  6
BYLAYER
 49
-0.5
 62
   256
  6
BYLAYER
  0
ACDBPLACEHOLDER
  5
4475
102
{ACAD_REACTORS
330
4474
102
}
330
4474
100
AcDbPlaceHolder
280
     0
  0
XRECORD
  5
448B
102
{ACAD_REACTORS
330
4481
102
}
330
4481
100
AcDbXrecord
 90
        0
  0
XRECORD
  5
448C
102
{ACAD_REACTORS
330
4481
102
}
330
4481
100
AcDbXrecord
  1
{040EE060-8DB9-11D6-88E6-0090279574E7}
  0
XRECORD
  5
4484
102
{ACAD_REACTORS
330
4481
102
}
330
4481
100
AcDbXrecord
  1

  0
XRECORD
  5
448A
102
{ACAD_REACTORS
330
4481
102
}
330
4481
100
AcDbXrecord
 90
        0
  0
XRECORD
  5
4486
102
{ACAD_REACTORS
330
4481
102
}
330
4481
100
AcDbXrecord
340
4476
  0
XRECORD
  5
4489
102
{ACAD_REACTORS
330
4481
102
}
330
4481
100
AcDbXrecord
 90
    14877
  0
XRECORD
  5
4487
102
{ACAD_REACTORS
330
4481
102
}
330
4481
100
AcDbXrecord
340
4477
  0
XRECORD
  5
4488
102
{ACAD_REACTORS
330
4481
102
}
330
4481
100
AcDbXrecord
340
4474
  0
XRECORD
  5
448E
102
{ACAD_REACTORS
330
4481
102
}
330
4481
100
AcDbXrecord
 40
0.0
  0
XRECORD
  5
4491
102
{ACAD_REACTORS
330
4481
102
}
330
4481
100
AcDbXrecord
340
0
  0
XRECORD
  5
4497
102
{ACAD_REACTORS
330
4481
102
}
330
4481
100
AcDbXrecord
 10
0.0
 20
0.0
 30
0.0
  0
XRECORD
  5
4493
102
{ACAD_REACTORS
330
4481
102
}
330
4481
100
AcDbXrecord
 10
0.0
 20
0.0
 30
0.0
  0
XRECORD
  5
4496
102
{ACAD_REACTORS
330
4481
102
}
330
4481
100
AcDbXrecord
 10
0.0
 20
0.0
 30
0.0
  0
XRECORD
  5
4494
102
{ACAD_REACTORS
330
4481
102
}
330
4481
100
AcDbXrecord
 10
0.0
 20
0.0
 30
0.0
  0
XRECORD
  5
4495
102
{ACAD_REACTORS
330
4481
102
}
330
4481
100
AcDbXrecord
 10
0.0
 20
0.0
 30
0.0
  0
XRECORD
  5
4492
102
{ACAD_REACTORS
330
4481
102
}
330
4481
100
AcDbXrecord
 10
0.0
 20
0.0
 30
0.0
  0
XRECORD
  5
448F
102
{ACAD_REACTORS
330
4481
102
}
330
4481
100
AcDbXrecord
340
0
  0
XRECORD
  5
4490
102
{ACAD_REACTORS
330
4481
102
}
330
4481
100
AcDbXrecord
 70
     0
  0
XRECORD
  5
4485
102
{ACAD_REACTORS
330
4481
102
}
330
4481
100
AcDbXrecord
  1

  0
XRECORD
  5
4482
102
{ACAD_REACTORS
330
4481
102
}
330
4481
100
AcDbXrecord
 90
        1
  0
XRECORD
  5
4483
102
{ACAD_REACTORS
330
4481
102
}
330
4481
100
AcDbXrecord
 90
       70
  0
XRECORD
  5
449A
102
{ACAD_REACTORS
330
4481
102
}
330
4481
100
AcDbXrecord
340
0
  0
XRECORD
  5
44A0
102
{ACAD_REACTORS
330
4481
102
}
330
4481
100
AcDbXrecord
 10
0.0
 20
0.0
 30
0.0
  0
XRECORD
  5
449C
102
{ACAD_REACTORS
330
4481
102
}
330
4481
100
AcDbXrecord
 10
0.0
 20
0.0
 30
0.0
  0
XRECORD
  5
449F
102
{ACAD_REACTORS
330
4481
102
}
330
4481
100
AcDbXrecord
 10
0.0
 20
0.0
 30
0.0
  0
XRECORD
  5
449D
102
{ACAD_REACTORS
330
4481
102
}
330
4481
100
AcDbXrecord
 10
0.0
 20
0.0
 30
0.0
  0
XRECORD
  5
449E
102
{ACAD_REACTORS
330
4481
102
}
330
4481
100
AcDbXrecord
 10
0.0
 20
0.0
 30
0.0
  0
XRECORD
  5
449B
102
{ACAD_REACTORS
330
4481
102
}
330
4481
100
AcDbXrecord
 10
0.0
 20
0.0
 30
0.0
  0
XRECORD
  5
4498
102
{ACAD_REACTORS
330
4481
102
}
330
4481
100
AcDbXrecord
340
0
  0
XRECORD
  5
4499
102
{ACAD_REACTORS
330
4481
102
}
330
4481
100
AcDbXrecord
 70
     0
  0
XRECORD
  5
448D
102
{ACAD_REACTORS
330
4481
102
}
330
4481
100
AcDbXrecord
  1
{040EE062-8DB9-11D6-88E6-0090279574E7}
  0
DICTIONARYVAR
  5
447F
102
{ACAD_REACTORS
330
447E
102
}
330
447E
100
DictionaryVariables
280
     0
  1
1
  0
ENDSEC
  0
EOF
