  0
SECTION
  2
HEADER
  9
$ACADVER
  1
AC1014
  9
$ACADMAINTVER
 70
     9
  9
$DWGCODEPAGE
  3
ANSI_1252
  9
$INSBASE
 10
0.0
 20
0.0
 30
0.0
  9
$EXTMIN
 10
-0.7298446939929633
 20
0.0886132744200057
 30
0.0
  9
$EXTMAX
 10
2.755374627754164
 20
2.336050321349351
 30
0.0
  9
$LIMMIN
 10
0.0
 20
0.0
  9
$LIMMAX
 10
12.0
 20
9.0
  9
$ORTHOMODE
 70
     1
  9
$REGENMODE
 70
     1
  9
$FILLMODE
 70
     1
  9
$QTEXTMODE
 70
     0
  9
$MIRRTEXT
 70
     0
  9
$DRAGMODE
 70
     2
  9
$LTSCALE
 40
1.0
  9
$OSMODE
 70
    39
  9
$ATTMODE
 70
     1
  9
$TEXTSIZE
 40
0.125
  9
$TRACEWID
 40
0.05
  9
$TEXTSTYLE
  7
ROMANS
  9
$CLAYER
  8
TEXT
  9
$CELTYPE
  6
BYLAYER
  9
$CECOLOR
 62
   256
  9
$CELTSCALE
 40
1.0
  9
$DELOBJ
 70
     1
  9
$DISPSILH
 70
     1
  9
$DIMSCALE
 40
0.0
  9
$DIMASZ
 40
0.125
  9
$DIMEXO
 40
0.125
  9
$DIMDLI
 40
0.38
  9
$DIMRND
 40
0.0
  9
$DIMDLE
 40
0.0
  9
$DIMEXE
 40
0.125
  9
$DIMTP
 40
0.0
  9
$DIMTM
 40
0.0
  9
$DIMTXT
 40
0.125
  9
$DIMCEN
 40
-0.125
  9
$DIMTSZ
 40
0.0
  9
$DIMTOL
 70
     0
  9
$DIMLIM
 70
     0
  9
$DIMTIH
 70
     1
  9
$DIMTOH
 70
     1
  9
$DIMSE1
 70
     0
  9
$DIMSE2
 70
     0
  9
$DIMTAD
 70
     0
  9
$DIMZIN
 70
     4
  9
$DIMBLK
  1

  9
$DIMASO
 70
     1
  9
$DIMSHO
 70
     1
  9
$DIMPOST
  1

  9
$DIMAPOST
  1

  9
$DIMALT
 70
     0
  9
$DIMALTD
 70
     2
  9
$DIMALTF
 40
25.4
  9
$DIMLFAC
 40
0.5
  9
$DIMTOFL
 70
     0
  9
$DIMTVP
 40
0.0
  9
$DIMTIX
 70
     0
  9
$DIMSOXD
 70
     0
  9
$DIMSAH
 70
     0
  9
$DIMBLK1
  1

  9
$DIMBLK2
  1

  9
$DIMSTYLE
  2
STANDARD
  9
$DIMCLRD
 70
     0
  9
$DIMCLRE
 70
     0
  9
$DIMCLRT
 70
     0
  9
$DIMTFAC
 40
1.0
  9
$DIMGAP
 40
0.09
  9
$DIMJUST
 70
     0
  9
$DIMSD1
 70
     0
  9
$DIMSD2
 70
     0
  9
$DIMTOLJ
 70
     1
  9
$DIMTZIN
 70
     4
  9
$DIMALTZ
 70
     0
  9
$DIMALTTZ
 70
     0
  9
$DIMFIT
 70
     3
  9
$DIMUPT
 70
     1
  9
$DIMUNIT
 70
     2
  9
$DIMDEC
 70
     3
  9
$DIMTDEC
 70
     3
  9
$DIMALTU
 70
     2
  9
$DIMALTTD
 70
     2
  9
$DIMTXSTY
  7
ROMANS
  9
$DIMAUNIT
 70
     0
  9
$LUNITS
 70
     2
  9
$LUPREC
 70
     4
  9
$SKETCHINC
 40
0.1
  9
$FILLETRAD
 40
0.015
  9
$AUNITS
 70
     0
  9
$AUPREC
 70
     0
  9
$MENU
  1
.
  9
$ELEVATION
 40
0.0
  9
$PELEVATION
 40
0.0
  9
$THICKNESS
 40
0.0
  9
$LIMCHECK
 70
     0
  9
$BLIPMODE
 70
     0
  9
$CHAMFERA
 40
0.5
  9
$CHAMFERB
 40
0.5
  9
$CHAMFERC
 40
1.0
  9
$CHAMFERD
 40
0.0
  9
$SKPOLY
 70
     0
  9
$TDCREATE
 40
2451708.651536608
  9
$TDUPDATE
 40
2452458.320337905
  9
$TDINDWG
 40
0.3458728009
  9
$TDUSRTIMER
 40
0.3458728009
  9
$USRTIMER
 70
     1
  9
$ANGBASE
 50
0.0
  9
$ANGDIR
 70
     0
  9
$PDMODE
 70
     0
  9
$PDSIZE
 40
0.0
  9
$PLINEWID
 40
0.0
  9
$COORDS
 70
     2
  9
$SPLFRAME
 70
     0
  9
$SPLINETYPE
 70
     6
  9
$SPLINESEGS
 70
     8
  9
$ATTDIA
 70
     0
  9
$ATTREQ
 70
     1
  9
$HANDLING
 70
 22529
  9
$HANDSEED
  5
1DA1
  9
$SURFTAB1
 70
     6
  9
$SURFTAB2
 70
     6
  9
$SURFTYPE
 70
     6
  9
$SURFU
 70
     6
  9
$SURFV
 70
     6
  9
$UCSNAME
  2

  9
$UCSORG
 10
0.0
 20
0.0
 30
0.0
  9
$UCSXDIR
 10
1.0
 20
0.0
 30
0.0
  9
$UCSYDIR
 10
0.0
 20
1.0
 30
0.0
  9
$PUCSNAME
  2

  9
$PUCSORG
 10
0.0
 20
0.0
 30
0.0
  9
$PUCSXDIR
 10
1.0
 20
0.0
 30
0.0
  9
$PUCSYDIR
 10
0.0
 20
1.0
 30
0.0
  9
$USERI1
 70
     0
  9
$USERI2
 70
     0
  9
$USERI3
 70
     0
  9
$USERI4
 70
     0
  9
$USERI5
 70
     0
  9
$USERR1
 40
0.0
  9
$USERR2
 40
0.0
  9
$USERR3
 40
0.0
  9
$USERR4
 40
0.0
  9
$USERR5
 40
0.0
  9
$WORLDVIEW
 70
     1
  9
$SHADEDGE
 70
     3
  9
$SHADEDIF
 70
    70
  9
$TILEMODE
 70
     1
  9
$MAXACTVP
 70
    48
  9
$PINSBASE
 10
0.0
 20
0.0
 30
0.0
  9
$PLIMCHECK
 70
     0
  9
$PEXTMIN
 10
1.000000000000000E+20
 20
1.000000000000000E+20
 30
1.000000000000000E+20
  9
$PEXTMAX
 10
-1.000000000000000E+20
 20
-1.000000000000000E+20
 30
-1.000000000000000E+20
  9
$PLIMMIN
 10
0.0
 20
0.0
  9
$PLIMMAX
 10
12.0
 20
9.0
  9
$UNITMODE
 70
     0
  9
$VISRETAIN
 70
     1
  9
$PLINEGEN
 70
     1
  9
$PSLTSCALE
 70
     1
  9
$TREEDEPTH
 70
  3020
  9
$PICKSTYLE
 70
     1
  9
$CMLSTYLE
  2
STANDARD
  9
$CMLJUST
 70
     0
  9
$CMLSCALE
 40
1.0
  9
$PROXYGRAPHICS
 70
     1
  9
$MEASUREMENT
 70
     0
  0
ENDSEC
  0
SECTION
  2
CLASSES
  0
CLASS
  1
LWPOLYLINE
  2
AcDbPolyline
  3
AutoCAD 2000
 90
        0
280
     0
281
     1
  0
CLASS
  1
ADPART
  2
AcAdPart
  3
"DesignerServices"
 90
        0
280
     1
281
     1
  0
CLASS
  1
ACDBDICTIONARYWDFLT
  2
AcDbDictionaryWithDefault
  3
AutoCAD 2000
 90
        0
280
     0
281
     0
  0
CLASS
  1
ACDBPLACEHOLDER
  2
AcDbPlaceHolder
  3
AutoCAD 2000
 90
        0
280
     0
281
     0
  0
CLASS
  1
LAYOUT
  2
AcDbLayout
  3
AutoCAD 2000
 90
        0
280
     0
281
     0
  0
CLASS
  1
DICTIONARYVAR
  2
AcDbDictionaryVar
  3
AutoCAD 2000
 90
        0
280
     0
281
     0
  0
CLASS
  1
LONG_TRANSACTION
  2
AcDbLongTransaction
  3
AutoCAD 2000
 90
        0
280
     0
281
     0
  0
CLASS
  1
LWPOLYLINE
  2
AcDbPolyline
  3
AutoCAD 2000
 90
        0
280
     0
281
     1
  0
CLASS
  1
HATCH
  2
AcDbHatch
  3
AutoCAD 2000
 90
        0
280
     0
281
     1
  0
CLASS
  1
XRECORD
  2
AcDbXrecord
  3
AutoCAD 2000
 90
        0
280
     0
281
     0
  0
ENDSEC
  0
SECTION
  2
TABLES
  0
TABLE
  2
VPORT
  5
8
330
0
100
AcDbSymbolTable
 70
     2
  0
VPORT
  5
1D7C
330
8
100
AcDbSymbolTableRecord
100
AcDbViewportTableRecord
  2
*ACTIVE
 70
     0
 10
0.0
 20
0.0
 11
1.0
 21
1.0
 12
4.075504958287687
 22
1.212382831839358
 13
0.0
 23
0.0
 14
0.5
 24
0.5
 15
0.5
 25
0.5
 16
0.0
 26
0.0
 36
1.0
 17
0.0
 27
0.0
 37
0.0
 40
2.267823984803169
 41
4.320930232558139
 42
50.0
 43
0.0
 44
0.0
 50
0.0
 51
0.0
 71
     0
 72
  2000
 73
     1
 74
     1
 75
     0
 76
     0
 77
     0
 78
     0
  0
ENDTAB
  0
TABLE
  2
LTYPE
  5
5
330
0
100
AcDbSymbolTable
 70
     1
  0
LTYPE
  5
12
330
5
100
AcDbSymbolTableRecord
100
AcDbLinetypeTableRecord
  2
BYBLOCK
 70
     0
  3

 72
    65
 73
     0
 40
0.0
  0
LTYPE
  5
13
330
5
100
AcDbSymbolTableRecord
100
AcDbLinetypeTableRecord
  2
BYLAYER
 70
     0
  3

 72
    65
 73
     0
 40
0.0
  0
LTYPE
  5
14
330
5
100
AcDbSymbolTableRecord
100
AcDbLinetypeTableRecord
  2
CONTINUOUS
 70
     0
  3
Solid line
 72
    65
 73
     0
 40
0.0
  0
ENDTAB
  0
TABLE
  2
LAYER
  5
2
330
0
100
AcDbSymbolTable
 70
     2
  0
LAYER
  5
E
330
2
100
AcDbSymbolTableRecord
100
AcDbLayerTableRecord
  2
0
 70
     0
 62
     7
  6
CONTINUOUS
  0
LAYER
  5
2C
330
2
100
AcDbSymbolTableRecord
100
AcDbLayerTableRecord
  2
TEXT
 70
     0
 62
     3
  6
CONTINUOUS
  0
ENDTAB
  0
TABLE
  2
STYLE
  5
3
330
0
100
AcDbSymbolTable
 70
     3
  0
STYLE
  5
F
330
3
100
AcDbSymbolTableRecord
100
AcDbTextStyleTableRecord
  2
STANDARD
 70
     0
 40
0.0
 41
1.0
 50
0.0
 71
     0
 42
0.2
  3
txt
  4

  0
STYLE
  5
20
330
3
100
AcDbSymbolTableRecord
100
AcDbTextStyleTableRecord
  2
ROMANS
 70
     0
 40
0.0
 41
1.0
 50
0.0
 71
     0
 42
0.125
  3
romans.shx
  4

  0
STYLE
  5
1C6A
330
3
100
AcDbSymbolTableRecord
100
AcDbTextStyleTableRecord
  2
ITALICC
 70
     0
 40
0.0
 41
1.0
 50
0.0
 71
     0
 42
0.125
  3
italicc
  4

  0
ENDTAB
  0
TABLE
  2
VIEW
  5
6
330
0
100
AcDbSymbolTable
 70
     0
  0
ENDTAB
  0
TABLE
  2
UCS
  5
7
330
0
100
AcDbSymbolTable
 70
     0
  0
ENDTAB
  0
TABLE
  2
APPID
  5
9
330
0
100
AcDbSymbolTable
 70
     5
  0
APPID
  5
10
330
9
100
AcDbSymbolTableRecord
100
AcDbRegAppTableRecord
  2
ACAD
 70
     0
  0
APPID
  5
30
330
9
100
AcDbSymbolTableRecord
100
AcDbRegAppTableRecord
  2
AD_DRAW
 70
     0
  0
APPID
  5
31
330
9
100
AcDbSymbolTableRecord
100
AcDbRegAppTableRecord
  2
DESIGNERASSEMBLIES
 70
     0
  0
APPID
  5
32
330
9
100
AcDbSymbolTableRecord
100
AcDbRegAppTableRecord
  2
MCAD_NO_VIS
 70
     0
  0
APPID
  5
33
330
9
100
AcDbSymbolTableRecord
100
AcDbRegAppTableRecord
  2
ASURF_PCURVE_APPNAME
 70
     0
  0
ENDTAB
  0
TABLE
  2
DIMSTYLE
  5
A
330
0
100
AcDbSymbolTable
 70
     1
  0
DIMSTYLE
105
1D
330
A
100
AcDbSymbolTableRecord
100
AcDbDimStyleTableRecord
  2
STANDARD
 70
     0
  3

  4

  5

  6

  7

 40
0.0
 41
0.125
 42
0.125
 43
0.38
 44
0.125
 45
0.0
 46
0.0
 47
0.0
 48
0.0
140
0.125
141
-0.125
142
0.0
143
25.4
144
0.5
145
0.0
146
1.0
147
0.09
 71
     0
 72
     0
 73
     1
 74
     1
 75
     0
 76
     0
 77
     0
 78
     4
170
     0
171
     2
172
     0
173
     0
174
     0
175
     0
176
     0
177
     0
178
     0
270
     2
271
     3
272
     3
273
     2
274
     2
340
20
275
     0
280
     0
281
     0
282
     0
283
     1
284
     4
285
     0
286
     0
287
     3
288
     1
  0
ENDTAB
  0
TABLE
  2
BLOCK_RECORD
  5
1
330
0
100
AcDbSymbolTable
 70
     0
  0
BLOCK_RECORD
  5
18
102
{ACAD_XDICTIONARY
360
1D9F
102
}
330
1
100
AcDbSymbolTableRecord
100
AcDbBlockTableRecord
  2
*MODEL_SPACE
  0
BLOCK_RECORD
  5
15
102
{ACAD_XDICTIONARY
360
1D9D
102
}
330
1
100
AcDbSymbolTableRecord
100
AcDbBlockTableRecord
  2
*PAPER_SPACE
  0
ENDTAB
  0
ENDSEC
  0
SECTION
  2
BLOCKS
  0
BLOCK
  5
19
330
18
100
AcDbEntity
  8
0
100
AcDbBlockBegin
  2
*MODEL_SPACE
 70
     0
 10
0.0
 20
0.0
 30
0.0
  3
*MODEL_SPACE
  1

  0
ENDBLK
  5
1A
330
18
100
AcDbEntity
  8
0
100
AcDbBlockEnd
  0
BLOCK
  5
16
330
15
100
AcDbEntity
 67
     1
  8
0
100
AcDbBlockBegin
  2
*PAPER_SPACE
 70
     0
 10
0.0
 20
0.0
 30
0.0
  3
*PAPER_SPACE
  1

  0
ENDBLK
  5
17
330
15
100
AcDbEntity
 67
     1
  8
0
100
AcDbBlockEnd
  0
ENDSEC
  0
SECTION
  2
ENTITIES
  0
LWPOLYLINE
  5
1BE1
330
18
100
AcDbEntity
  8
0
100
AcDbPolyline
 90
       54
 70
   129
 43
0.0
 10
1.414074720089715
 20
1.72846242597879
 42
-0.4537682265918867
 10
1.391926323848252
 20
1.732842272690142
 10
1.377759325175958
 20
1.757380234181304
 42
-0.3631588356144899
 10
1.381074991694504
 20
1.776343213663267
 42
2.735272382190757
 10
1.290777656003371
 20
1.776343213664581
 42
-0.3631588356146516
 10
1.294093322520822
 20
1.757380234181312
 10
1.279926323848542
 20
1.732842272690149
 42
-0.4537682265921128
 10
1.257777927607065
 20
1.728462425978797
 42
-0.3011405057461021
 10
1.212096150331419
 20
1.862242181204919
 42
0.4913287504735921
 10
1.183073453413513
 20
1.899837117913754
 10
1.105926323848422
 20
1.899837117913754
 42
0.4142135623730951
 10
1.07592632384842
 20
1.869837117913753
 10
1.07592632384842
 20
0.983837117913751
 42
-0.9999999999999998
 10
1.017926323848399
 20
0.983837117913751
 10
1.017926323848399
 20
1.869837117913753
 42
0.4142135623730951
 10
0.9879263238483986
 20
1.899837117913754
 10
0.9257791942832795
 20
1.899837117913754
 42
0.4913287504735578
 10
0.8967564973648052
 20
1.862242181204777
 42
-0.3011405057461269
 10
0.8510747200895565
 20
1.728462425979017
 42
-0.453768226591902
 10
0.8289263238482504
 20
1.732842272690142
 10
0.8147593251759559
 20
1.757380234181304
 42
-0.3631588356145503
 10
0.8180749916934075
 20
1.776343213664567
 42
2.735272382190481
 10
0.7277776560022744
 20
1.776343213663281
 42
-0.3631588356145762
 10
0.7310933225208203
 20
1.757380234181312
 10
0.71692632384854
 20
1.732842272690149
 42
-0.4537682265921313
 10
0.6947779276070634
 20
1.72846242597879
 42
-0.4089653519909529
 10
0.6701651449009419
 20
1.906153171933937
 42
0.3181774749506307
 10
0.6705583828313664
 20
1.92348435306658
 10
0.6538705980287887
 20
1.948225011465815
 42
0.249328002843186
 10
0.6414350344404625
 20
1.954837117913754
 10
0.5329263238484004
 20
1.954837117913754
 42
0.4142135623730951
 10
0.5179263238483998
 20
1.939837117913754
 10
0.5179263238483856
 20
0.983837117913751
 42
-0.9999999999999998
 10
0.4599263238483929
 20
0.983837117913751
 10
0.4599263238484071
 20
1.939837117913747
 42
0.4142135623730951
 10
0.4449263238484065
 20
1.954837117913747
 10
0.3999263238483905
 20
1.954837117913747
 42
-0.4142135623730951
 10
0.38492632384839
 20
1.969837117913748
 10
0.38492632384839
 20
2.299837117913753
 42
-0.4142135623730951
 10
0.4149263238483912
 20
2.329837117913754
 10
1.692926323848382
 20
2.329837117913754
 42
-0.4142135623730951
 10
1.722926323848383
 20
2.299837117913753
 10
1.722926323848383
 20
1.844837117913755
 42
0.4142135623730951
 10
1.737926323848384
 20
1.829837117913754
 10
2.182926323848377
 20
1.829837117913754
 42
-0.9999999999999998
 10
2.182926323848377
 20
1.739837117913758
 10
1.648926323848414
 20
1.739837117913758
 42
0.4142135623730951
 10
1.633926323848413
 20
1.724837117913757
 10
1.633926323848399
 20
0.983837117913751
 42
-0.9999999999999998
 10
1.575926323848378
 20
0.983837117913751
 10
1.575926323848406
 20
1.814837117913754
 42
0.4142135623730951
 10
1.560926323848406
 20
1.829837117913754
 10
1.478137434524199
 20
1.829837117913747
 42
0.3837582907229034
 10
1.463220185152479
 20
1.81641054448719
 42
-0.2050464780352946
  0
LWPOLYLINE
  5
1BF7
330
18
100
AcDbEntity
  8
0
100
AcDbPolyline
 90
       15
 70
   129
 43
0.0
 10
0.6884317110867997
 20
2.013225011465813
 42
0.2493280028431806
 10
0.6759961474984735
 20
2.019837117913752
 10
0.4649263238484025
 20
2.019837117913752
 42
-0.4142135623730951
 10
0.449926323848402
 20
2.034837117913752
 10
0.4499263238483877
 20
2.249837117913756
 42
-0.4142135623730951
 10
0.4649263238483883
 20
2.264837117913756
 10
1.642926323848385
 20
2.264837117913756
 42
-0.4142135623730951
 10
1.657926323848386
 20
2.249837117913756
 10
1.657926323848364
 20
1.909837117913756
 42
-0.4142135623730826
 10
1.642926323848364
 20
1.894837117913755
 10
1.46281209925312
 20
1.894837117913755
 42
-0.2575427436772287
 10
1.450123521712662
 20
1.901837117913753
 42
0.2575427436773737
 10
1.335926323848397
 20
1.964837117913756
 10
0.7290453988746535
 20
1.964837117913752
 42
-0.2493280028431805
 10
0.7166098352863273
 20
1.971449224361691
  0
TEXT
  5
1CEF
330
18
100
AcDbEntity
  8
TEXT
100
AcDbText
 10
0.2601606947579889
 20
0.5466318785025872
 30
0.0
 40
0.125
  1
PART #110640
  7
ITALICC
 72
     1
 11
1.013136885234179
 21
0.5466318785025872
 31
0.0
100
AcDbText
  0
LINE
  5
1CF0
330
18
100
AcDbEntity
  8
TEXT
100
AcDbLine
 10
0.9808703841862422
 20
0.3022781924827536
 30
0.0
 11
1.0575183654788
 21
0.3022781924827536
 31
0.0
  0
LINE
  5
1CF1
330
18
100
AcDbEntity
  8
TEXT
100
AcDbLine
 10
1.053038478152299
 20
0.366554887139519
 30
0.0
 11
0.9855387605027834
 21
0.366554887139519
 31
0.0
  0
LWPOLYLINE
  5
1CF2
330
18
100
AcDbEntity
  8
TEXT
100
AcDbPolyline
 90
        5
 70
     0
 43
0.0001332181640625
 10
-0.6562416583484328
 20
0.2433280853817061
 10
-0.642919841942184
 20
0.2433280853817061
 10
-0.642919841942184
 20
0.2799630804988959
 10
-0.6062848468249942
 20
0.2799630804988959
 10
-0.6062848468249942
 20
0.2932848969051429
  0
LWPOLYLINE
  5
1CF3
330
18
100
AcDbEntity
  8
TEXT
100
AcDbPolyline
 90
        3
 70
     0
 43
0.0006660908203125
 10
-0.6162762091296848
 20
0.3399112543270215
 10
-0.7028680157703096
 20
0.3399112543270215
 10
-0.7028680157703096
 20
0.2533194476863949
  0
LWPOLYLINE
  5
1CF4
330
18
100
AcDbEntity
  8
TEXT
100
AcDbPolyline
 90
        3
 70
     0
 43
0.0006660908203125
 10
-0.6162762091296848
 20
0.3665548871395226
 10
-0.7295116485828071
 20
0.3665548871395226
 10
-0.7295116485828071
 20
0.2533194476863949
  0
LWPOLYLINE
  5
1CF5
330
18
100
AcDbEntity
  8
TEXT
100
AcDbPolyline
 90
        5
 70
     0
 43
0.0001332181640625
 10
-0.6062848468249942
 20
0.1733885492488953
 10
-0.6062848468249942
 20
0.1867103656551459
 10
-0.6429198419421823
 20
0.1867103656551459
 10
-0.6429198419421823
 20
0.2233453607723321
 10
-0.6562416583484328
 20
0.2233453607723321
  0
LWPOLYLINE
  5
1CF6
330
18
100
AcDbEntity
  8
TEXT
100
AcDbPolyline
 90
        3
 70
     0
 43
0.0006660908203125
 10
-0.7028680157703096
 20
0.2133539984676469
 10
-0.7028680157703096
 20
0.1267621918270203
 10
-0.6162762091296848
 20
0.1267621918270203
  0
LWPOLYLINE
  5
1CF7
330
18
100
AcDbEntity
  8
TEXT
100
AcDbPolyline
 90
        3
 70
     0
 43
0.0006660908203125
 10
-0.7295116485828071
 20
0.2133539984676469
 10
-0.7295116485828071
 20
0.1001185590145193
 10
-0.6162762091296848
 20
0.1001185590145193
  0
LWPOLYLINE
  5
1CF8
330
18
100
AcDbEntity
  8
TEXT
100
AcDbPolyline
 90
        2
 70
     0
 43
0.0001332181640625
 10
-0.7028680157703096
 20
0.2133539984676469
 10
-0.6429198419421823
 20
0.2233453607723321
  0
LWPOLYLINE
  5
1CF9
330
18
100
AcDbEntity
  8
TEXT
100
AcDbPolyline
 90
        2
 70
     0
 43
0.0001332181640625
 10
-0.6562416583484328
 20
0.2233453607723321
 10
-0.7295116485828071
 20
0.2133539984676469
  0
LWPOLYLINE
  5
1CFA
330
18
100
AcDbEntity
  8
TEXT
100
AcDbPolyline
 90
        2
 70
     0
 43
0.0006660908203125
 10
-0.7028680157703096
 20
0.2133539984676469
 10
-0.7295116485828071
 20
0.2133539984676469
  0
LWPOLYLINE
  5
1CFB
330
18
100
AcDbEntity
  8
TEXT
100
AcDbPolyline
 90
        2
 70
     0
 43
0.0001332181640625
 10
-0.7028680157703096
 20
0.1267621918270203
 10
-0.6429198419421823
 20
0.1867103656551459
  0
LWPOLYLINE
  5
1CFC
330
18
100
AcDbEntity
  8
TEXT
100
AcDbPolyline
 90
        2
 70
     0
 43
0.0006660908203125
 10
-0.7028680157703096
 20
0.2533194476863949
 10
-0.7295116485828071
 20
0.2533194476863949
  0
LWPOLYLINE
  5
1CFD
330
18
100
AcDbEntity
  8
TEXT
100
AcDbPolyline
 90
        2
 70
     0
 43
0.0001332181640625
 10
-0.7295116485828071
 20
0.2533194476863949
 10
-0.6562416583484328
 20
0.2433280853817061
  0
LWPOLYLINE
  5
1CFE
330
18
100
AcDbEntity
  8
TEXT
100
AcDbPolyline
 90
        2
 70
     0
 43
0.0001332181640625
 10
-0.7028680157703096
 20
0.2533194476863949
 10
-0.642919841942184
 20
0.2433280853817061
  0
LWPOLYLINE
  5
1CFF
330
18
100
AcDbEntity
  8
TEXT
100
AcDbPolyline
 90
        2
 70
     0
 43
0.0001332181640625
 10
-0.7028680157703096
 20
0.3399112543270215
 10
-0.642919841942184
 20
0.2799630804988959
  0
LWPOLYLINE
  5
1D00
330
18
100
AcDbEntity
  8
TEXT
100
AcDbPolyline
 90
        5
 70
     0
 43
0.0001332181640625
 10
-0.5363453106921834
 20
0.2233453607723321
 10
-0.5496671270984322
 20
0.2233453607723321
 10
-0.5496671270984322
 20
0.1867103656551459
 10
-0.586302122215622
 20
0.1867103656551459
 10
-0.586302122215622
 20
0.1733885492488953
  0
LWPOLYLINE
  5
1D01
330
18
100
AcDbEntity
  8
TEXT
100
AcDbPolyline
 90
        2
 70
     0
 43
0.0001332181640625
 10
-0.4897189532703084
 20
0.2133539984676469
 10
-0.5496671270984322
 20
0.2233453607723321
  0
LWPOLYLINE
  5
1D02
330
18
100
AcDbEntity
  8
TEXT
100
AcDbPolyline
 90
        2
 70
     0
 43
0.0001332181640625
 10
-0.4630753204578073
 20
0.2133539984676469
 10
-0.5363453106921834
 20
0.2233453607723321
  0
LWPOLYLINE
  5
1D03
330
18
100
AcDbEntity
  8
TEXT
100
AcDbPolyline
 90
        3
 70
     0
 43
0.0006660908203125
 10
-0.5763107599109332
 20
0.1001185590145193
 10
-0.4630753204578073
 20
0.1001185590145193
 10
-0.4630753204578073
 20
0.2133539984676469
  0
LWPOLYLINE
  5
1D04
330
18
100
AcDbEntity
  8
TEXT
100
AcDbPolyline
 90
        3
 70
     0
 43
0.0006660908203125
 10
-0.5763107599109332
 20
0.1267621918270203
 10
-0.4897189532703084
 20
0.1267621918270203
 10
-0.4897189532703084
 20
0.2133539984676469
  0
LWPOLYLINE
  5
1D05
330
18
100
AcDbEntity
  8
TEXT
100
AcDbPolyline
 90
        2
 70
     0
 43
0.0001332181640625
 10
-0.4897189532703084
 20
0.1267621918270203
 10
-0.5496671270984322
 20
0.1867103656551459
  0
LWPOLYLINE
  5
1D06
330
18
100
AcDbEntity
  8
TEXT
100
AcDbPolyline
 90
        2
 70
     0
 43
0.0006660908203125
 10
-0.5763107599109332
 20
0.1267621918270203
 10
-0.5763107599109332
 20
0.1001185590145193
  0
LWPOLYLINE
  5
1D07
330
18
100
AcDbEntity
  8
TEXT
100
AcDbPolyline
 90
        2
 70
     0
 43
0.0001332181640625
 10
-0.586302122215622
 20
0.1733885492488953
 10
-0.5763107599109332
 20
0.1001185590145193
  0
LWPOLYLINE
  5
1D08
330
18
100
AcDbEntity
  8
TEXT
100
AcDbPolyline
 90
        2
 70
     0
 43
0.0001332181640625
 10
-0.5763107599109332
 20
0.1267621918270203
 10
-0.586302122215622
 20
0.1867103656551459
  0
LWPOLYLINE
  5
1D09
330
18
100
AcDbEntity
  8
TEXT
100
AcDbPolyline
 90
        2
 70
     0
 43
0.0001332181640625
 10
-0.6162762091296848
 20
0.1001185590145193
 10
-0.6062848468249942
 20
0.1733885492488953
  0
LWPOLYLINE
  5
1D0A
330
18
100
AcDbEntity
  8
TEXT
100
AcDbPolyline
 90
        2
 70
     0
 43
0.0001332181640625
 10
-0.6162762091296848
 20
0.1267621918270203
 10
-0.6062848468249942
 20
0.1867103656551459
  0
LWPOLYLINE
  5
1D0B
330
18
100
AcDbEntity
  8
TEXT
100
AcDbPolyline
 90
        2
 70
     0
 43
0.0006660908203125
 10
-0.6162762091296848
 20
0.1267621918270203
 10
-0.6162762091296848
 20
0.1001185590145193
  0
LWPOLYLINE
  5
1D0C
330
18
100
AcDbEntity
  8
TEXT
100
AcDbPolyline
 90
        2
 70
     0
 43
0.0006660908203125
 10
-0.4897189532703084
 20
0.2133539984676469
 10
-0.4630753204578073
 20
0.2133539984676469
  0
LWPOLYLINE
  5
1D0D
330
18
100
AcDbEntity
  8
TEXT
100
AcDbPolyline
 90
        2
 70
     0
 43
0.0001332181640625
 10
-0.4897189532703084
 20
0.3399112543270215
 10
-0.5496671270984322
 20
0.2799630804988959
  0
LWPOLYLINE
  5
1D0E
330
18
100
AcDbEntity
  8
TEXT
100
AcDbPolyline
 90
        2
 70
     0
 43
0.0001332181640625
 10
-0.4897189532703084
 20
0.2533194476863949
 10
-0.5496671270984322
 20
0.2433280853817061
  0
LWPOLYLINE
  5
1D0F
330
18
100
AcDbEntity
  8
TEXT
100
AcDbPolyline
 90
        2
 70
     0
 43
0.0001332181640625
 10
-0.5363453106921834
 20
0.2433280853817061
 10
-0.4630753204578073
 20
0.2533194476863949
  0
LWPOLYLINE
  5
1D10
330
18
100
AcDbEntity
  8
TEXT
100
AcDbPolyline
 90
        3
 70
     0
 43
0.0006660908203125
 10
-0.4897189532703084
 20
0.2533194476863949
 10
-0.4897189532703084
 20
0.3399112543270215
 10
-0.5763107599109332
 20
0.3399112543270215
  0
LWPOLYLINE
  5
1D11
330
18
100
AcDbEntity
  8
TEXT
100
AcDbPolyline
 90
        3
 70
     0
 43
0.0006660908203125
 10
-0.4630753204578073
 20
0.2533194476863949
 10
-0.4630753204578073
 20
0.3665548871395226
 10
-0.5763107599109332
 20
0.3665548871395226
  0
LWPOLYLINE
  5
1D12
330
18
100
AcDbEntity
  8
TEXT
100
AcDbPolyline
 90
        2
 70
     0
 43
0.0001332181640625
 10
-0.5763107599109332
 20
0.3665548871395226
 10
-0.586302122215622
 20
0.2932848969051429
  0
LWPOLYLINE
  5
1D13
330
18
100
AcDbEntity
  8
TEXT
100
AcDbPolyline
 90
        2
 70
     0
 43
0.0001332181640625
 10
-0.5763107599109332
 20
0.3399112543270215
 10
-0.586302122215622
 20
0.2799630804988959
  0
LWPOLYLINE
  5
1D14
330
18
100
AcDbEntity
  8
TEXT
100
AcDbPolyline
 90
        2
 70
     0
 43
0.0006660908203125
 10
-0.5763107599109332
 20
0.3399112543270215
 10
-0.5763107599109332
 20
0.3665548871395226
  0
LWPOLYLINE
  5
1D15
330
18
100
AcDbEntity
  8
TEXT
100
AcDbPolyline
 90
        5
 70
     0
 43
0.0001332181640625
 10
-0.586302122215622
 20
0.2932848969051429
 10
-0.586302122215622
 20
0.2799630804988959
 10
-0.5496671270984322
 20
0.2799630804988959
 10
-0.5496671270984322
 20
0.2433280853817061
 10
-0.5363453106921834
 20
0.2433280853817061
  0
LWPOLYLINE
  5
1D16
330
18
100
AcDbEntity
  8
TEXT
100
AcDbPolyline
 90
        2
 70
     0
 43
0.0001332181640625
 10
-0.6162762091296848
 20
0.3399112543270215
 10
-0.6062848468249942
 20
0.2799630804988959
  0
LWPOLYLINE
  5
1D17
330
18
100
AcDbEntity
  8
TEXT
100
AcDbPolyline
 90
        2
 70
     0
 43
0.0001332181640625
 10
-0.6062848468249942
 20
0.2932848969051429
 10
-0.6162762091296848
 20
0.3665548871395226
  0
LWPOLYLINE
  5
1D18
330
18
100
AcDbEntity
  8
TEXT
100
AcDbPolyline
 90
        2
 70
     0
 43
0.0006660908203125
 10
-0.6162762091296848
 20
0.3399112543270215
 10
-0.6162762091296848
 20
0.3665548871395226
  0
LWPOLYLINE
  5
1D19
330
18
100
AcDbEntity
  8
TEXT
100
AcDbPolyline
 90
        2
 70
     0
 43
0.0006660908203125
 10
-0.4897189532703084
 20
0.2533194476863949
 10
-0.4630753204578073
 20
0.2533194476863949
  0
LWPOLYLINE
  5
1D1A
330
18
100
AcDbEntity
  8
TEXT
100
AcDbPolyline
 90
        2
 70
     0
 43
0.0
 10
0.255704600290823
 20
0.1516331963659363
 42
0.3318488747599744
 10
0.324823892856136
 20
0.100081854151008
 42
-6.868794160588311
  0
LINE
  5
1D1B
330
18
100
AcDbEntity
  8
TEXT
100
AcDbLine
 10
0.3236843193599403
 20
0.4345663648783296
 30
0.0
 11
0.2568756067935753
 21
0.4345663648783296
 31
0.0
  0
LINE
  5
1D1C
330
18
100
AcDbEntity
  8
TEXT
100
AcDbLine
 10
-0.0224667608255187
 20
0.366554887139519
 30
0.0
 11
-0.1981985137240301
 21
0.366554887139519
 31
0.0
  0
ARC
  5
1D1D
330
18
100
AcDbEntity
  8
TEXT
100
AcDbCircle
 10
-0.1273610473654805
 20
0.1832776625115651
 30
0.0
 40
0.0831958083605586
100
AcDbArc
 50
270.0
 51
90.0
  0
LINE
  5
1D1E
330
18
100
AcDbEntity
  8
TEXT
100
AcDbLine
 10
-0.192961183609782
 20
0.3022781924827536
 30
0.0
 11
-0.0260555295808116
 21
0.3022781924827536
 31
0.0
  0
LINE
  5
1D1F
330
18
100
AcDbEntity
  8
TEXT
100
AcDbLine
 10
-0.1224206734592013
 20
0.1684388604844473
 30
0.0
 11
-0.2802859731705354
 21
0.1684388604844473
 31
0.0
  0
LINE
  5
1D20
330
18
100
AcDbEntity
  8
TEXT
100
AcDbLine
 10
-0.2802859731705336
 20
0.100081854151008
 30
0.0
 11
-0.1273610473654809
 21
0.100081854151008
 31
0.0
  0
ARC
  5
1D21
330
18
100
AcDbEntity
  8
TEXT
100
AcDbCircle
 10
-0.1981985137240296
 20
0.2844674276930172
 30
0.0
 40
0.0820874594465043
100
AcDbArc
 50
90.0
 51
270.0
  0
LINE
  5
1D22
330
18
100
AcDbEntity
  8
TEXT
100
AcDbLine
 10
-0.2802859731705354
 20
0.1684388604844473
 30
0.0
 11
-0.2802859731705336
 21
0.100081854151008
 31
0.0
  0
LINE
  5
1D23
330
18
100
AcDbEntity
  8
TEXT
100
AcDbLine
 10
-0.1981985137240301
 20
0.2023799682465119
 30
0.0
 11
-0.1224206734592013
 21
0.2023799682465119
 31
0.0
  0
ARC
  5
1D24
330
18
100
AcDbEntity
  8
TEXT
100
AcDbCircle
 10
-0.1224206734592008
 20
0.1854094143654814
 30
0.0
 40
0.0169705538810321
100
AcDbArc
 50
270.0
 51
90.0
  0
LINE
  5
1D25
330
18
100
AcDbEntity
  8
TEXT
100
AcDbLine
 10
-0.1273610473654809
 20
0.2664734708721257
 30
0.0
 11
-0.192961183609782
 21
0.2664734708721257
 31
0.0
  0
ARC
  5
1D26
330
18
100
AcDbEntity
  8
TEXT
100
AcDbCircle
 10
-0.1929611836097815
 20
0.2843758316774414
 30
0.0
 40
0.017902360805315
100
AcDbArc
 50
90.0
 51
270.0
  0
LINE
  5
1D27
330
18
100
AcDbEntity
  8
TEXT
100
AcDbLine
 10
0.1680051311943336
 20
0.2656828910263984
 30
0.0
 11
0.1093748101623957
 21
0.366554887139519
 31
0.0
  0
LINE
  5
1D28
330
18
100
AcDbEntity
  8
TEXT
100
AcDbLine
 10
0.0278310778992941
 20
0.100081854151008
 30
0.0
 11
0.1244713289742885
 21
0.1003524932492903
 31
0.0
  0
LWPOLYLINE
  5
1D29
330
18
100
AcDbEntity
  8
TEXT
100
AcDbPolyline
 90
        6
 70
     1
 43
0.0
 10
0.0703548814744441
 20
0.3022781924827536
 10
0.040038287254236
 20
0.3022781924827536
 10
0.040038287254236
 20
0.1791671944278592
 42
0.407328721240804
 10
0.0515819384157124
 20
0.1673482797514731
 10
0.1122036374604431
 20
0.1673482797514731
 10
0.1296689778677611
 20
0.2001605087949523
  0
LINE
  5
1D2A
330
18
100
AcDbEntity
  8
TEXT
100
AcDbLine
 10
-0.0260555295808116
 20
0.3022781924827536
 30
0.0
 11
-0.0260555295808116
 21
0.1598742454890578
 31
0.0
  0
ARC
  5
1D2B
330
18
100
AcDbEntity
  8
TEXT
100
AcDbCircle
 10
0.034060488392941
 20
0.1598742454890578
 30
0.0
 40
0.0601160179737537
100
AcDbArc
 50
180.0000000000003
 51
264.0521544866073
  0
LINE
  5
1D2C
330
18
100
AcDbEntity
  8
TEXT
100
AcDbLine
 10
0.0375758440184884
 20
0.4009428047336572
 30
0.0
 11
-0.0224667608255187
 21
0.4009428047336572
 31
0.0
  0
LINE
  5
1D2D
330
18
100
AcDbEntity
  8
TEXT
100
AcDbLine
 10
-0.0224667608255187
 20
0.4009428047336572
 30
0.0
 11
-0.0224667608255187
 21
0.366554887139519
 31
0.0
  0
LINE
  5
1D2E
330
18
100
AcDbEntity
  8
TEXT
100
AcDbLine
 10
0.0375758440184884
 20
0.366554887139519
 30
0.0
 11
0.0375758440184884
 21
0.4009428047336572
 31
0.0
  0
LINE
  5
1D2F
330
18
100
AcDbEntity
  8
TEXT
100
AcDbLine
 10
0.1093748101623957
 20
0.366554887139519
 30
0.0
 11
0.0375758440184884
 21
0.366554887139519
 31
0.0
  0
LINE
  5
1D30
330
18
100
AcDbEntity
  8
TEXT
100
AcDbLine
 10
0.1584048941973792
 20
0.1200403602560209
 30
0.0
 11
0.2557046002908239
 21
0.2843905711912891
 31
0.0
  0
LINE
  5
1D31
330
18
100
AcDbEntity
  8
TEXT
100
AcDbLine
 10
0.2557046002908239
 20
0.2843905711912891
 30
0.0
 11
0.2557046002908239
 21
0.1516331963659327
 31
0.0
  0
ARC
  5
1D32
330
18
100
AcDbEntity
  8
TEXT
100
AcDbCircle
 10
0.1243613342851657
 20
0.1396295764247037
 30
0.0
 40
0.0392772371940762
100
AcDbArc
 50
270.1604552698595
 51
330.0831797321295
  0
LINE
  5
1D33
330
18
100
AcDbEntity
  8
TEXT
100
AcDbLine
 10
0.2267536940001991
 20
0.366554887139519
 30
0.0
 11
0.1680051311943336
 21
0.2656828910263984
 31
0.0
  0
LINE
  5
1D34
330
18
100
AcDbEntity
  8
TEXT
100
AcDbLine
 10
0.2568756067935753
 20
0.4345663648783296
 30
0.0
 11
0.2568756067935753
 21
0.366554887139519
 31
0.0
  0
LINE
  5
1D35
330
18
100
AcDbEntity
  8
TEXT
100
AcDbLine
 10
0.2568756067935753
 20
0.366554887139519
 30
0.0
 11
0.2267536940001991
 21
0.366554887139519
 31
0.0
  0
LWPOLYLINE
  5
1D36
330
18
100
AcDbEntity
  8
TEXT
100
AcDbPolyline
 90
        4
 70
     0
 43
0.0
 10
0.6089617284137337
 20
0.2947244033166436
 10
0.6089617284137337
 20
0.100081854151008
 10
0.6774400117015916
 20
0.100081854151008
 10
0.6774400117015916
 20
0.1435727991014462
 42
-1.714843617202739
  0
LWPOLYLINE
  5
1D37
330
18
100
AcDbEntity
  8
TEXT
100
AcDbPolyline
 90
        2
 70
     0
 43
0.0
 10
0.6440960789579436
 20
0.3665548871395226
 42
-0.3277054968067132
 10
0.6798777696711085
 20
0.3382323413698787
 42
6.667889725900311
  0
LWPOLYLINE
  5
1D38
330
18
100
AcDbEntity
  8
TEXT
100
AcDbPolyline
 90
        2
 70
     0
 43
0.0
 10
0.4726625063787165
 20
0.3022781924827536
 42
-0.4142135623731017
 10
0.48021629554483
 20
0.2947244033166436
 42
-0.9999999999999998
  0
LINE
  5
1D39
330
18
100
AcDbEntity
  8
TEXT
100
AcDbLine
 10
0.4900142294287369
 20
0.366554887139519
 30
0.0
 11
0.3559961734976005
 21
0.366554887139519
 31
0.0
  0
LINE
  5
1D3A
330
18
100
AcDbEntity
  8
TEXT
100
AcDbLine
 10
0.4228272265555697
 20
0.100081854151008
 30
0.0
 11
0.4228272265555697
 21
0.3022781924827536
 31
0.0
  0
LINE
  5
1D3B
330
18
100
AcDbEntity
  8
TEXT
100
AcDbLine
 10
0.3559961734976005
 20
0.366554887139519
 30
0.0
 11
0.3559961734976005
 21
0.1656906804071108
 31
0.0
  0
LINE
  5
1D3C
330
18
100
AcDbEntity
  8
TEXT
100
AcDbLine
 10
0.3236843193599403
 20
0.1824696922540072
 30
0.0
 11
0.3236843193599403
 21
0.4345663648783296
 31
0.0
  0
LINE
  5
1D3D
330
18
100
AcDbEntity
  8
TEXT
100
AcDbLine
 10
0.3248238928561351
 20
0.100081854151008
 30
0.0
 11
0.4228272265555697
 21
0.100081854151008
 31
0.0
  0
LINE
  5
1D3E
330
18
100
AcDbEntity
  8
TEXT
100
AcDbLine
 10
0.3559961734976005
 20
0.1656906804071108
 30
0.0
 11
0.3390025366129992
 21
0.1656906804071108
 31
0.0
  0
ARC
  5
1D3F
330
18
100
AcDbEntity
  8
TEXT
100
AcDbCircle
 10
0.3390025366129983
 20
0.1810724866505362
 30
0.0
 40
0.0153818062434269
100
AcDbArc
 50
174.7883570302258
 51
270.0
  0
LINE
  5
1D40
330
18
100
AcDbEntity
  8
TEXT
100
AcDbLine
 10
0.4228272265555697
 20
0.3022781924827536
 30
0.0
 11
0.4726625063787174
 21
0.3022781924827536
 31
0.0
  0
LINE
  5
1D41
330
18
100
AcDbEntity
  8
TEXT
100
AcDbLine
 10
0.4802162955448308
 20
0.2947244033166436
 30
0.0
 11
0.4802162955448308
 21
0.100081854151008
 31
0.0
  0
LINE
  5
1D42
330
18
100
AcDbEntity
  8
TEXT
100
AcDbLine
 10
0.5472743423266709
 20
0.100081854151008
 30
0.0
 11
0.5472743423266709
 21
0.3022781924827536
 31
0.0
  0
LINE
  5
1D43
330
18
100
AcDbEntity
  8
TEXT
100
AcDbLine
 10
0.4802162955448308
 20
0.100081854151008
 30
0.0
 11
0.5472743423266709
 21
0.100081854151008
 31
0.0
  0
LWPOLYLINE
  5
1D44
330
18
100
AcDbEntity
  8
TEXT
100
AcDbPolyline
 90
        3
 70
     0
 43
0.0
 10
0.6440960789579436
 20
0.3665548871395226
 10
0.5257959201418992
 20
0.3665548871395226
 10
0.5257959201418992
 20
0.3393873903786266
 42
-1.960274751411753
  0
LINE
  5
1D45
330
18
100
AcDbEntity
  8
TEXT
100
AcDbLine
 10
0.5472743423266709
 20
0.3022781924827536
 30
0.0
 11
0.6014079392476211
 21
0.3022781924827536
 31
0.0
  0
LWPOLYLINE
  5
1D46
330
18
100
AcDbEntity
  8
TEXT
100
AcDbPolyline
 90
        2
 70
     0
 43
0.0
 10
0.4900142294287378
 20
0.3665548871395226
 42
-0.3328679258950098
 10
0.5257959201418992
 20
0.3393873903786266
 42
6.772930709997214
  0
LWPOLYLINE
  5
1D47
330
18
100
AcDbEntity
  8
TEXT
100
AcDbPolyline
 90
        2
 70
     0
 43
0.0
 10
0.6014079392476202
 20
0.3022781924827536
 42
-0.4142135623731017
 10
0.6089617284137337
 20
0.2947244033166436
 42
-0.9999999999999998
  0
ARC
  5
1D48
330
18
100
AcDbEntity
  8
TEXT
100
AcDbCircle
 10
0.8126827391111
 20
0.3249713200186166
 30
0.0
 40
0.0416329381542859
100
AcDbArc
 50
26.56974201007528
 51
87.20939649401342
  0
LWPOLYLINE
  5
1D49
330
18
100
AcDbEntity
  8
TEXT
100
AcDbPolyline
 90
        2
 70
     0
 43
0.0
 10
0.7205159445692271
 20
0.100081854151008
 10
0.8545333622006037
 20
0.100081854151008
 42
0.9999999999999998
  0
LWPOLYLINE
  5
1D4A
330
18
100
AcDbEntity
  8
TEXT
100
AcDbPolyline
 90
        4
 70
     1
 43
0.0
 10
0.8344108971307111
 20
0.2030458321350332
 10
0.7457505784708527
 20
0.2030458321350332
 42
0.9999999999999998
 10
0.7457505784708527
 20
0.1606472916311725
 10
0.8344108971307111
 20
0.1606472916311725
 42
1.0
  0
LWPOLYLINE
  5
1D4B
330
18
100
AcDbEntity
  8
TEXT
100
AcDbPolyline
 90
        2
 70
     0
 43
0.0
 10
0.6774400117015916
 20
0.1435727991014462
 42
0.2901071551932823
 10
0.7205159445692271
 20
0.100081854151008
 42
5.328517124445801
  0
LINE
  5
1D4C
330
18
100
AcDbEntity
  8
TEXT
100
AcDbLine
 10
0.8147096788881684
 20
0.366554887139519
 30
0.0
 11
0.6798777696711094
 21
0.366554887139519
 31
0.0
  0
LINE
  5
1D4D
330
18
100
AcDbEntity
  8
TEXT
100
AcDbLine
 10
0.7391918660644281
 20
0.2650032190206213
 30
0.0
 11
0.8214798558478113
 21
0.2650032190206213
 31
0.0
  0
LINE
  5
1D4E
330
18
100
AcDbEntity
  8
TEXT
100
AcDbLine
 10
0.78567878054369
 20
0.3022781924827536
 30
0.0
 11
0.6784725071564007
 21
0.3022781924827536
 31
0.0
  0
LINE
  5
1D4F
330
18
100
AcDbEntity
  8
TEXT
100
AcDbLine
 10
0.6798777696711094
 20
0.366554887139519
 30
0.0
 11
0.6798777696711094
 21
0.3382323413698751
 31
0.0
  0
ARC
  5
1D50
330
18
100
AcDbEntity
  8
TEXT
100
AcDbCircle
 10
0.7391918660644273
 20
0.1973176378765027
 30
0.0
 40
0.0676855811441166
100
AcDbArc
 50
90.0
 51
153.7768192527749
  0
LINE
  5
1D51
330
18
100
AcDbEntity
  8
TEXT
100
AcDbLine
 10
0.6784725071564007
 20
0.3022781924827536
 30
0.0
 11
0.6784725071564007
 21
0.227225786408547
 31
0.0
  0
LINE
  5
1D52
330
18
100
AcDbEntity
  8
TEXT
100
AcDbLine
 10
0.8214798558478113
 20
0.2650032190206213
 30
0.0
 11
0.8112150954342469
 21
0.2862537585933156
 31
0.0
  0
ARC
  5
1D53
330
18
100
AcDbEntity
  8
TEXT
100
AcDbCircle
 10
0.7856787805436892
 20
0.2739188174827563
 30
0.0
 40
0.028359375
100
AcDbArc
 50
25.78218179591245
 51
90.0
  0
LINE
  5
1D54
330
18
100
AcDbEntity
  8
TEXT
100
AcDbLine
 10
0.955964508903583
 20
0.100081854151008
 30
0.0
 11
0.9559645089035777
 21
0.2773723595824764
 31
0.0
  0
LWPOLYLINE
  5
1D55
330
18
100
AcDbEntity
  8
TEXT
100
AcDbPolyline
 90
        2
 70
     0
 43
0.0
 10
0.8976092950682481
 20
0.100081854151008
 10
0.9559645089035821
 20
0.100081854151008
  0
LWPOLYLINE
  5
1D56
330
18
100
AcDbEntity
  8
TEXT
100
AcDbPolyline
 90
        2
 70
     0
 43
0.0
 10
0.8976092950682481
 20
0.1435727991014462
 42
-0.2901071551932486
 10
0.8545333622006037
 20
0.100081854151008
 42
-5.328517124445184
  0
LWPOLYLINE
  5
1D57
330
18
100
AcDbEntity
  8
TEXT
100
AcDbPolyline
 90
        2
 70
     0
 43
0.0
 10
0.8976092950682481
 20
0.1435727991014462
 10
0.8976092950682481
 20
0.100081854151008
  0
LINE
  5
1D58
330
18
100
AcDbEntity
  8
TEXT
100
AcDbLine
 10
0.9575665240627104
 20
0.366554887139519
 30
0.0
 11
0.8936696177632095
 21
0.366554887139519
 31
0.0
  0
LINE
  5
1D59
330
18
100
AcDbEntity
  8
TEXT
100
AcDbLine
 10
0.8936696177632095
 20
0.366554887139519
 30
0.0
 11
0.8936696177632095
 21
0.2613429085860917
 31
0.0
  0
LINE
  5
1D5A
330
18
100
AcDbEntity
  8
TEXT
100
AcDbLine
 10
0.8936696177632095
 20
0.2613429085860917
 30
0.0
 11
0.8499188465813078
 21
0.3435931845822369
 31
0.0
  0
ARC
  5
1D5B
330
18
100
AcDbEntity
  8
TEXT
100
AcDbCircle
 10
0.9808703841862413
 20
0.2773723172000908
 30
0.0
 40
0.0249058752826653
100
AcDbArc
 50
89.99971217465335
 51
179.9999999999985
  0
ARC
  5
1D5C
330
18
100
AcDbEntity
  8
TEXT
100
AcDbCircle
 10
0.988759341125819
 20
0.3353091598572542
 30
0.0
 40
0.0314112657011332
100
AcDbArc
 50
95.88484768694724
 51
173.2388340632136
  0
LINE
  5
1D5D
330
18
100
AcDbEntity
  8
TEXT
100
AcDbLine
 10
0.9575665240627104
 20
0.3390072372786443
 30
0.0
 11
0.9575665240627104
 21
0.366554887139519
 31
0.0
  0
TEXT
  5
1D5E
330
18
100
AcDbEntity
  8
TEXT
100
AcDbText
 10
1.426442043484501
 20
0.1929676627965042
 30
0.0
 40
0.0522247191011236
  1
Minneapolis, MN 55432-0008
 41
1.11444212721585
 72
     5
 11
2.755374627754164
 21
0.1929676627965042
 31
0.0
100
AcDbText
  0
TEXT
  5
1D5F
330
18
100
AcDbEntity
  8
TEXT
100
AcDbText
 10
1.426442043484501
 20
0.2862260897627964
 30
0.0
 40
0.0522247191011236
  1
6536 Main St. N.E. * P.O. Box 32008
 41
0.8388932496075355
 72
     5
 11
2.755374627754164
 21
0.2862260897627964
 31
0.0
100
AcDbText
  0
TEXT
  5
1D60
330
18
100
AcDbEntity
  8
TEXT
100
AcDbText
 10
1.426442043484501
 20
0.3794845167290886
 30
0.0
 40
0.0522247191011236
  1
Stylmark  Incorporated
 41
1.221428571428571
 72
     5
 11
2.755374627754164
 21
0.3794845167290886
 31
0.0
100
AcDbText
  0
TEXT
  5
1D61
330
18
100
AcDbEntity
  8
TEXT
100
AcDbText
 10
1.426442043484501
 20
0.0997092358302121
 30
0.0
 40
0.0522247191011236
  1
Phone  1-800-328-2495
 41
1.272321428571429
 72
     5
 11
2.755374627754164
 21
0.0997092358302121
 31
0.0
100
AcDbText
  0
LINE
  5
1D62
330
18
100
AcDbEntity
  8
TEXT
100
AcDbLine
 10
1.178886232021485
 20
0.2566616441985454
 30
0.0
 11
1.243443347987191
 21
0.366554887139519
 31
0.0
  0
LINE
  5
1D63
330
18
100
AcDbEntity
  8
TEXT
100
AcDbLine
 10
1.243443347987191
 20
0.366554887139519
 30
0.0
 11
1.168451515257564
 21
0.366554887139519
 31
0.0
  0
LINE
  5
1D64
330
18
100
AcDbEntity
  8
TEXT
100
AcDbLine
 10
1.19780008300889
 20
0.100081854151008
 30
0.0
 11
1.274378455385096
 21
0.100081854151008
 31
0.0
  0
LINE
  5
1D65
330
18
100
AcDbEntity
  8
TEXT
100
AcDbLine
 10
1.274378455385096
 20
0.100081854151008
 30
0.0
 11
1.178886232021485
 21
0.2566616441985454
 31
0.0
  0
LINE
  5
1D66
330
18
100
AcDbEntity
  8
TEXT
100
AcDbLine
 10
1.121896549797425
 20
0.100081854151008
 30
0.0
 11
1.121896549797425
 21
0.2316614226271882
 31
0.0
  0
LINE
  5
1D67
330
18
100
AcDbEntity
  8
TEXT
100
AcDbLine
 10
1.121896549797425
 20
0.2316614226271882
 30
0.0
 11
1.19780008300889
 21
0.100081854151008
 31
0.0
  0
LINE
  5
1D68
330
18
100
AcDbEntity
  8
TEXT
100
AcDbLine
 10
1.0575183654788
 20
0.3022781924827536
 30
0.0
 11
1.057518365478805
 21
0.100081854151008
 31
0.0
  0
LINE
  5
1D69
330
18
100
AcDbEntity
  8
TEXT
100
AcDbLine
 10
1.057518365478805
 20
0.100081854151008
 30
0.0
 11
1.121896549797425
 21
0.100081854151008
 31
0.0
  0
LINE
  5
1D6A
330
18
100
AcDbEntity
  8
TEXT
100
AcDbLine
 10
1.121353356701578
 20
0.4320190929071197
 30
0.0
 11
1.053038478152305
 21
0.4320190929071197
 31
0.0
  0
LINE
  5
1D6B
330
18
100
AcDbEntity
  8
TEXT
100
AcDbLine
 10
1.053038478152305
 20
0.4320190929071197
 30
0.0
 11
1.053038478152299
 21
0.366554887139519
 31
0.0
  0
LINE
  5
1D6C
330
18
100
AcDbEntity
  8
TEXT
100
AcDbLine
 10
1.168451515257562
 20
0.366554887139519
 30
0.0
 11
1.121353356701578
 21
0.2906895607279809
 31
0.0
  0
LINE
  5
1D6D
330
18
100
AcDbEntity
  8
TEXT
100
AcDbLine
 10
1.121353356701578
 20
0.2906895607279809
 30
0.0
 11
1.121353356701578
 21
0.4320190929071197
 31
0.0
  0
ENDSEC
  0
SECTION
  2
OBJECTS
  0
DICTIONARY
  5
C
330
0
100
AcDbDictionary
  3
ACAD_GROUP
350
D
  3
ACAD_LAYOUT
350
1D72
  3
ACAD_MLINESTYLE
350
1B
  3
ACAD_PLOTSETTINGS
350
1D73
  3
ACAD_PLOTSTYLENAME
350
1D70
  3
ACDBHEADERROUNDTRIPXREC
350
1D7D
  3
ACDBVARIABLEDICTIONARY
350
1D7A
  0
DICTIONARY
  5
1D9F
330
18
100
AcDbDictionary
280
     1
  3
ACAD_LAYOUTSELFREF
360
1DA0
  0
DICTIONARY
  5
1D9D
330
15
100
AcDbDictionary
280
     1
  3
ACAD_LAYOUTSELFREF
360
1D9E
  0
DICTIONARY
  5
D
102
{ACAD_REACTORS
330
C
102
}
330
C
100
AcDbDictionary
  3
*A1
350
1E1
  3
*A10
350
1E4
  3
*A11
350
1E3
  3
*A12
350
56D
  3
*A13
350
551
  3
*A14
350
56C
  3
*A15
350
8D9
  3
*A16
350
56E
  3
*A17
350
56F
  3
*A18
350
8DB
  3
*A19
350
8DA
  3
*A2
350
AEE
  3
*A20
350
8DC
  3
*A3
350
8DD
  3
*A4
350
AF1
  3
*A5
350
AEF
  3
*A6
350
AF0
  3
*A7
350
1E2
  3
*A8
350
AF2
  3
*A9
350
D00
  0
DICTIONARY
  5
1D72
102
{ACAD_REACTORS
330
C
102
}
330
C
100
AcDbDictionary
  0
DICTIONARY
  5
1B
102
{ACAD_REACTORS
330
C
102
}
330
C
100
AcDbDictionary
  3
STANDARD
350
1C
  0
DICTIONARY
  5
1D73
102
{ACAD_REACTORS
330
C
102
}
330
C
100
AcDbDictionary
  0
ACDBDICTIONARYWDFLT
  5
1D70
102
{ACAD_REACTORS
330
C
102
}
330
C
100
AcDbDictionary
281
     1
  3
Normal
350
1D71
100
AcDbDictionaryWithDefault
340
1D71
  0
DICTIONARY
  5
1D7D
102
{ACAD_REACTORS
330
C
102
}
330
C
100
AcDbDictionary
  3
CEPSNTYPE
350
1D87
  3
FINGERPRINTGUID
350
1D88
  3
HYPERLINKBASE
350
1D80
  3
INSUNITS
350
1D86
  3
LAYOUTDICT
350
1D82
  3
LWETCUNION
350
1D85
  3
PLOTSETDICT
350
1D83
  3
PLOTSTYLNAMDICT
350
1D84
  3
PSVPSCALE
350
1D8A
  3
PUCSBASE
350
1D8D
  3
PUCSORGBACK
350
1D93
  3
PUCSORGBOTTOM
350
1D8F
  3
PUCSORGFRONT
350
1D92
  3
PUCSORGLEFT
350
1D90
  3
PUCSORGRIGHT
350
1D91
  3
PUCSORGTOP
350
1D8E
  3
PUCSORTHOREF
350
1D8B
  3
PUCSORTHOVIEW
350
1D8C
  3
STYLESHEET
350
1D81
  3
TSTACKALIGN
350
1D7E
  3
TSTACKSIZE
350
1D7F
  3
UCSBASE
350
1D96
  3
UCSORGBACK
350
1D9C
  3
UCSORGBOTTOM
350
1D98
  3
UCSORGFRONT
350
1D9B
  3
UCSORGLEFT
350
1D99
  3
UCSORGRIGHT
350
1D9A
  3
UCSORGTOP
350
1D97
  3
UCSORTHOREF
350
1D94
  3
UCSORTHOVIEW
350
1D95
  3
VERSIONGUID
350
1D89
  0
DICTIONARY
  5
1D7A
102
{ACAD_REACTORS
330
C
102
}
330
C
100
AcDbDictionary
  3
DIMASSOC
350
1D7B
  0
XRECORD
  5
1DA0
102
{ACAD_REACTORS
330
1D9F
102
}
330
1D9F
100
AcDbXrecord
340
18
  0
XRECORD
  5
1D9E
102
{ACAD_REACTORS
330
1D9D
102
}
330
1D9D
100
AcDbXrecord
340
15
  0
GROUP
  5
1E1
102
{ACAD_REACTORS
330
D
102
}
330
D
100
AcDbGroup
300
BORDER FRAME 10-1-95
 70
     3
 71
     1
  0
GROUP
  5
1E4
102
{ACAD_REACTORS
330
D
102
}
330
D
100
AcDbGroup
300

 70
     1
 71
     1
  0
GROUP
  5
1E3
102
{ACAD_REACTORS
330
D
102
}
330
D
100
AcDbGroup
300
BORDER FRAME 10-1-95
 70
     3
 71
     1
  0
GROUP
  5
56D
102
{ACAD_REACTORS
330
D
102
}
330
D
100
AcDbGroup
300

 70
     3
 71
     1
  0
GROUP
  5
551
102
{ACAD_REACTORS
330
D
102
}
330
D
100
AcDbGroup
300

 70
     1
 71
     1
  0
GROUP
  5
56C
102
{ACAD_REACTORS
330
D
102
}
330
D
100
AcDbGroup
300
BORDER FRAME 10-1-95
 70
     3
 71
     1
  0
GROUP
  5
8D9
102
{ACAD_REACTORS
330
D
102
}
330
D
100
AcDbGroup
300

 70
     1
 71
     1
  0
GROUP
  5
56E
102
{ACAD_REACTORS
330
D
102
}
330
D
100
AcDbGroup
300
BORDER FRAME 10-1-95
 70
     3
 71
     1
  0
GROUP
  5
56F
102
{ACAD_REACTORS
330
D
102
}
330
D
100
AcDbGroup
300

 70
     1
 71
     1
  0
GROUP
  5
8DB
102
{ACAD_REACTORS
330
D
102
}
330
D
100
AcDbGroup
300

 70
     3
 71
     1
  0
GROUP
  5
8DA
102
{ACAD_REACTORS
330
D
102
}
330
D
100
AcDbGroup
300
BORDER FRAME 10-1-95
 70
     3
 71
     1
  0
GROUP
  5
AEE
102
{ACAD_REACTORS
330
D
102
}
330
D
100
AcDbGroup
300

 70
     1
 71
     1
  0
GROUP
  5
8DC
102
{ACAD_REACTORS
330
D
102
}
330
D
100
AcDbGroup
300

 70
     1
 71
     1
  0
GROUP
  5
8DD
102
{ACAD_REACTORS
330
D
102
}
330
D
100
AcDbGroup
300

 70
     3
 71
     1
  0
GROUP
  5
AF1
102
{ACAD_REACTORS
330
D
102
}
330
D
100
AcDbGroup
300

 70
     1
 71
     1
  0
GROUP
  5
AEF
102
{ACAD_REACTORS
330
D
102
}
330
D
100
AcDbGroup
300
BORDER FRAME 10-1-95
 70
     3
 71
     1
  0
GROUP
  5
AF0
102
{ACAD_REACTORS
330
D
102
}
330
D
100
AcDbGroup
300

 70
     3
 71
     1
  0
GROUP
  5
1E2
102
{ACAD_REACTORS
330
D
102
}
330
D
100
AcDbGroup
300

 70
     3
 71
     1
  0
GROUP
  5
AF2
102
{ACAD_REACTORS
330
D
102
}
330
D
100
AcDbGroup
300

 70
     3
 71
     1
  0
GROUP
  5
D00
102
{ACAD_REACTORS
330
D
102
}
330
D
100
AcDbGroup
300

 70
     1
 71
     1
  0
MLINESTYLE
  5
1C
102
{ACAD_REACTORS
330
1B
102
}
330
1B
100
AcDbMlineStyle
  2
STANDARD
 70
     0
  3

 62
   256
 51
90.0
 52
90.0
 71
     2
 49
0.5
 62
   256
  6
BYLAYER
 49
-0.5
 62
   256
  6
BYLAYER
  0
ACDBPLACEHOLDER
  5
1D71
102
{ACAD_REACTORS
330
1D70
102
}
330
1D70
100
AcDbPlaceHolder
280
     0
  0
XRECORD
  5
1D87
102
{ACAD_REACTORS
330
1D7D
102
}
330
1D7D
100
AcDbXrecord
 90
        0
  0
XRECORD
  5
1D88
102
{ACAD_REACTORS
330
1D7D
102
}
330
1D7D
100
AcDbXrecord
  1
{FEDEFA70-8DB8-11D6-88E6-0090279574E7}
  0
XRECORD
  5
1D80
102
{ACAD_REACTORS
330
1D7D
102
}
330
1D7D
100
AcDbXrecord
  1

  0
XRECORD
  5
1D86
102
{ACAD_REACTORS
330
1D7D
102
}
330
1D7D
100
AcDbXrecord
 90
        0
  0
XRECORD
  5
1D82
102
{ACAD_REACTORS
330
1D7D
102
}
330
1D7D
100
AcDbXrecord
340
1D72
  0
XRECORD
  5
1D85
102
{ACAD_REACTORS
330
1D7D
102
}
330
1D7D
100
AcDbXrecord
 90
    14877
  0
XRECORD
  5
1D83
102
{ACAD_REACTORS
330
1D7D
102
}
330
1D7D
100
AcDbXrecord
340
1D73
  0
XRECORD
  5
1D84
102
{ACAD_REACTORS
330
1D7D
102
}
330
1D7D
100
AcDbXrecord
340
1D70
  0
XRECORD
  5
1D8A
102
{ACAD_REACTORS
330
1D7D
102
}
330
1D7D
100
AcDbXrecord
 40
0.0
  0
XRECORD
  5
1D8D
102
{ACAD_REACTORS
330
1D7D
102
}
330
1D7D
100
AcDbXrecord
340
0
  0
XRECORD
  5
1D93
102
{ACAD_REACTORS
330
1D7D
102
}
330
1D7D
100
AcDbXrecord
 10
0.0
 20
0.0
 30
0.0
  0
XRECORD
  5
1D8F
102
{ACAD_REACTORS
330
1D7D
102
}
330
1D7D
100
AcDbXrecord
 10
0.0
 20
0.0
 30
0.0
  0
XRECORD
  5
1D92
102
{ACAD_REACTORS
330
1D7D
102
}
330
1D7D
100
AcDbXrecord
 10
0.0
 20
0.0
 30
0.0
  0
XRECORD
  5
1D90
102
{ACAD_REACTORS
330
1D7D
102
}
330
1D7D
100
AcDbXrecord
 10
0.0
 20
0.0
 30
0.0
  0
XRECORD
  5
1D91
102
{ACAD_REACTORS
330
1D7D
102
}
330
1D7D
100
AcDbXrecord
 10
0.0
 20
0.0
 30
0.0
  0
XRECORD
  5
1D8E
102
{ACAD_REACTORS
330
1D7D
102
}
330
1D7D
100
AcDbXrecord
 10
0.0
 20
0.0
 30
0.0
  0
XRECORD
  5
1D8B
102
{ACAD_REACTORS
330
1D7D
102
}
330
1D7D
100
AcDbXrecord
340
0
  0
XRECORD
  5
1D8C
102
{ACAD_REACTORS
330
1D7D
102
}
330
1D7D
100
AcDbXrecord
 70
     0
  0
XRECORD
  5
1D81
102
{ACAD_REACTORS
330
1D7D
102
}
330
1D7D
100
AcDbXrecord
  1

  0
XRECORD
  5
1D7E
102
{ACAD_REACTORS
330
1D7D
102
}
330
1D7D
100
AcDbXrecord
 90
        1
  0
XRECORD
  5
1D7F
102
{ACAD_REACTORS
330
1D7D
102
}
330
1D7D
100
AcDbXrecord
 90
       70
  0
XRECORD
  5
1D96
102
{ACAD_REACTORS
330
1D7D
102
}
330
1D7D
100
AcDbXrecord
340
0
  0
XRECORD
  5
1D9C
102
{ACAD_REACTORS
330
1D7D
102
}
330
1D7D
100
AcDbXrecord
 10
0.0
 20
0.0
 30
0.0
  0
XRECORD
  5
1D98
102
{ACAD_REACTORS
330
1D7D
102
}
330
1D7D
100
AcDbXrecord
 10
0.0
 20
0.0
 30
0.0
  0
XRECORD
  5
1D9B
102
{ACAD_REACTORS
330
1D7D
102
}
330
1D7D
100
AcDbXrecord
 10
0.0
 20
0.0
 30
0.0
  0
XRECORD
  5
1D99
102
{ACAD_REACTORS
330
1D7D
102
}
330
1D7D
100
AcDbXrecord
 10
0.0
 20
0.0
 30
0.0
  0
XRECORD
  5
1D9A
102
{ACAD_REACTORS
330
1D7D
102
}
330
1D7D
100
AcDbXrecord
 10
0.0
 20
0.0
 30
0.0
  0
XRECORD
  5
1D97
102
{ACAD_REACTORS
330
1D7D
102
}
330
1D7D
100
AcDbXrecord
 10
0.0
 20
0.0
 30
0.0
  0
XRECORD
  5
1D94
102
{ACAD_REACTORS
330
1D7D
102
}
330
1D7D
100
AcDbXrecord
340
0
  0
XRECORD
  5
1D95
102
{ACAD_REACTORS
330
1D7D
102
}
330
1D7D
100
AcDbXrecord
 70
     0
  0
XRECORD
  5
1D89
102
{ACAD_REACTORS
330
1D7D
102
}
330
1D7D
100
AcDbXrecord
  1
{FEDEFA72-8DB8-11D6-88E6-0090279574E7}
  0
DICTIONARYVAR
  5
1D7B
102
{ACAD_REACTORS
330
1D7A
102
}
330
1D7A
100
DictionaryVariables
280
     0
  1
1
  0
ENDSEC
  0
EOF
