  0
SECTION
  2
HEADER
  9
$ACADVER
  1
AC1014
  9
$ACADMAINTVER
 70
     9
  9
$DWGCODEPAGE
  3
ANSI_1252
  9
$INSBASE
 10
0.0
 20
0.0
 30
0.0
  9
$EXTMIN
 10
-0.3682236403822301
 20
1.831861584726828
 30
0.0
  9
$EXTMAX
 10
3.116995681364898
 20
3.497504545648036
 30
0.0
  9
$LIMMIN
 10
0.0
 20
0.0
  9
$LIMMAX
 10
12.0
 20
9.0
  9
$ORTHOMODE
 70
     0
  9
$REGENMODE
 70
     1
  9
$FILLMODE
 70
     1
  9
$QTEXTMODE
 70
     0
  9
$MIRRTEXT
 70
     0
  9
$DRAGMODE
 70
     2
  9
$LTSCALE
 40
1.0
  9
$OSMODE
 70
    39
  9
$ATTMODE
 70
     1
  9
$TEXTSIZE
 40
0.125
  9
$TRACEWID
 40
0.05
  9
$TEXTSTYLE
  7
ROMANS
  9
$CLAYER
  8
DIM
  9
$CELTYPE
  6
BYLAYER
  9
$CECOLOR
 62
   256
  9
$CELTSCALE
 40
1.0
  9
$DELOBJ
 70
     1
  9
$DISPSILH
 70
     1
  9
$DIMSCALE
 40
1.0
  9
$DIMASZ
 40
0.125
  9
$DIMEXO
 40
0.125
  9
$DIMDLI
 40
0.38
  9
$DIMRND
 40
0.0
  9
$DIMDLE
 40
0.0
  9
$DIMEXE
 40
0.125
  9
$DIMTP
 40
0.0
  9
$DIMTM
 40
0.0
  9
$DIMTXT
 40
0.125
  9
$DIMCEN
 40
-0.125
  9
$DIMTSZ
 40
0.0
  9
$DIMTOL
 70
     0
  9
$DIMLIM
 70
     0
  9
$DIMTIH
 70
     1
  9
$DIMTOH
 70
     1
  9
$DIMSE1
 70
     0
  9
$DIMSE2
 70
     0
  9
$DIMTAD
 70
     0
  9
$DIMZIN
 70
     4
  9
$DIMBLK
  1

  9
$DIMASO
 70
     1
  9
$DIMSHO
 70
     1
  9
$DIMPOST
  1

  9
$DIMAPOST
  1

  9
$DIMALT
 70
     0
  9
$DIMALTD
 70
     2
  9
$DIMALTF
 40
25.4
  9
$DIMLFAC
 40
0.5
  9
$DIMTOFL
 70
     0
  9
$DIMTVP
 40
0.0
  9
$DIMTIX
 70
     0
  9
$DIMSOXD
 70
     0
  9
$DIMSAH
 70
     0
  9
$DIMBLK1
  1

  9
$DIMBLK2
  1

  9
$DIMSTYLE
  2
STANDARD
  9
$DIMCLRD
 70
     0
  9
$DIMCLRE
 70
     0
  9
$DIMCLRT
 70
     0
  9
$DIMTFAC
 40
1.0
  9
$DIMGAP
 40
0.09
  9
$DIMJUST
 70
     0
  9
$DIMSD1
 70
     0
  9
$DIMSD2
 70
     0
  9
$DIMTOLJ
 70
     1
  9
$DIMTZIN
 70
     4
  9
$DIMALTZ
 70
     0
  9
$DIMALTTZ
 70
     0
  9
$DIMFIT
 70
     3
  9
$DIMUPT
 70
     1
  9
$DIMUNIT
 70
     2
  9
$DIMDEC
 70
     3
  9
$DIMTDEC
 70
     3
  9
$DIMALTU
 70
     2
  9
$DIMALTTD
 70
     2
  9
$DIMTXSTY
  7
ROMANS
  9
$DIMAUNIT
 70
     0
  9
$LUNITS
 70
     2
  9
$LUPREC
 70
     8
  9
$SKETCHINC
 40
0.1
  9
$FILLETRAD
 40
0.015
  9
$AUNITS
 70
     0
  9
$AUPREC
 70
     0
  9
$MENU
  1
.
  9
$ELEVATION
 40
0.0
  9
$PELEVATION
 40
0.0
  9
$THICKNESS
 40
0.0
  9
$LIMCHECK
 70
     0
  9
$BLIPMODE
 70
     0
  9
$CHAMFERA
 40
0.0
  9
$CHAMFERB
 40
0.0
  9
$CHAMFERC
 40
1.0
  9
$CHAMFERD
 40
0.0
  9
$SKPOLY
 70
     1
  9
$TDCREATE
 40
2451242.713709421
  9
$TDUPDATE
 40
2452458.320243565
  9
$TDINDWG
 40
3.7572963542
  9
$TDUSRTIMER
 40
3.7572963542
  9
$USRTIMER
 70
     1
  9
$ANGBASE
 50
0.0
  9
$ANGDIR
 70
     0
  9
$PDMODE
 70
     0
  9
$PDSIZE
 40
0.0
  9
$PLINEWID
 40
0.0
  9
$COORDS
 70
     2
  9
$SPLFRAME
 70
     0
  9
$SPLINETYPE
 70
     6
  9
$SPLINESEGS
 70
     8
  9
$ATTDIA
 70
     0
  9
$ATTREQ
 70
     1
  9
$HANDLING
 70
 22529
  9
$HANDSEED
  5
2F9
  9
$SURFTAB1
 70
     6
  9
$SURFTAB2
 70
     6
  9
$SURFTYPE
 70
     6
  9
$SURFU
 70
     6
  9
$SURFV
 70
     6
  9
$UCSNAME
  2

  9
$UCSORG
 10
0.0
 20
0.0
 30
0.0
  9
$UCSXDIR
 10
1.0
 20
0.0
 30
0.0
  9
$UCSYDIR
 10
0.0
 20
1.0
 30
0.0
  9
$PUCSNAME
  2

  9
$PUCSORG
 10
0.0
 20
0.0
 30
0.0
  9
$PUCSXDIR
 10
1.0
 20
0.0
 30
0.0
  9
$PUCSYDIR
 10
0.0
 20
1.0
 30
0.0
  9
$USERI1
 70
     0
  9
$USERI2
 70
     0
  9
$USERI3
 70
     0
  9
$USERI4
 70
     0
  9
$USERI5
 70
     0
  9
$USERR1
 40
0.0
  9
$USERR2
 40
0.0
  9
$USERR3
 40
0.0
  9
$USERR4
 40
0.0
  9
$USERR5
 40
0.0
  9
$WORLDVIEW
 70
     1
  9
$SHADEDGE
 70
     3
  9
$SHADEDIF
 70
    70
  9
$TILEMODE
 70
     1
  9
$MAXACTVP
 70
    48
  9
$PINSBASE
 10
0.0
 20
0.0
 30
0.0
  9
$PLIMCHECK
 70
     0
  9
$PEXTMIN
 10
-0.0020527379313506
 20
-0.0001278649645542
 30
-92.25940516179951
  9
$PEXTMAX
 10
34.00072386417291
 20
22.00164568477374
 30
92.26735686918942
  9
$PLIMMIN
 10
0.0
 20
0.0
  9
$PLIMMAX
 10
12.0
 20
9.0
  9
$UNITMODE
 70
     0
  9
$VISRETAIN
 70
     1
  9
$PLINEGEN
 70
     1
  9
$PSLTSCALE
 70
     1
  9
$TREEDEPTH
 70
  3020
  9
$PICKSTYLE
 70
     1
  9
$CMLSTYLE
  2
STANDARD
  9
$CMLJUST
 70
     0
  9
$CMLSCALE
 40
1.0
  9
$PROXYGRAPHICS
 70
     1
  9
$MEASUREMENT
 70
     0
  0
ENDSEC
  0
SECTION
  2
CLASSES
  0
CLASS
  1
LWPOLYLINE
  2
AcDbPolyline
  3
AutoCAD 2000
 90
        0
280
     0
281
     1
  0
CLASS
  1
DICTIONARYVAR
  2
AcDbDictionaryVar
  3
AutoCAD 2000
 90
        0
280
     0
281
     0
  0
CLASS
  1
HATCH
  2
AcDbHatch
  3
AutoCAD 2000
 90
        0
280
     0
281
     1
  0
CLASS
  1
ACDBDICTIONARYWDFLT
  2
AcDbDictionaryWithDefault
  3
AutoCAD 2000
 90
        0
280
     0
281
     0
  0
CLASS
  1
ACDBPLACEHOLDER
  2
AcDbPlaceHolder
  3
AutoCAD 2000
 90
        0
280
     0
281
     0
  0
CLASS
  1
LAYOUT
  2
AcDbLayout
  3
AutoCAD 2000
 90
        0
280
     0
281
     0
  0
CLASS
  1
LONG_TRANSACTION
  2
AcDbLongTransaction
  3
AutoCAD 2000
 90
        0
280
     0
281
     0
  0
CLASS
  1
LWPOLYLINE
  2
AcDbPolyline
  3
AutoCAD 2000
 90
        0
280
     0
281
     1
  0
CLASS
  1
HATCH
  2
AcDbHatch
  3
AutoCAD 2000
 90
        0
280
     0
281
     1
  0
CLASS
  1
XRECORD
  2
AcDbXrecord
  3
AutoCAD 2000
 90
        0
280
     0
281
     0
  0
ENDSEC
  0
SECTION
  2
TABLES
  0
TABLE
  2
VPORT
  5
12
330
0
100
AcDbSymbolTable
 70
     2
  0
VPORT
  5
2D4
330
12
100
AcDbSymbolTableRecord
100
AcDbViewportTableRecord
  2
*ACTIVE
 70
     0
 10
0.0
 20
0.0
 11
1.0
 21
1.0
 12
-143.6649700808287
 22
-5.461631243661132
 13
0.0
 23
0.0
 14
0.5
 24
0.5
 15
0.5
 25
0.5
 16
0.0
 26
0.0
 36
1.0
 17
147.9620343232253
 27
8.126241250426838
 37
18.46874554278985
 40
2.163944400474325
 41
4.320930232558139
 42
50.0
 43
-147.9620343232253
 44
-147.9620343232253
 50
0.0
 51
0.0
 71
     0
 72
  2000
 73
     1
 74
     1
 75
     0
 76
     0
 77
     0
 78
     0
  0
ENDTAB
  0
TABLE
  2
LTYPE
  5
D
330
0
100
AcDbSymbolTable
 70
     1
  0
LTYPE
  5
E
330
D
100
AcDbSymbolTableRecord
100
AcDbLinetypeTableRecord
  2
BYBLOCK
 70
     0
  3

 72
    65
 73
     0
 40
0.0
  0
LTYPE
  5
F
330
D
100
AcDbSymbolTableRecord
100
AcDbLinetypeTableRecord
  2
BYLAYER
 70
     0
  3

 72
    65
 73
     0
 40
0.0
  0
LTYPE
  5
5
330
D
100
AcDbSymbolTableRecord
100
AcDbLinetypeTableRecord
  2
CONTINUOUS
 70
     0
  3
Solid line
 72
    65
 73
     0
 40
0.0
  0
ENDTAB
  0
TABLE
  2
LAYER
  5
A
330
0
100
AcDbSymbolTable
 70
     3
  0
LAYER
  5
4
330
A
100
AcDbSymbolTableRecord
100
AcDbLayerTableRecord
  2
0
 70
     0
 62
     7
  6
CONTINUOUS
  0
LAYER
  5
42
330
A
100
AcDbSymbolTableRecord
100
AcDbLayerTableRecord
  2
TEXT
 70
     0
 62
     3
  6
CONTINUOUS
  0
LAYER
  5
1B
330
A
100
AcDbSymbolTableRecord
100
AcDbLayerTableRecord
  2
DIM
 70
     0
 62
     4
  6
CONTINUOUS
  0
ENDTAB
  0
TABLE
  2
STYLE
  5
B
330
0
100
AcDbSymbolTable
 70
     3
  0
STYLE
  5
C
330
B
100
AcDbSymbolTableRecord
100
AcDbTextStyleTableRecord
  2
STANDARD
 70
     0
 40
0.0
 41
1.0
 50
0.0
 71
     0
 42
0.2
  3
txt
  4

  0
STYLE
  5
1C
330
B
100
AcDbSymbolTableRecord
100
AcDbTextStyleTableRecord
  2
ROMANS
 70
     0
 40
0.0
 41
1.0
 50
0.0
 71
     0
 42
0.125
  3
romans.shx
  4

  0
STYLE
  5
1C2
330
B
100
AcDbSymbolTableRecord
100
AcDbTextStyleTableRecord
  2
ITALICC
 70
     0
 40
0.0
 41
1.0
 50
0.0
 71
     0
 42
0.125
  3
italicc
  4

  0
ENDTAB
  0
TABLE
  2
VIEW
  5
10
330
0
100
AcDbSymbolTable
 70
     0
  0
ENDTAB
  0
TABLE
  2
UCS
  5
11
330
0
100
AcDbSymbolTable
 70
     0
  0
ENDTAB
  0
TABLE
  2
APPID
  5
14
330
0
100
AcDbSymbolTable
 70
     1
  0
APPID
  5
15
330
14
100
AcDbSymbolTableRecord
100
AcDbRegAppTableRecord
  2
ACAD
 70
     0
  0
ENDTAB
  0
TABLE
  2
DIMSTYLE
  5
16
330
0
100
AcDbSymbolTable
 70
     1
  0
DIMSTYLE
105
1E
330
16
100
AcDbSymbolTableRecord
100
AcDbDimStyleTableRecord
  2
STANDARD
 70
     0
  3

  4

  5

  6

  7

 40
1.0
 41
0.125
 42
0.125
 43
0.38
 44
0.125
 45
0.0
 46
0.0
 47
0.0
 48
0.0
140
0.125
141
-0.125
142
0.0
143
25.4
144
0.5
145
0.0
146
1.0
147
0.09
 71
     0
 72
     0
 73
     1
 74
     1
 75
     0
 76
     0
 77
     0
 78
     4
170
     0
171
     2
172
     0
173
     0
174
     0
175
     0
176
     0
177
     0
178
     0
270
     2
271
     3
272
     3
273
     2
274
     2
340
1C
275
     0
280
     0
281
     0
282
     0
283
     1
284
     4
285
     0
286
     0
287
     3
288
     1
  0
ENDTAB
  0
TABLE
  2
BLOCK_RECORD
  5
1
330
0
100
AcDbSymbolTable
 70
     0
  0
BLOCK_RECORD
  5
2
102
{ACAD_XDICTIONARY
360
2F5
102
}
330
1
100
AcDbSymbolTableRecord
100
AcDbBlockTableRecord
  2
*MODEL_SPACE
  0
BLOCK_RECORD
  5
7
102
{ACAD_XDICTIONARY
360
2F7
102
}
330
1
100
AcDbSymbolTableRecord
100
AcDbBlockTableRecord
  2
*PAPER_SPACE
  0
ENDTAB
  0
ENDSEC
  0
SECTION
  2
BLOCKS
  0
BLOCK
  5
3
330
2
100
AcDbEntity
  8
0
100
AcDbBlockBegin
  2
*MODEL_SPACE
 70
     0
 10
0.0
 20
0.0
 30
0.0
  3
*MODEL_SPACE
  1

  0
ENDBLK
  5
6
330
2
100
AcDbEntity
  8
0
100
AcDbBlockEnd
  0
BLOCK
  5
8
330
7
100
AcDbEntity
 67
     1
  8
0
100
AcDbBlockBegin
  2
*PAPER_SPACE
 70
     0
 10
0.0
 20
0.0
 30
0.0
  3
*PAPER_SPACE
  1

  0
ENDBLK
  5
9
330
7
100
AcDbEntity
 67
     1
  8
0
100
AcDbBlockEnd
  0
ENDSEC
  0
SECTION
  2
ENTITIES
  0
LWPOLYLINE
  5
E5
330
2
100
AcDbEntity
  8
0
100
AcDbPolyline
 90
       18
 70
   129
 43
0.0
 10
2.388000517321216
 20
3.497504545648036
 10
2.388000517321216
 20
2.528754545648036
 42
-0.9999999999999998
 10
2.325500517321216
 20
2.528754545648036
 10
2.325500517321216
 20
2.560004545648036
 10
1.937127105057744
 20
2.560004545648036
 42
-0.2679491924311231
 10
1.91006381118948
 20
2.575629545648036
 10
1.883000517321216
 20
2.622504545648036
 10
2.325500517321216
 20
2.622504545648036
 10
2.325500517321216
 20
3.435004545648035
 10
0.4505005173212169
 20
3.435004545648036
 10
0.4505005173212169
 20
2.622504545648036
 10
0.8930005173212169
 20
2.622504545648036
 10
0.8659372234529538
 20
2.575629545648036
 42
-0.2679491924311224
 10
0.8388739295846907
 20
2.560004545648036
 10
0.4505005173212169
 20
2.560004545648036
 10
0.4505005173212169
 20
2.528754545648036
 42
-0.9999999999999998
 10
0.3880005173212169
 20
2.528754545648036
 10
0.3880005173212169
 20
3.497504545648036
  0
TEXT
  5
247
330
2
100
AcDbEntity
  8
TEXT
100
AcDbText
 10
0.621781748368722
 20
2.28988018880941
 30
0.0
 40
0.125
  1
PART #110639
  7
ITALICC
 72
     1
 11
1.374757938844912
 21
2.28988018880941
 31
0.0
100
AcDbText
  0
LINE
  5
248
330
2
100
AcDbEntity
  8
TEXT
100
AcDbLine
 10
1.342491437796975
 20
2.045526502789576
 30
0.0
 11
1.419139419089533
 21
2.045526502789576
 31
0.0
  0
LINE
  5
249
330
2
100
AcDbEntity
  8
TEXT
100
AcDbLine
 10
1.414659531763033
 20
2.109803197446342
 30
0.0
 11
1.347159814113516
 21
2.109803197446342
 31
0.0
  0
LWPOLYLINE
  5
24A
330
2
100
AcDbEntity
  8
TEXT
100
AcDbPolyline
 90
        5
 70
     0
 43
0.0001332181640625
 10
-0.2946206047376996
 20
1.986576395688529
 10
-0.2812987883314508
 20
1.986576395688529
 10
-0.2812987883314508
 20
2.023211390805719
 10
-0.244663793214261
 20
2.023211390805719
 10
-0.244663793214261
 20
2.036533207211966
  0
LWPOLYLINE
  5
24B
330
2
100
AcDbEntity
  8
TEXT
100
AcDbPolyline
 90
        3
 70
     0
 43
0.0006660908203125
 10
-0.2546551555189516
 20
2.083159564633844
 10
-0.3412469621595764
 20
2.083159564633844
 10
-0.3412469621595764
 20
1.996567757993218
  0
LWPOLYLINE
  5
24C
330
2
100
AcDbEntity
  8
TEXT
100
AcDbPolyline
 90
        3
 70
     0
 43
0.0006660908203125
 10
-0.2546551555189516
 20
2.109803197446345
 10
-0.3678905949720739
 20
2.109803197446345
 10
-0.3678905949720739
 20
1.996567757993218
  0
LWPOLYLINE
  5
24D
330
2
100
AcDbEntity
  8
TEXT
100
AcDbPolyline
 90
        5
 70
     0
 43
0.0001332181640625
 10
-0.244663793214261
 20
1.916636859555718
 10
-0.244663793214261
 20
1.929958675961969
 10
-0.2812987883314491
 20
1.929958675961969
 10
-0.2812987883314491
 20
1.966593671079155
 10
-0.2946206047376996
 20
1.966593671079155
  0
LWPOLYLINE
  5
24E
330
2
100
AcDbEntity
  8
TEXT
100
AcDbPolyline
 90
        3
 70
     0
 43
0.0006660908203125
 10
-0.3412469621595764
 20
1.95660230877447
 10
-0.3412469621595764
 20
1.870010502133843
 10
-0.2546551555189516
 20
1.870010502133843
  0
LWPOLYLINE
  5
24F
330
2
100
AcDbEntity
  8
TEXT
100
AcDbPolyline
 90
        3
 70
     0
 43
0.0006660908203125
 10
-0.3678905949720739
 20
1.95660230877447
 10
-0.3678905949720739
 20
1.843366869321342
 10
-0.2546551555189516
 20
1.843366869321342
  0
LWPOLYLINE
  5
250
330
2
100
AcDbEntity
  8
TEXT
100
AcDbPolyline
 90
        2
 70
     0
 43
0.0001332181640625
 10
-0.3412469621595764
 20
1.95660230877447
 10
-0.2812987883314491
 20
1.966593671079155
  0
LWPOLYLINE
  5
251
330
2
100
AcDbEntity
  8
TEXT
100
AcDbPolyline
 90
        2
 70
     0
 43
0.0001332181640625
 10
-0.2946206047376996
 20
1.966593671079155
 10
-0.3678905949720739
 20
1.95660230877447
  0
LWPOLYLINE
  5
252
330
2
100
AcDbEntity
  8
TEXT
100
AcDbPolyline
 90
        2
 70
     0
 43
0.0006660908203125
 10
-0.3412469621595764
 20
1.95660230877447
 10
-0.3678905949720739
 20
1.95660230877447
  0
LWPOLYLINE
  5
253
330
2
100
AcDbEntity
  8
TEXT
100
AcDbPolyline
 90
        2
 70
     0
 43
0.0001332181640625
 10
-0.3412469621595764
 20
1.870010502133843
 10
-0.2812987883314491
 20
1.929958675961969
  0
LWPOLYLINE
  5
254
330
2
100
AcDbEntity
  8
TEXT
100
AcDbPolyline
 90
        2
 70
     0
 43
0.0006660908203125
 10
-0.3412469621595764
 20
1.996567757993218
 10
-0.3678905949720739
 20
1.996567757993218
  0
LWPOLYLINE
  5
255
330
2
100
AcDbEntity
  8
TEXT
100
AcDbPolyline
 90
        2
 70
     0
 43
0.0001332181640625
 10
-0.3678905949720739
 20
1.996567757993218
 10
-0.2946206047376996
 20
1.986576395688529
  0
LWPOLYLINE
  5
256
330
2
100
AcDbEntity
  8
TEXT
100
AcDbPolyline
 90
        2
 70
     0
 43
0.0001332181640625
 10
-0.3412469621595764
 20
1.996567757993218
 10
-0.2812987883314508
 20
1.986576395688529
  0
LWPOLYLINE
  5
257
330
2
100
AcDbEntity
  8
TEXT
100
AcDbPolyline
 90
        2
 70
     0
 43
0.0001332181640625
 10
-0.3412469621595764
 20
2.083159564633844
 10
-0.2812987883314508
 20
2.023211390805719
  0
LWPOLYLINE
  5
258
330
2
100
AcDbEntity
  8
TEXT
100
AcDbPolyline
 90
        5
 70
     0
 43
0.0001332181640625
 10
-0.1747242570814502
 20
1.966593671079155
 10
-0.188046073487699
 20
1.966593671079155
 10
-0.188046073487699
 20
1.929958675961969
 10
-0.2246810686048888
 20
1.929958675961969
 10
-0.2246810686048888
 20
1.916636859555718
  0
LWPOLYLINE
  5
259
330
2
100
AcDbEntity
  8
TEXT
100
AcDbPolyline
 90
        2
 70
     0
 43
0.0001332181640625
 10
-0.1280978996595752
 20
1.95660230877447
 10
-0.188046073487699
 20
1.966593671079155
  0
LWPOLYLINE
  5
25A
330
2
100
AcDbEntity
  8
TEXT
100
AcDbPolyline
 90
        2
 70
     0
 43
0.0001332181640625
 10
-0.1014542668470741
 20
1.95660230877447
 10
-0.1747242570814502
 20
1.966593671079155
  0
LWPOLYLINE
  5
25B
330
2
100
AcDbEntity
  8
TEXT
100
AcDbPolyline
 90
        3
 70
     0
 43
0.0006660908203125
 10
-0.2146897063002
 20
1.843366869321342
 10
-0.1014542668470741
 20
1.843366869321342
 10
-0.1014542668470741
 20
1.95660230877447
  0
LWPOLYLINE
  5
25C
330
2
100
AcDbEntity
  8
TEXT
100
AcDbPolyline
 90
        3
 70
     0
 43
0.0006660908203125
 10
-0.2146897063002
 20
1.870010502133843
 10
-0.1280978996595752
 20
1.870010502133843
 10
-0.1280978996595752
 20
1.95660230877447
  0
LWPOLYLINE
  5
25D
330
2
100
AcDbEntity
  8
TEXT
100
AcDbPolyline
 90
        2
 70
     0
 43
0.0001332181640625
 10
-0.1280978996595752
 20
1.870010502133843
 10
-0.188046073487699
 20
1.929958675961969
  0
LWPOLYLINE
  5
25E
330
2
100
AcDbEntity
  8
TEXT
100
AcDbPolyline
 90
        2
 70
     0
 43
0.0006660908203125
 10
-0.2146897063002
 20
1.870010502133843
 10
-0.2146897063002
 20
1.843366869321342
  0
LWPOLYLINE
  5
25F
330
2
100
AcDbEntity
  8
TEXT
100
AcDbPolyline
 90
        2
 70
     0
 43
0.0001332181640625
 10
-0.2246810686048888
 20
1.916636859555718
 10
-0.2146897063002
 20
1.843366869321342
  0
LWPOLYLINE
  5
260
330
2
100
AcDbEntity
  8
TEXT
100
AcDbPolyline
 90
        2
 70
     0
 43
0.0001332181640625
 10
-0.2146897063002
 20
1.870010502133843
 10
-0.2246810686048888
 20
1.929958675961969
  0
LWPOLYLINE
  5
261
330
2
100
AcDbEntity
  8
TEXT
100
AcDbPolyline
 90
        2
 70
     0
 43
0.0001332181640625
 10
-0.2546551555189516
 20
1.843366869321342
 10
-0.244663793214261
 20
1.916636859555718
  0
LWPOLYLINE
  5
262
330
2
100
AcDbEntity
  8
TEXT
100
AcDbPolyline
 90
        2
 70
     0
 43
0.0001332181640625
 10
-0.2546551555189516
 20
1.870010502133843
 10
-0.244663793214261
 20
1.929958675961969
  0
LWPOLYLINE
  5
263
330
2
100
AcDbEntity
  8
TEXT
100
AcDbPolyline
 90
        2
 70
     0
 43
0.0006660908203125
 10
-0.2546551555189516
 20
1.870010502133843
 10
-0.2546551555189516
 20
1.843366869321342
  0
LWPOLYLINE
  5
264
330
2
100
AcDbEntity
  8
TEXT
100
AcDbPolyline
 90
        2
 70
     0
 43
0.0006660908203125
 10
-0.1280978996595752
 20
1.95660230877447
 10
-0.1014542668470741
 20
1.95660230877447
  0
LWPOLYLINE
  5
265
330
2
100
AcDbEntity
  8
TEXT
100
AcDbPolyline
 90
        2
 70
     0
 43
0.0001332181640625
 10
-0.1280978996595752
 20
2.083159564633844
 10
-0.188046073487699
 20
2.023211390805719
  0
LWPOLYLINE
  5
266
330
2
100
AcDbEntity
  8
TEXT
100
AcDbPolyline
 90
        2
 70
     0
 43
0.0001332181640625
 10
-0.1280978996595752
 20
1.996567757993218
 10
-0.188046073487699
 20
1.986576395688529
  0
LWPOLYLINE
  5
267
330
2
100
AcDbEntity
  8
TEXT
100
AcDbPolyline
 90
        2
 70
     0
 43
0.0001332181640625
 10
-0.1747242570814502
 20
1.986576395688529
 10
-0.1014542668470741
 20
1.996567757993218
  0
LWPOLYLINE
  5
268
330
2
100
AcDbEntity
  8
TEXT
100
AcDbPolyline
 90
        3
 70
     0
 43
0.0006660908203125
 10
-0.1280978996595752
 20
1.996567757993218
 10
-0.1280978996595752
 20
2.083159564633844
 10
-0.2146897063002
 20
2.083159564633844
  0
LWPOLYLINE
  5
269
330
2
100
AcDbEntity
  8
TEXT
100
AcDbPolyline
 90
        3
 70
     0
 43
0.0006660908203125
 10
-0.1014542668470741
 20
1.996567757993218
 10
-0.1014542668470741
 20
2.109803197446345
 10
-0.2146897063002
 20
2.109803197446345
  0
LWPOLYLINE
  5
26A
330
2
100
AcDbEntity
  8
TEXT
100
AcDbPolyline
 90
        2
 70
     0
 43
0.0001332181640625
 10
-0.2146897063002
 20
2.109803197446345
 10
-0.2246810686048888
 20
2.036533207211966
  0
LWPOLYLINE
  5
26B
330
2
100
AcDbEntity
  8
TEXT
100
AcDbPolyline
 90
        2
 70
     0
 43
0.0001332181640625
 10
-0.2146897063002
 20
2.083159564633844
 10
-0.2246810686048888
 20
2.023211390805719
  0
LWPOLYLINE
  5
26C
330
2
100
AcDbEntity
  8
TEXT
100
AcDbPolyline
 90
        2
 70
     0
 43
0.0006660908203125
 10
-0.2146897063002
 20
2.083159564633844
 10
-0.2146897063002
 20
2.109803197446345
  0
LWPOLYLINE
  5
26D
330
2
100
AcDbEntity
  8
TEXT
100
AcDbPolyline
 90
        5
 70
     0
 43
0.0001332181640625
 10
-0.2246810686048888
 20
2.036533207211966
 10
-0.2246810686048888
 20
2.023211390805719
 10
-0.188046073487699
 20
2.023211390805719
 10
-0.188046073487699
 20
1.986576395688529
 10
-0.1747242570814502
 20
1.986576395688529
  0
LWPOLYLINE
  5
26E
330
2
100
AcDbEntity
  8
TEXT
100
AcDbPolyline
 90
        2
 70
     0
 43
0.0001332181640625
 10
-0.2546551555189516
 20
2.083159564633844
 10
-0.244663793214261
 20
2.023211390805719
  0
LWPOLYLINE
  5
26F
330
2
100
AcDbEntity
  8
TEXT
100
AcDbPolyline
 90
        2
 70
     0
 43
0.0001332181640625
 10
-0.244663793214261
 20
2.036533207211966
 10
-0.2546551555189516
 20
2.109803197446345
  0
LWPOLYLINE
  5
270
330
2
100
AcDbEntity
  8
TEXT
100
AcDbPolyline
 90
        2
 70
     0
 43
0.0006660908203125
 10
-0.2546551555189516
 20
2.083159564633844
 10
-0.2546551555189516
 20
2.109803197446345
  0
LWPOLYLINE
  5
271
330
2
100
AcDbEntity
  8
TEXT
100
AcDbPolyline
 90
        2
 70
     0
 43
0.0006660908203125
 10
-0.1280978996595752
 20
1.996567757993218
 10
-0.1014542668470741
 20
1.996567757993218
  0
LWPOLYLINE
  5
272
330
2
100
AcDbEntity
  8
TEXT
100
AcDbPolyline
 90
        2
 70
     0
 43
0.0
 10
0.6173256539015562
 20
1.894881506672759
 42
0.3318488747599744
 10
0.6864449464668692
 20
1.843330164457831
 42
-6.868794160588311
  0
LINE
  5
273
330
2
100
AcDbEntity
  8
TEXT
100
AcDbLine
 10
0.6853053729706735
 20
2.177814675185152
 30
0.0
 11
0.6184966604043085
 21
2.177814675185152
 31
0.0
  0
LINE
  5
274
330
2
100
AcDbEntity
  8
TEXT
100
AcDbLine
 10
0.3391542927852145
 20
2.109803197446342
 30
0.0
 11
0.1634225398867031
 21
2.109803197446342
 31
0.0
  0
ARC
  5
275
330
2
100
AcDbEntity
  8
TEXT
100
AcDbCircle
 10
0.2342600062452527
 20
1.926525972818388
 30
0.0
 40
0.0831958083605586
100
AcDbArc
 50
270.0
 51
90.0
  0
LINE
  5
276
330
2
100
AcDbEntity
  8
TEXT
100
AcDbLine
 10
0.1686598700009512
 20
2.045526502789576
 30
0.0
 11
0.3355655240299216
 21
2.045526502789576
 31
0.0
  0
LINE
  5
277
330
2
100
AcDbEntity
  8
TEXT
100
AcDbLine
 10
0.2392003801515319
 20
1.91168717079127
 30
0.0
 11
0.0813350804401978
 21
1.91168717079127
 31
0.0
  0
LINE
  5
278
330
2
100
AcDbEntity
  8
TEXT
100
AcDbLine
 10
0.0813350804401996
 20
1.843330164457831
 30
0.0
 11
0.2342600062452522
 21
1.843330164457831
 31
0.0
  0
ARC
  5
279
330
2
100
AcDbEntity
  8
TEXT
100
AcDbCircle
 10
0.1634225398867035
 20
2.02771573799984
 30
0.0
 40
0.0820874594465043
100
AcDbArc
 50
90.0
 51
270.0
  0
LINE
  5
27A
330
2
100
AcDbEntity
  8
TEXT
100
AcDbLine
 10
0.0813350804401978
 20
1.91168717079127
 30
0.0
 11
0.0813350804401996
 21
1.843330164457831
 31
0.0
  0
LINE
  5
27B
330
2
100
AcDbEntity
  8
TEXT
100
AcDbLine
 10
0.1634225398867031
 20
1.945628278553335
 30
0.0
 11
0.2392003801515319
 21
1.945628278553335
 31
0.0
  0
ARC
  5
27C
330
2
100
AcDbEntity
  8
TEXT
100
AcDbCircle
 10
0.2392003801515323
 20
1.928657724672304
 30
0.0
 40
0.0169705538810321
100
AcDbArc
 50
270.0
 51
90.0
  0
LINE
  5
27D
330
2
100
AcDbEntity
  8
TEXT
100
AcDbLine
 10
0.2342600062452522
 20
2.009721781178948
 30
0.0
 11
0.1686598700009512
 21
2.009721781178948
 31
0.0
  0
ARC
  5
27E
330
2
100
AcDbEntity
  8
TEXT
100
AcDbCircle
 10
0.1686598700009516
 20
2.027624141984264
 30
0.0
 40
0.017902360805315
100
AcDbArc
 50
90.0
 51
270.0
  0
LINE
  5
27F
330
2
100
AcDbEntity
  8
TEXT
100
AcDbLine
 10
0.5296261848050668
 20
2.008931201333221
 30
0.0
 11
0.4709958637731289
 21
2.109803197446342
 31
0.0
  0
LINE
  5
280
330
2
100
AcDbEntity
  8
TEXT
100
AcDbLine
 10
0.3894521315100272
 20
1.843330164457831
 30
0.0
 11
0.4860923825850217
 21
1.843600803556113
 31
0.0
  0
LWPOLYLINE
  5
281
330
2
100
AcDbEntity
  8
TEXT
100
AcDbPolyline
 90
        6
 70
     1
 43
0.0
 10
0.4319759350851773
 20
2.045526502789576
 10
0.4016593408649692
 20
2.045526502789576
 10
0.4016593408649692
 20
1.922415504734682
 42
0.407328721240804
 10
0.4132029920264455
 20
1.910596590058296
 10
0.4738246910711763
 20
1.910596590058296
 10
0.4912900314784943
 20
1.943408819101775
  0
LINE
  5
282
330
2
100
AcDbEntity
  8
TEXT
100
AcDbLine
 10
0.3355655240299216
 20
2.045526502789576
 30
0.0
 11
0.3355655240299216
 21
1.903122555795881
 31
0.0
  0
ARC
  5
283
330
2
100
AcDbEntity
  8
TEXT
100
AcDbCircle
 10
0.3956815420036741
 20
1.903122555795881
 30
0.0
 40
0.0601160179737537
100
AcDbArc
 50
180.0000000000003
 51
264.0521544866073
  0
LINE
  5
284
330
2
100
AcDbEntity
  8
TEXT
100
AcDbLine
 10
0.3991968976292215
 20
2.14419111504048
 30
0.0
 11
0.3391542927852145
 21
2.14419111504048
 31
0.0
  0
LINE
  5
285
330
2
100
AcDbEntity
  8
TEXT
100
AcDbLine
 10
0.3391542927852145
 20
2.14419111504048
 30
0.0
 11
0.3391542927852145
 21
2.109803197446342
 31
0.0
  0
LINE
  5
286
330
2
100
AcDbEntity
  8
TEXT
100
AcDbLine
 10
0.3991968976292215
 20
2.109803197446342
 30
0.0
 11
0.3991968976292215
 21
2.14419111504048
 31
0.0
  0
LINE
  5
287
330
2
100
AcDbEntity
  8
TEXT
100
AcDbLine
 10
0.4709958637731289
 20
2.109803197446342
 30
0.0
 11
0.3991968976292215
 21
2.109803197446342
 31
0.0
  0
LINE
  5
288
330
2
100
AcDbEntity
  8
TEXT
100
AcDbLine
 10
0.5200259478081124
 20
1.863288670562844
 30
0.0
 11
0.6173256539015571
 21
2.027638881498112
 31
0.0
  0
LINE
  5
289
330
2
100
AcDbEntity
  8
TEXT
100
AcDbLine
 10
0.6173256539015571
 20
2.027638881498112
 30
0.0
 11
0.6173256539015571
 21
1.894881506672756
 31
0.0
  0
ARC
  5
28A
330
2
100
AcDbEntity
  8
TEXT
100
AcDbCircle
 10
0.4859823878958989
 20
1.882877886731527
 30
0.0
 40
0.0392772371940762
100
AcDbArc
 50
270.1604552698595
 51
330.0831797321295
  0
LINE
  5
28B
330
2
100
AcDbEntity
  8
TEXT
100
AcDbLine
 10
0.5883747476109323
 20
2.109803197446342
 30
0.0
 11
0.5296261848050668
 21
2.008931201333221
 31
0.0
  0
LINE
  5
28C
330
2
100
AcDbEntity
  8
TEXT
100
AcDbLine
 10
0.6184966604043085
 20
2.177814675185152
 30
0.0
 11
0.6184966604043085
 21
2.109803197446342
 31
0.0
  0
LINE
  5
28D
330
2
100
AcDbEntity
  8
TEXT
100
AcDbLine
 10
0.6184966604043085
 20
2.109803197446342
 30
0.0
 11
0.5883747476109323
 21
2.109803197446342
 31
0.0
  0
LWPOLYLINE
  5
28E
330
2
100
AcDbEntity
  8
TEXT
100
AcDbPolyline
 90
        4
 70
     0
 43
0.0
 10
0.9705827820244667
 20
2.037972713623466
 10
0.9705827820244667
 20
1.843330164457831
 10
1.039061065312324
 20
1.843330164457831
 10
1.039061065312324
 20
1.886821109408269
 42
-1.714843617202739
  0
LWPOLYLINE
  5
28F
330
2
100
AcDbEntity
  8
TEXT
100
AcDbPolyline
 90
        2
 70
     0
 43
0.0
 10
1.005717132568676
 20
2.109803197446345
 42
-0.3277054968067132
 10
1.041498823281841
 20
2.081480651676701
 42
6.667889725900311
  0
LWPOLYLINE
  5
290
330
2
100
AcDbEntity
  8
TEXT
100
AcDbPolyline
 90
        2
 70
     0
 43
0.0
 10
0.8342835599894495
 20
2.045526502789576
 42
-0.4142135623731017
 10
0.841837349155563
 20
2.037972713623466
 42
-0.9999999999999998
  0
LINE
  5
291
330
2
100
AcDbEntity
  8
TEXT
100
AcDbLine
 10
0.85163528303947
 20
2.109803197446342
 30
0.0
 11
0.7176172271083337
 21
2.109803197446342
 31
0.0
  0
LINE
  5
292
330
2
100
AcDbEntity
  8
TEXT
100
AcDbLine
 10
0.7844482801663029
 20
1.843330164457831
 30
0.0
 11
0.7844482801663029
 21
2.045526502789576
 31
0.0
  0
LINE
  5
293
330
2
100
AcDbEntity
  8
TEXT
100
AcDbLine
 10
0.7176172271083337
 20
2.109803197446342
 30
0.0
 11
0.7176172271083337
 21
1.908938990713934
 31
0.0
  0
LINE
  5
294
330
2
100
AcDbEntity
  8
TEXT
100
AcDbLine
 10
0.6853053729706735
 20
1.92571800256083
 30
0.0
 11
0.6853053729706735
 21
2.177814675185152
 31
0.0
  0
LINE
  5
295
330
2
100
AcDbEntity
  8
TEXT
100
AcDbLine
 10
0.6864449464668683
 20
1.843330164457831
 30
0.0
 11
0.7844482801663029
 21
1.843330164457831
 31
0.0
  0
LINE
  5
296
330
2
100
AcDbEntity
  8
TEXT
100
AcDbLine
 10
0.7176172271083337
 20
1.908938990713934
 30
0.0
 11
0.7006235902237324
 21
1.908938990713934
 31
0.0
  0
ARC
  5
297
330
2
100
AcDbEntity
  8
TEXT
100
AcDbCircle
 10
0.7006235902237315
 20
1.924320796957359
 30
0.0
 40
0.0153818062434269
100
AcDbArc
 50
174.7883570302258
 51
270.0
  0
LINE
  5
298
330
2
100
AcDbEntity
  8
TEXT
100
AcDbLine
 10
0.7844482801663029
 20
2.045526502789576
 30
0.0
 11
0.8342835599894504
 21
2.045526502789576
 31
0.0
  0
LINE
  5
299
330
2
100
AcDbEntity
  8
TEXT
100
AcDbLine
 10
0.8418373491555639
 20
2.037972713623466
 30
0.0
 11
0.8418373491555639
 21
1.843330164457831
 31
0.0
  0
LINE
  5
29A
330
2
100
AcDbEntity
  8
TEXT
100
AcDbLine
 10
0.9088953959374039
 20
1.843330164457831
 30
0.0
 11
0.9088953959374039
 21
2.045526502789576
 31
0.0
  0
LINE
  5
29B
330
2
100
AcDbEntity
  8
TEXT
100
AcDbLine
 10
0.8418373491555639
 20
1.843330164457831
 30
0.0
 11
0.9088953959374039
 21
1.843330164457831
 31
0.0
  0
LWPOLYLINE
  5
29C
330
2
100
AcDbEntity
  8
TEXT
100
AcDbPolyline
 90
        3
 70
     0
 43
0.0
 10
1.005717132568676
 20
2.109803197446345
 10
0.8874169737526322
 20
2.109803197446345
 10
0.8874169737526322
 20
2.082635700685449
 42
-1.960274751411753
  0
LINE
  5
29D
330
2
100
AcDbEntity
  8
TEXT
100
AcDbLine
 10
0.9088953959374039
 20
2.045526502789576
 30
0.0
 11
0.9630289928583541
 21
2.045526502789576
 31
0.0
  0
LWPOLYLINE
  5
29E
330
2
100
AcDbEntity
  8
TEXT
100
AcDbPolyline
 90
        2
 70
     0
 43
0.0
 10
0.8516352830394708
 20
2.109803197446345
 42
-0.3328679258950098
 10
0.8874169737526322
 20
2.082635700685449
 42
6.772930709997214
  0
LWPOLYLINE
  5
29F
330
2
100
AcDbEntity
  8
TEXT
100
AcDbPolyline
 90
        2
 70
     0
 43
0.0
 10
0.9630289928583533
 20
2.045526502789576
 42
-0.4142135623731017
 10
0.9705827820244667
 20
2.037972713623466
 42
-0.9999999999999998
  0
ARC
  5
2A0
330
2
100
AcDbEntity
  8
TEXT
100
AcDbCircle
 10
1.174303792721833
 20
2.068219630325439
 30
0.0
 40
0.0416329381542859
100
AcDbArc
 50
26.56974201007528
 51
87.20939649401342
  0
LWPOLYLINE
  5
2A1
330
2
100
AcDbEntity
  8
TEXT
100
AcDbPolyline
 90
        2
 70
     0
 43
0.0
 10
1.08213699817996
 20
1.843330164457831
 10
1.216154415811336
 20
1.843330164457831
 42
0.9999999999999998
  0
LWPOLYLINE
  5
2A2
330
2
100
AcDbEntity
  8
TEXT
100
AcDbPolyline
 90
        4
 70
     1
 43
0.0
 10
1.196031950741444
 20
1.946294142441856
 10
1.107371632081585
 20
1.946294142441856
 42
0.9999999999999998
 10
1.107371632081585
 20
1.903895601937995
 10
1.196031950741444
 20
1.903895601937995
 42
1.0
  0
LWPOLYLINE
  5
2A3
330
2
100
AcDbEntity
  8
TEXT
100
AcDbPolyline
 90
        2
 70
     0
 43
0.0
 10
1.039061065312324
 20
1.886821109408269
 42
0.2901071551932823
 10
1.08213699817996
 20
1.843330164457831
 42
5.328517124445801
  0
LINE
  5
2A4
330
2
100
AcDbEntity
  8
TEXT
100
AcDbLine
 10
1.176330732498901
 20
2.109803197446342
 30
0.0
 11
1.041498823281842
 21
2.109803197446342
 31
0.0
  0
LINE
  5
2A5
330
2
100
AcDbEntity
  8
TEXT
100
AcDbLine
 10
1.100812919675161
 20
2.008251529327444
 30
0.0
 11
1.183100909458544
 21
2.008251529327444
 31
0.0
  0
LINE
  5
2A6
330
2
100
AcDbEntity
  8
TEXT
100
AcDbLine
 10
1.147299834154423
 20
2.045526502789576
 30
0.0
 11
1.040093560767133
 21
2.045526502789576
 31
0.0
  0
LINE
  5
2A7
330
2
100
AcDbEntity
  8
TEXT
100
AcDbLine
 10
1.041498823281842
 20
2.109803197446342
 30
0.0
 11
1.041498823281842
 21
2.081480651676698
 31
0.0
  0
ARC
  5
2A8
330
2
100
AcDbEntity
  8
TEXT
100
AcDbCircle
 10
1.10081291967516
 20
1.940565948183325
 30
0.0
 40
0.0676855811441166
100
AcDbArc
 50
90.0
 51
153.7768192527749
  0
LINE
  5
2A9
330
2
100
AcDbEntity
  8
TEXT
100
AcDbLine
 10
1.040093560767133
 20
2.045526502789576
 30
0.0
 11
1.040093560767133
 21
1.97047409671537
 31
0.0
  0
LINE
  5
2AA
330
2
100
AcDbEntity
  8
TEXT
100
AcDbLine
 10
1.183100909458544
 20
2.008251529327444
 30
0.0
 11
1.17283614904498
 21
2.029502068900138
 31
0.0
  0
ARC
  5
2AB
330
2
100
AcDbEntity
  8
TEXT
100
AcDbCircle
 10
1.147299834154422
 20
2.017167127789579
 30
0.0
 40
0.028359375
100
AcDbArc
 50
25.78218179591245
 51
90.0
  0
LINE
  5
2AC
330
2
100
AcDbEntity
  8
TEXT
100
AcDbLine
 10
1.317585562514316
 20
1.843330164457831
 30
0.0
 11
1.31758556251431
 21
2.020620669889299
 31
0.0
  0
LWPOLYLINE
  5
2AD
330
2
100
AcDbEntity
  8
TEXT
100
AcDbPolyline
 90
        2
 70
     0
 43
0.0
 10
1.259230348678981
 20
1.843330164457831
 10
1.317585562514315
 20
1.843330164457831
  0
LWPOLYLINE
  5
2AE
330
2
100
AcDbEntity
  8
TEXT
100
AcDbPolyline
 90
        2
 70
     0
 43
0.0
 10
1.259230348678981
 20
1.886821109408269
 42
-0.2901071551932486
 10
1.216154415811336
 20
1.843330164457831
 42
-5.328517124445184
  0
LWPOLYLINE
  5
2AF
330
2
100
AcDbEntity
  8
TEXT
100
AcDbPolyline
 90
        2
 70
     0
 43
0.0
 10
1.259230348678981
 20
1.886821109408269
 10
1.259230348678981
 20
1.843330164457831
  0
LINE
  5
2B0
330
2
100
AcDbEntity
  8
TEXT
100
AcDbLine
 10
1.319187577673443
 20
2.109803197446342
 30
0.0
 11
1.255290671373942
 21
2.109803197446342
 31
0.0
  0
LINE
  5
2B1
330
2
100
AcDbEntity
  8
TEXT
100
AcDbLine
 10
1.255290671373942
 20
2.109803197446342
 30
0.0
 11
1.255290671373942
 21
2.004591218892914
 31
0.0
  0
LINE
  5
2B2
330
2
100
AcDbEntity
  8
TEXT
100
AcDbLine
 10
1.255290671373942
 20
2.004591218892914
 30
0.0
 11
1.211539900192041
 21
2.08684149488906
 31
0.0
  0
ARC
  5
2B3
330
2
100
AcDbEntity
  8
TEXT
100
AcDbCircle
 10
1.342491437796974
 20
2.020620627506914
 30
0.0
 40
0.0249058752826653
100
AcDbArc
 50
89.99971217465335
 51
179.9999999999985
  0
ARC
  5
2B4
330
2
100
AcDbEntity
  8
TEXT
100
AcDbCircle
 10
1.350380394736552
 20
2.078557470164077
 30
0.0
 40
0.0314112657011332
100
AcDbArc
 50
95.88484768694724
 51
173.2388340632136
  0
LINE
  5
2B5
330
2
100
AcDbEntity
  8
TEXT
100
AcDbLine
 10
1.319187577673443
 20
2.082255547585467
 30
0.0
 11
1.319187577673443
 21
2.109803197446342
 31
0.0
  0
TEXT
  5
2B6
330
2
100
AcDbEntity
  8
TEXT
100
AcDbText
 10
1.788063097095234
 20
1.936215973103327
 30
0.0
 40
0.0522247191011236
  1
Minneapolis, MN 55432-0008
 41
1.11444212721585
 72
     5
 11
3.116995681364898
 21
1.936215973103327
 31
0.0
100
AcDbText
  0
TEXT
  5
2B7
330
2
100
AcDbEntity
  8
TEXT
100
AcDbText
 10
1.788063097095234
 20
2.029474400069619
 30
0.0
 40
0.0522247191011236
  1
6536 Main St. N.E. * P.O. Box 32008
 41
0.8388932496075355
 72
     5
 11
3.116995681364898
 21
2.029474400069619
 31
0.0
100
AcDbText
  0
TEXT
  5
2B8
330
2
100
AcDbEntity
  8
TEXT
100
AcDbText
 10
1.788063097095234
 20
2.122732827035911
 30
0.0
 40
0.0522247191011236
  1
Stylmark  Incorporated
 41
1.221428571428571
 72
     5
 11
3.116995681364898
 21
2.122732827035911
 31
0.0
100
AcDbText
  0
TEXT
  5
2B9
330
2
100
AcDbEntity
  8
TEXT
100
AcDbText
 10
1.788063097095234
 20
1.842957546137035
 30
0.0
 40
0.0522247191011236
  1
Phone  1-800-328-2495
 41
1.272321428571429
 72
     5
 11
3.116995681364898
 21
1.842957546137035
 31
0.0
100
AcDbText
  0
LINE
  5
2BA
330
2
100
AcDbEntity
  8
TEXT
100
AcDbLine
 10
1.540507285632219
 20
1.999909954505368
 30
0.0
 11
1.605064401597924
 21
2.109803197446342
 31
0.0
  0
LINE
  5
2BB
330
2
100
AcDbEntity
  8
TEXT
100
AcDbLine
 10
1.605064401597924
 20
2.109803197446342
 30
0.0
 11
1.530072568868297
 21
2.109803197446342
 31
0.0
  0
LINE
  5
2BC
330
2
100
AcDbEntity
  8
TEXT
100
AcDbLine
 10
1.559421136619623
 20
1.843330164457831
 30
0.0
 11
1.635999508995829
 21
1.843330164457831
 31
0.0
  0
LINE
  5
2BD
330
2
100
AcDbEntity
  8
TEXT
100
AcDbLine
 10
1.635999508995829
 20
1.843330164457831
 30
0.0
 11
1.540507285632219
 21
1.999909954505368
 31
0.0
  0
LINE
  5
2BE
330
2
100
AcDbEntity
  8
TEXT
100
AcDbLine
 10
1.483517603408158
 20
1.843330164457831
 30
0.0
 11
1.483517603408158
 21
1.974909732934011
 31
0.0
  0
LINE
  5
2BF
330
2
100
AcDbEntity
  8
TEXT
100
AcDbLine
 10
1.483517603408158
 20
1.974909732934011
 30
0.0
 11
1.559421136619623
 21
1.843330164457831
 31
0.0
  0
LINE
  5
2C0
330
2
100
AcDbEntity
  8
TEXT
100
AcDbLine
 10
1.419139419089533
 20
2.045526502789576
 30
0.0
 11
1.419139419089538
 21
1.843330164457831
 31
0.0
  0
LINE
  5
2C1
330
2
100
AcDbEntity
  8
TEXT
100
AcDbLine
 10
1.419139419089538
 20
1.843330164457831
 30
0.0
 11
1.483517603408158
 21
1.843330164457831
 31
0.0
  0
LINE
  5
2C2
330
2
100
AcDbEntity
  8
TEXT
100
AcDbLine
 10
1.482974410312311
 20
2.175267403213942
 30
0.0
 11
1.414659531763038
 21
2.175267403213942
 31
0.0
  0
LINE
  5
2C3
330
2
100
AcDbEntity
  8
TEXT
100
AcDbLine
 10
1.414659531763038
 20
2.175267403213942
 30
0.0
 11
1.414659531763033
 21
2.109803197446342
 31
0.0
  0
LINE
  5
2C4
330
2
100
AcDbEntity
  8
TEXT
100
AcDbLine
 10
1.530072568868296
 20
2.109803197446342
 30
0.0
 11
1.482974410312311
 21
2.033937871034804
 31
0.0
  0
LINE
  5
2C5
330
2
100
AcDbEntity
  8
TEXT
100
AcDbLine
 10
1.482974410312311
 20
2.033937871034804
 30
0.0
 11
1.482974410312311
 21
2.175267403213942
 31
0.0
  0
ENDSEC
  0
SECTION
  2
OBJECTS
  0
DICTIONARY
  5
1A
330
0
100
AcDbDictionary
  3
ACAD_GROUP
350
18
  3
ACAD_LAYOUT
350
2CA
  3
ACAD_MLINESTYLE
350
19
  3
ACAD_PLOTSETTINGS
350
2CB
  3
ACAD_PLOTSTYLENAME
350
2C8
  3
ACDBHEADERROUNDTRIPXREC
350
2D5
  3
ACDBVARIABLEDICTIONARY
350
2D2
  0
DICTIONARY
  5
2F5
330
2
100
AcDbDictionary
280
     1
  3
ACAD_LAYOUTSELFREF
360
2F6
  0
DICTIONARY
  5
2F7
330
7
100
AcDbDictionary
280
     1
  3
ACAD_LAYOUTSELFREF
360
2F8
  0
DICTIONARY
  5
18
102
{ACAD_REACTORS
330
1A
102
}
330
1A
100
AcDbDictionary
  0
DICTIONARY
  5
2CA
102
{ACAD_REACTORS
330
1A
102
}
330
1A
100
AcDbDictionary
  0
DICTIONARY
  5
19
102
{ACAD_REACTORS
330
1A
102
}
330
1A
100
AcDbDictionary
  3
STANDARD
350
1D
  0
DICTIONARY
  5
2CB
102
{ACAD_REACTORS
330
1A
102
}
330
1A
100
AcDbDictionary
  0
ACDBDICTIONARYWDFLT
  5
2C8
102
{ACAD_REACTORS
330
1A
102
}
330
1A
100
AcDbDictionary
281
     1
  3
Normal
350
2C9
100
AcDbDictionaryWithDefault
340
2C9
  0
DICTIONARY
  5
2D5
102
{ACAD_REACTORS
330
1A
102
}
330
1A
100
AcDbDictionary
  3
CEPSNTYPE
350
2DF
  3
FINGERPRINTGUID
350
2E0
  3
HYPERLINKBASE
350
2D8
  3
INSUNITS
350
2DE
  3
LAYOUTDICT
350
2DA
  3
LWETCUNION
350
2DD
  3
PLOTSETDICT
350
2DB
  3
PLOTSTYLNAMDICT
350
2DC
  3
PSVPSCALE
350
2E2
  3
PUCSBASE
350
2E5
  3
PUCSORGBACK
350
2EB
  3
PUCSORGBOTTOM
350
2E7
  3
PUCSORGFRONT
350
2EA
  3
PUCSORGLEFT
350
2E8
  3
PUCSORGRIGHT
350
2E9
  3
PUCSORGTOP
350
2E6
  3
PUCSORTHOREF
350
2E3
  3
PUCSORTHOVIEW
350
2E4
  3
STYLESHEET
350
2D9
  3
TSTACKALIGN
350
2D6
  3
TSTACKSIZE
350
2D7
  3
UCSBASE
350
2EE
  3
UCSORGBACK
350
2F4
  3
UCSORGBOTTOM
350
2F0
  3
UCSORGFRONT
350
2F3
  3
UCSORGLEFT
350
2F1
  3
UCSORGRIGHT
350
2F2
  3
UCSORGTOP
350
2EF
  3
UCSORTHOREF
350
2EC
  3
UCSORTHOVIEW
350
2ED
  3
VERSIONGUID
350
2E1
  0
DICTIONARY
  5
2D2
102
{ACAD_REACTORS
330
1A
102
}
330
1A
100
AcDbDictionary
  3
DIMASSOC
350
2D3
  0
XRECORD
  5
2F6
102
{ACAD_REACTORS
330
2F5
102
}
330
2F5
100
AcDbXrecord
340
2
  0
XRECORD
  5
2F8
102
{ACAD_REACTORS
330
2F7
102
}
330
2F7
100
AcDbXrecord
340
7
  0
MLINESTYLE
  5
1D
102
{ACAD_REACTORS
330
19
102
}
330
19
100
AcDbMlineStyle
  2
STANDARD
 70
     0
  3

 62
     0
 51
90.0
 52
90.0
 71
     2
 49
0.5
 62
   256
  6
BYLAYER
 49
-0.5
 62
   256
  6
BYLAYER
  0
ACDBPLACEHOLDER
  5
2C9
102
{ACAD_REACTORS
330
2C8
102
}
330
2C8
100
AcDbPlaceHolder
280
     0
  0
XRECORD
  5
2DF
102
{ACAD_REACTORS
330
2D5
102
}
330
2D5
100
AcDbXrecord
 90
        0
  0
XRECORD
  5
2E0
102
{ACAD_REACTORS
330
2D5
102
}
330
2D5
100
AcDbXrecord
  1
{F8FF59F0-8DB8-11D6-88E6-0090279574E7}
  0
XRECORD
  5
2D8
102
{ACAD_REACTORS
330
2D5
102
}
330
2D5
100
AcDbXrecord
  1

  0
XRECORD
  5
2DE
102
{ACAD_REACTORS
330
2D5
102
}
330
2D5
100
AcDbXrecord
 90
        0
  0
XRECORD
  5
2DA
102
{ACAD_REACTORS
330
2D5
102
}
330
2D5
100
AcDbXrecord
340
2CA
  0
XRECORD
  5
2DD
102
{ACAD_REACTORS
330
2D5
102
}
330
2D5
100
AcDbXrecord
 90
    14877
  0
XRECORD
  5
2DB
102
{ACAD_REACTORS
330
2D5
102
}
330
2D5
100
AcDbXrecord
340
2CB
  0
XRECORD
  5
2DC
102
{ACAD_REACTORS
330
2D5
102
}
330
2D5
100
AcDbXrecord
340
2C8
  0
XRECORD
  5
2E2
102
{ACAD_REACTORS
330
2D5
102
}
330
2D5
100
AcDbXrecord
 40
0.0
  0
XRECORD
  5
2E5
102
{ACAD_REACTORS
330
2D5
102
}
330
2D5
100
AcDbXrecord
340
0
  0
XRECORD
  5
2EB
102
{ACAD_REACTORS
330
2D5
102
}
330
2D5
100
AcDbXrecord
 10
0.0
 20
0.0
 30
0.0
  0
XRECORD
  5
2E7
102
{ACAD_REACTORS
330
2D5
102
}
330
2D5
100
AcDbXrecord
 10
0.0
 20
0.0
 30
0.0
  0
XRECORD
  5
2EA
102
{ACAD_REACTORS
330
2D5
102
}
330
2D5
100
AcDbXrecord
 10
0.0
 20
0.0
 30
0.0
  0
XRECORD
  5
2E8
102
{ACAD_REACTORS
330
2D5
102
}
330
2D5
100
AcDbXrecord
 10
0.0
 20
0.0
 30
0.0
  0
XRECORD
  5
2E9
102
{ACAD_REACTORS
330
2D5
102
}
330
2D5
100
AcDbXrecord
 10
0.0
 20
0.0
 30
0.0
  0
XRECORD
  5
2E6
102
{ACAD_REACTORS
330
2D5
102
}
330
2D5
100
AcDbXrecord
 10
0.0
 20
0.0
 30
0.0
  0
XRECORD
  5
2E3
102
{ACAD_REACTORS
330
2D5
102
}
330
2D5
100
AcDbXrecord
340
0
  0
XRECORD
  5
2E4
102
{ACAD_REACTORS
330
2D5
102
}
330
2D5
100
AcDbXrecord
 70
     0
  0
XRECORD
  5
2D9
102
{ACAD_REACTORS
330
2D5
102
}
330
2D5
100
AcDbXrecord
  1

  0
XRECORD
  5
2D6
102
{ACAD_REACTORS
330
2D5
102
}
330
2D5
100
AcDbXrecord
 90
        1
  0
XRECORD
  5
2D7
102
{ACAD_REACTORS
330
2D5
102
}
330
2D5
100
AcDbXrecord
 90
       70
  0
XRECORD
  5
2EE
102
{ACAD_REACTORS
330
2D5
102
}
330
2D5
100
AcDbXrecord
340
0
  0
XRECORD
  5
2F4
102
{ACAD_REACTORS
330
2D5
102
}
330
2D5
100
AcDbXrecord
 10
0.0
 20
0.0
 30
0.0
  0
XRECORD
  5
2F0
102
{ACAD_REACTORS
330
2D5
102
}
330
2D5
100
AcDbXrecord
 10
0.0
 20
0.0
 30
0.0
  0
XRECORD
  5
2F3
102
{ACAD_REACTORS
330
2D5
102
}
330
2D5
100
AcDbXrecord
 10
0.0
 20
0.0
 30
0.0
  0
XRECORD
  5
2F1
102
{ACAD_REACTORS
330
2D5
102
}
330
2D5
100
AcDbXrecord
 10
0.0
 20
0.0
 30
0.0
  0
XRECORD
  5
2F2
102
{ACAD_REACTORS
330
2D5
102
}
330
2D5
100
AcDbXrecord
 10
0.0
 20
0.0
 30
0.0
  0
XRECORD
  5
2EF
102
{ACAD_REACTORS
330
2D5
102
}
330
2D5
100
AcDbXrecord
 10
0.0
 20
0.0
 30
0.0
  0
XRECORD
  5
2EC
102
{ACAD_REACTORS
330
2D5
102
}
330
2D5
100
AcDbXrecord
340
0
  0
XRECORD
  5
2ED
102
{ACAD_REACTORS
330
2D5
102
}
330
2D5
100
AcDbXrecord
 70
     0
  0
XRECORD
  5
2E1
102
{ACAD_REACTORS
330
2D5
102
}
330
2D5
100
AcDbXrecord
  1
{F8FF59F2-8DB8-11D6-88E6-0090279574E7}
  0
DICTIONARYVAR
  5
2D3
102
{ACAD_REACTORS
330
2D2
102
}
330
2D2
100
DictionaryVariables
280
     0
  1
1
  0
ENDSEC
  0
EOF
